Tag: evil

Evil In The Night chords – Adam Lambert

 transpose - 1 for easier chords
[INTRO]
[CHORUS]
     Bbm C# 
My life flashed before my eyes
 Fm Ebsus4 
Razor blade lips and daggers up in your eyes
 Bbm C# 
Baby, your love is a crime
 Fm Ebsus4 
Danger by day, but you're evil in the night
     Bbm C# 
My life flashed before my eyes
 Fm Ebsus4 
Bombs over Broadway, f-fire in the sky
 Bbm C# 
Baby, your love is a crime
 Fm Ebsus4 
Danger by day, but you're evil in the night
[INSTRUMENTAL]  Bbm C# Fm Ebsus4 
Danger by day, but you're evil in the night
[INSTRUMENTAL]  Bbm C# Fm Ebsus4 
Bombs over Broadway, f-fire in the sky

[VERSE]
 Bbm C# 
You lit up like a full moon
 Fm Ebsus4 Bbm 
Yeah, I heard you were the baddest on the street
 C# 
You work it like there's no rules
 Fm Ebsus4 
Little criminal, I'm calling the police

[PRE-CHORUS]
 Bbm C# 
Keep me on a leash tonight
 Fm Ebsus4 
There's nowhere for me to hide
 Bbm C# Fm Ebsus4 
See you on the other side

[CHORUS]
     Bbm C# 
My life flashed before my eyes
 Fm Ebsus4 
Razor blade lips and daggers up in your eyes
 Bbm C# 
Baby, your love is a crime
 Fm Ebsus4 
Danger by day, but you're evil in the night
     Bbm C# 
My life flashed before my eyes
 Fm Ebsus4 
Bombs over Broadway, f-fire in the sky
 Bbm C# 
Baby, your love is a crime
 Fm Ebsus4 
Danger by day, but you're evil in the night
[INSTRUMENTAL]  Bbm C# Fm Ebsus4 
Danger by day, but you're evil in the night
[INSTRUMENTAL]  Bbm C# Fm Ebsus4 
Bombs over Broadway, f-fire in the sky

[VERSE]
 Bbm C# Fm 
I can tell your heart's cold
          Ebsus4 Bbm 
Like a fallen angel walking in your sleep
 C# Fm 
I guess you're just a lost soul
                Ebsus4 Bbm 
But when the moon comes out, you turn into a beast

[PRE-CHORUS]
 Bbm C# 
Keep me on a leash tonight
 Fm Ebsus4 
There's nowhere for me to hide
 Bbm C# Fm Ebsus4 
See you on the other side

[CHORUS]
     Bbm C# 
My life flashed before my eyes
 Fm Ebsus4 
Razor blade lips and daggers up in your eyes
 Bbm C# 
Baby, your love is a crime
 Fm Ebsus4 
Danger by day, but you're evil in the night
     Bbm C# 
My life flashed before my eyes
 Fm Ebsus4 
Bombs over Broadway, f-fire in the sky
 Bbm C# 
Baby, your love is a crime
 Fm Ebsus4 
Danger by day, but you're evil in the night
[INSTRUMENTAL]  Bbm C# Fm Ebsus4 
Danger by day, but you're evil in the night
[INSTRUMENTAL]  Bbm C# Fm Ebsus4 
Bombs over Broadway, f-fire in the sky
[INSTRUMENTAL]  Bbm C# Fm Ebsus4 
Bombs over Broadway, f-fire in the sky

A Childs Guide To Good And Evil chords – West Coast Pop Art Experimental Band

 ---------------------------------------------------------------------------
The West Coast Pop Art Experimental Band - A Child's Guide to Good and Evil
---------------------------------------------------------------------------
                      : gutturalguitar
                      Tuning: standard

                      A Child's Guide to Good and Evil (1968)
                      (Bob Markley, Shaun Harris)

                      From: "Volume 3: A Child's Guide to Good and Evil"
---------------------------------------------------------------------------
electric sitar riff (sometimes varies slightly):
e|-10-10--8-7h8p7----------------------------------|
B|------10-------10-8-11-10--10-10h11p10h11-10-----|
G|-------------------------10-----------------10---|
D|----------------------------------------------12-|
A|-------------------------------------------------|
E|-------------------------------------------------|

guitar riff #1:
e|-----0---0---0---0----|
B|--7h8-8p7-7/5-5/3-3/5-|
G|----------------------|
D|----------------------|
A|----------------------|
E|-0--------------------|

guitar riff #2 (sometimes varies slightly):
e|----------------------|
B|--7-8-10-10/12-10-8p7-|
G|-9--------------------|
D|----------------------|
A|----------------------|
E|----------------------|
---------------------------------------------------------------------------

(guitar riff #1)

(electric sitar riff)

|  D/F#  |  G  |  A#  |  F  |  D/F#  |

(guitar riffs #1 and #2)

take my hand, and run away with me

through the forests, until the leaves and trees slow us down

a vampire bat will suck blood from our hands

a dog with rabies will bite us

rats will run up your legs, but nothing will matter

(electric sitar riff)

|  D/F#  |  G  |  A#  |  F  |  D/F#  |

(guitar riffs #1 and #2)

after the doors of many strange rooms have been bolted and locked

when you come back, dragging your daydreams behind you

I'll give you a new shiny face, and a yellow brick road

the rest of the world is wrong, and don't let anyone change you

(electric sitar riff)

 D/F# G A# F D/F# 

evil doesn't exist anymore, except for the war

(electric sitar riff)

 D/F# G A# F D/F# 

evil doesn't exist anymore, except for the war 
(I lick my lips for the war, and my tongue)

(electric sitar riff)

 D/F# G A# F D/F# 

evil doesn't exist anymore, except for the war
(and I'll be you, and you'll be me, and we'll be one)

(electric sitar riff)

 D/F# G A# F D/F# 

evil doesn't exist anymore, except for the war
(and nothing will bother us, no, no, no, no)

The Evil Within Tabs by Twelve Gates

 e|----------------------------------------------------|
B|----------------------------------------------------|
G|----------------------------------------------------|
D|-5-4-----5-4-----5-4-5-4-5-4-5-4-5-4-5--------------|
A|-7-5-----7-5-----7-5-7-5-7-5-7-5-7-5-7--------------|
E|-----0-0-----0-0-----------------------0-0----------|

e|-----------------------------------------------------------|
B|-----------------------------------------------------------|
G|-----------------------------------------------------------|
D|-5-----------4-----------2-----------1-----2---4-4---------|
A|-7-----------5-----------3-----------2-----3---5-5---------|
E|---0-0-0-0-0---0-0-0-0-0---0-0-0-0-0---0-0---0-----0-0-----|

e|----------------------------------------------------|
B|----------------------------------------------------|
G|----------------------------------------------------|
D|-9-----9--7-----7--5-----5--7/4-------4-------------|
A|-7-7-7-7--5-5-5-5--3-3-3-3--5/2-2-2-2-2-------------|
E|----------------------------------------------------|
G|----------------------------------------------------|

e|---------------------------------------------------------|
B|---------------------------------------------------------|
G|---------------------------------------------------------|
D|-9-----9--7-----7--5-----5--7/4--------------------------|
A|-7-7-7-7--5-5-5-5--3-3-3-3--5/2-2-2-2-2-2-2-2------------|
E|---------------------------------------------------------|

e|------------------------------------------------------------------------|
B|------------------------------------------------------------------------|
G|------------------------------------------------------------------------|
D|-----5-----7--------4--------2--------5-----7---------9---------7-------|
A|---7-----9---9----5---5----3---3----7-----9---9----10---10----9---9-----|
E|-0-----0--------0--------0--------0-----0--------0----------0-----------|

e|--------------------------------------------------------|
B|--------------------------------------------------------|
G|--------------------------------------------------------|
D|-9~-----------------------------------------------------|
A|-7~-----------------------------------------------------|
E|--------------------------------------------------------|

Evil Ways Tabs by Blues Saraceno

                              Evil Ways (Justice Mix) - Blues saraceno
:Tyboy19211

Tuning:DADGBE
Verse
e|---------------------------------------------|
B|---------------------------------------------|
G|------------------2--------------------------|
D|--0-0---0-0-0---0---5h3-0--0-0---0-----------|
A|--0--0h3--0--0h3-----------0--0h3---3---5----|
E|--0-------0----------------0-------3---5-----|

2nd Verse Variation Instead of G:2 D:5h3
e|----------|
B|----------|
G|----------|
D|----3p0---|
A|-------3--|
E|----------|
Chorus
e|-------------------------|
B|-------------------------|
G|-------------------------| x2
D|---33p0h3-0-0-000--------|
A|---33p0h3-0-0-000--------|
E|---33p0h3-0-0-000--------|


************************************

| /   slide up
| \   slide down
| h   hammer-on
| p   pull-off
| ~   vibrato
| +   harmonic
| x   Mute note
| b   Bend
| pb  Pre-bend
| br  Bend release
| pbr Pre-bend release
| brb Bend release bend

************************************

The Mirror Tabs by Dream Evil

 : Joshua Garcia (joshuag523@aol.com)

Tabs for the song: The Mirror by Dream Evil
Please rate and let me know if you have any corrections. Thank you.


Tuning: Drop C (C G C F A D)


Intro
Guitar 1:
D||-------------------------------------------------------------------|
A||------0-----0-----3-----3-----------------0---------------3--------|
F||----0-----0-----0-----0-----0---0-----0-----0---0-----0-----0---0--|
C||--2-----4-----5-----4-----2---0-----4---------4-----4---4-----4----| x4
G||----------------------------------3-----3---------2----------------|
C||-------------------------------------------------------------------|


Guitar 2:
D||----0-----0-----0-----0--------------0-----0-----0---------7--------|
A||------8-----8-----8-----10-8---8-------8-----8---------7-----8-7----|
F||--9-----9-----9-----9--------9---9-7-----7-----7-----7---7-------9--|
C||---------------------------------------------------7----------------| x2
G||--------------------------------------------------------------------|
C||--------------------------------------------------------------------|



Main Riff
Guitar 1/2:
D||----------|
A||----------|
F||----------|
C||--//12\\--|
G||--//12\\--|
C||--//12\\--|


D||-----------------------------------|------------------------------------|
A||-----------------------------------|------------------------------------|
F||-----------------------------------|------------------------------------|
C||--0-2---5-7---0-2---3-2------------|--0-2---5-7---0-2---/8---7---5---7--|
G||--0-2---5-7---0-2---3-2------------|--0-2---5-7---0-2---/8---7---5---7--|
C||--0-2-x-5-7-x-0-2-x-3-2-2-2-2-2-2--|--0-2-x-5-7-x-0-2-x-/8---7---5---7--|
                           . . . . .

D||-----------------------------------|-----------------------------------|
A||-----------------------------------|-----------------------------------|
F||-----------------------------------|--------------------2-4---5-7~--\--|
C||--0-2---5-7---0-2---3-2------------|--0-2---5-7---0-2---2-4---5-7~--\--|
G||--0-2---5-7---0-2---3-2------------|--0-2---5-7---0-2---0-2---3-5~--\--|
C||--0-2-x-5-7-x-0-2-x-3-2-2-2-2-2-2--|--0-2-x-5-7-x-0-2-x-----x----------|
                           . . . . .



Verse
Guitar 1/2:
D||-----------------------------------|-----------------------------------|
A||-----------------------------------|-----------------------------------|
F||-----------------------------------|-----------------------------------|
C||--2--------------------------------|--0-2---5-7---0-2---3-2---5-7~--5--|
G||--2--------------------------------|--0-2---5-7---0-2---3-2---5-7~--5--|
C||--2-2-2-2-2-2-2-2-2-2-2-2-2-2-2-2--|--0-2-x-5-7-x-0-2-x-3-2-x-5-7~--5--|
       . . . . . . . . . . . . . . .


D||-----------------------------------|-----------------------------------|
A||-----------------------------------|-----------------------------------|
F||-----------------------------------|--------------------2-4---5-7~--\--|
C||--2--------------------------------|--0-2---5-7---0-2---2-4---5-7~--\--|
G||--2--------------------------------|--0-2---5-7---0-2---0-2---3-5~--\--|
C||--2-2-2-2-2-2-2-2-2-2-2-2-2-2-2-2--|--0-2-x-5-7-x-0-2-x-----x----------|
       . . . . . . . . . . . . . . .



Pre-Chorus
Guitar 1/2:
D||--------------------------------------------------------------------|
A||--------------------------------------------------------------------|
F||------4-----4-----4-----4-----4--------5-----5-----5-----5-----5----|
C||----4-----4-----4-----4-----4--------5-----5-----5-----5-----5------|
G||--2-----2-----2-----2-----2-----2--3-----3-----3-----3-----3-----3--|
C||--------------------------------------------------------------------|
     . .   . .   . .   . .   . .      . .   . .   . .   . .   . .


D||-------------------------|
A||-------------------------|
F||-------------------------|
C||--0-2---5-7---0-2---3-2--|
G||--0-2---5-7---0-2---3-2--|
C

Suy Nghi Trong Anh chords – Pop Evil

 C G      
Cu qua them mot ngay moi biet the nao la yeu. 
                        Am Em      
Mot ngay troi qua voi va nhung trong anh rat nhieu dieu. 
                       F C       
Nhung suy nghi trong anh, cu lon len tung phut 
                        Dm G     
Cu lon theo tung ngay khi anh duoc am ap ben em. 
 

                       C G      
Nhung suy nghi trong anh, gio da chia lam hai. 
                         Am Em     
Mot nua trong anh tung nghi chung ta se ben nhau tron doi. 
                   F C          
Nhung neu lo mot ngay, em noi loi chia tay. 
      Dm G                   
Anh se the nao day, anh song the nao day. 
 
 
                      C G       
Hay de cho anh duoc yeu, yeu em trong tung suy nghi. 
                 Am Em     
Du la tuong tu thoi nhung anh cung thay vui roi. 
                  F C      
Dung noi chi em oi, tinh yeu khong can noi. 
                   Dm G         
Chi can cam nhan thoi anh nghi cung du roi. 
 
 
                     C G      
Nhieu khi anh tung mo, ngoi mot minh cuoi ngan ngo. 
                   Am Em                
Chung ta se duoc song trong ngoi nha day tre tho. 
                  F C      
Co kho khong em oi, neu giac mo nay xa xoi. 
          Dm G C       
Thi anh xin duoc giu giac mo do, o trong suy nghi anh ma thoi. 

Pure Evil Tabs by Baby Strange

 Intro
e|-------------------------------------------------------------------------|
B|-------------------------------------------------------------------------|
G|-------------------------------------------------------------------------|
D|-5-7--(13-12-10-7-5-7)x 4------------------------------------------------|
A|-------------------------------------------------------------------------|
E|-------------------------------------------------------------------------|

Verse and Chorus follow same pattern with slightly different rhythm:


     A   C   B   G   A
e|-------------------------------------------------------------------------|
B|-------------------------------------------------------------------------|
G|-------5-----------------------------------------------------------------|
D|---7---5---4---5---7-----------------------------------------------------|
A|---7---3---4---5---7-----------------------------------------------------|
E|---5-------2---3---5-----------------------------------------------------|

Riff at 02:17

e|-------------------------------------------------------------------------|
B|-------------------------------------------------------------------------|
G|-------------------------------------------------------------------------|
D|-------------------------------------------------------------------------|
A|------3-3-----3-3----3-2-------------------------------------------------|
E|--5-5-----5-5----5-5-----3-3---------------------------------------------|

The Root Of All Evil chords – Beautiful South

 , not sure whether its fully correct. Chords sound great
when strumming along and I think I have the main chord progression down so 
please give any feedback you can. Peace! 

0------------------------------------------0

Beautiful South - The Root of All Evil - 2:40

Intro
-----
 A#m D# - F#m7 A#m D# F#m7 
If euro replaces the pound

            A#m D# F#m7 
It's still likely to be shiny and round

      A#m D# F#m7 
Rich may switch the way they feel rich

            A#m D# F#m7 
But not the man who's alive, or the man who has drowned

         A#m D# F#m7 
Keeping pound only makes sense

           A#m D# F#m7 
If you're worth more than 99 pence 

       A#m D# F#m7    
Those who have a lot and those who have not

    A#m D# F#m7 
Remain francs marks pesetas or cents

Bridge
------

    Db Eb 
If money is the root of all evil

     Db Eb 
What does that make lover of pound

          Db Eb 
We'll be eating frogs and modeling clogs

           Db Eb  
And you'll be hunting french and dutch with a hound

Chorus
------

       G# A#m 
Now a nation goes to the vote

        A#m G#                  
So our country has its name on the note

  G# A#m 
Same set of people same boat

            A#m G# 
Need their name in the back of their coat

Verse
-----

          A#m D# F#m7   
Heads or tails can't have been won

          A#m D# F#m7 
On whose head graced whatever was spun

          A#m D# F#m7 
If queen's head's not on money they've got

            A#m D# F#m7 
It's still business and money's still fun

Bridge
-------

    Db Eb 
If money is the root of all evil

     Db Eb 
What does that make lover of pound

          Db Eb 
We'll be eating frogs and modeling clogs

           Db Eb  
And you'll be hunting french and dutch with a hound


Chorus
------

       G# A#m 
Now a nation goes to the vote

        A#m G# 
So our country has its name on the note

      G# A#m 
Same set of people same boat

            A#m G# 
Need their name in the back of their coat

       G# A#m 
Now a nation goes to the vote

        A#m G# 
So our country has its name on the note

      G# A#m 
Same set of people same boat

            A#m G# 
Need their name in the back of their coat