Tag: eyes

Find Tabs by Before Their Eyes

 : Joshua Garcia (joshuag523@aol.com)

Tabs for the song: Find by Before Their Eyes
Please rate and let me know if you have any corrections. Thank you.


Tuning: Drop C (C G C F A D)


Intro
Guitar 1:
D||--------------------------------------------------------------------------------------|
A||--------------------------------------------------------------------------------------|
F||--7-7-7-10-10-10-12-12-12-14-14-14-14-14-14-14-7-7-7-10-10-10-12-12-12-9-9-9-9-9-9-9--|
C||--x-x-x-x--x--x--x--x--x--x--x--x--x--x--x--x--x-x-x-x--x--x--x--x--x--x-x-x-x-x-x-x--|
G||--5-5-5-8--8--8--10-10-10-12-12-12-12-12-12-12-5-5-5-8--8--8--10-10-10-7-7-7-7-7-7-7--|
C||--------------------------------------------------------------------------------------|


D||-----------------------------------------------------------------------------------|
A||-----------------------------------------------------------------------------------|
F||--7-7-7-10-10-10-12-12-12-14-14-14-14-14-14-14-7-7-7-10-10-10-8-8-8-8-8-8-8-8-8-8--|
C||--x-x-x-x--x--x--x--x--x--x--x--x--x--x--x--x--x-x-x-x--x--x--x-x-x-x-x-x-x-x-x-x--|
G||--5-5-5-8--8--8--10-10-10-12-12-12-12-12-12-12-5-5-5-8--8--8--6-6-6-6-6-6-6-6-6-6--|
C||-----------------------------------------------------------------------------------|


Guitar 2:
D||-------------------------------------------------------------------|
A||-------------------------------------------------------------------|
F||-------------------------------------------------------------------|
C||-------------------------------------------------------------------|
G||-------------------------------------------------------------------|
C||--0-0-0-3-3-3-5-5-5-7-7-7-7-7-7-7-0-0-0-3-3-3-5-5-5-2-2-2-2-2-2-2--|


D||-------------------------------------------------------------------|
A||-------------------------------------------------------------------|
F||-------------------------------------------------------------------|
C||-------------------------------------------------------------------|
G||-------------------------------------------------------------------|
C||--0-0-0-3-3-3-5-5-5-7-7-7-7-7-7-7-0-0-0-3-3-3-1-1-1-1-1-1-1-1-1-1--|



Verse
Guitar 1:
D||------|
A||------|
F||--7~--|
C||--x---|
G||--5~--|
C||------|


Guitar 2:
D||------|
A||------|
F||------|
C||--0~--|
G||--0~--|
C||--0~--|



Pre-Chorus
Guitar 1 (Left):
D||--------------------------------------------------|
A||------------------------8~------------8~----------|
F||----------5~-----------------5~------------5~-----|
C||-------7~-----------------------7~------------7~--|
G||--5~----------------------------------------------|
C||--------------------------------------------------|


D||--------------------------------------------------|
A||------------------------8~------------8~----------|
F||----------5~-----------------5~------------5~-----|
C||-------7~-----------------------7~------------7~--|
G||--5~----------------------------------------------|
C||--------------------------------------------------|


Guitar 2 (Right):
D||----------0~----0~--------------------------------|
A||-------------6~-----------------------------------|
F||--------------------------------------------------|
C||-------7~-----------------------------------------|
G||--------------------------------------------------|
C||--------------------------------------------------|


D||----------0~----0~--------------------0~----------|
A||-------------6~---------6~------------------------|
F||--------------------------------------------------|
C||-------7~-----------------------------------------|
G||--------------------------------------------------|
C||--------------------------------------------------|



Chorus
Guitar 1:
D||---------------------------------------------------------------------------------|
A||--10------------13------------------------------------------------------------

Dream Tabs by Before Their Eyes

 : Joshua Garcia (joshuag523@aol.com)

Tabs for the song: Dream by Before Their Eyes
Please rate and let me know if you have any corrections. Thank you.


Tuning: Drop C (C G C F A D)


Intro
Guitar 1/2:
D||-----------------------------------|------------------------------|
A||-----------------------------------|------------------------------|
F||-----------------------------------|------------------------------|
C||--0--7\----3~--3~-----10--10\-5/7--|--0--7\----3~--3~-----3--1-1--|
G||--0--5\--3-3~--3~---0-7---8-\-3/5--|--0--5\--3-3~--3~---0-3--1-1--|
C||--0------3-3~--3~---0--------------|--0------3-3~--3~---0-3--1-1--|
            .          .                        .          .


D||-----------------------------------------|
A||-----------------------------------------|
F||-----------------------------------------|
C||--0--7\----3~--3~-----10-10-10-10-10-10--|
G||--0--5\--3-3~--3~---0-7--7--7--7--7--7---|
C||--0------3-3~--3~---0--------------------|
            .          .


Guitar 1:
D||---------------------------------------|
A||---------------------------------------|
F||------------------10-10-10-10-5-5-5-5--|
C||--8-8-8-8-8-8-8\7-10-10-10-10-5-5-5-5--|
G||--8-8-8-8-8-8-8\7-8--8--8--8--3-3-3-3--|
C||--8-8-8-8-8-8-8\7----------------------|


Guitar 2:
D||-----------------------------------|
A||-----------------------------------|
F||-----------------------------------|
C||--8-8-8-8-8-8-8\7-7-7-7-7-5-5-5-5--|
G||--8-8-8-8-8-8-8\7-8-8-8-8-3-3-3-3--|
C||--8-8-8-8-8-8-8\7------------------|



Verse
Guitar 1/2:
D||--------------------------------------------------------------------------------|
A||--------------------------------------------------------------------------------|
F||--------------------------------------------------------------------------------|
C||--------------------------------------------------------------------------------|
G||--------------------------------------------------------------------------------|
C||--0-0-----0-0---0-0---0-0-0-8-8-8----8---8----8-8-8-8\3-3-3----3-3---3-3---3-3--|


D||---------------------------------------|
A||---------------------------------------|
F||---------------------------------------|
C||---------------------------------------| x2
G||--------------5------------------------|
C||--8-0-0-3-0-0---0-0-3-0-0-10-10-10-10--|



Chorus
Guitar 1:
D||-----------------------------------|-----------------------------------|
A||----5~---6~---5~--------3~---------|-----------------------------------|
F||--7~-------------0~5~--------------|--5-5-5----------------------------|
C||-----------------------------------|--------3-3-3-2-2-2-0-0-0-2-2-3-3--|
G||-----------------------------------|-----------------------------------|
C||-----------------------------------|-----------------------------------|


D||-----------------------------------|--8-8-8----------------------------|
A||----5~---6~---5~--------3~---------|--------6-6-6-5-5-5\3-3-3/5-5-6-6--|
F||--7~-------------0~5~--------------|-----------------------------------|
C||-----------------------------------|-----------------------------------|
G||-----------------------------------|-----------------------------------|
C||-----------------------------------|-----------------------------------|


D||-----------------------------------|-----------------------------------|
A||----5~---6~---5~--------3~---------|-----------------------------------|
F||--7~-------------0~5~--------------|--5-5-5----------------------------|
C||-----------------------------------|--------3-3-3-2-2-2-0-0-0-2-2-3-3--|
G||-----------------------------------|-----------------------------------|
C||-----------------------------------|-----------------------------------|


D||-----------------------------------|--8-8-8----------------------------|
A||----5~---6~---5~--------3~---------|--------6-6-6-5-5-5-6-6-6/8~----\--|
F||--7~-------------0

Lies Tabs by Before Their Eyes V2

 : Joshua Garcia (joshuag523@aol.com)

Tabs for the song: Lies by Before Their Eyes
Please rate and let me know if you have any corrections. Thank you.


* For a video lesson from Jordan, go here:
http://www.youtube.com/watch?v=F2BbP80D7DE *


Tuning: Drop C (C G C F A D)


Intro
Guitar 1:
D||-------------------------------------------------------------------|
A||-------------------------------------------------------------------|
F||-------------------------------------------------------------------|
C||-------------------------------------------------------------------|
G||------------8-8-8-----------8-8-8-----------8-8-8-----------8-8-8--|
C||--0-0-0-0-----------0-0-0---------0-0-0-0-----------0-0-0----------|


D||-------------------------------------------------------------------|
A||-------------------------------------------------------------------|
F||-------------------------------------------------------------------|
C||-------------------------------------------------------------------| x2
G||------------7-7-7-----------7-7-7----------------------------------|
C||--8-8-8-8-----------8-8-8---------5-5-5-5-5-5-5-5-8-8-8-8-3-3-1-1--|


Guitar 2:
D||-------------------------------------------------------------------------------|
A||-------------------------------------------------------------------------------|
F||-------------------------------------------------------------------------------|
C||------------11-11-11-----------12-12-12-----------14-14-14-----------15-15-15--|
G||-------------------------------------------------------------------------------|
C||--0-0-0-0--------------0-0-0------------0-0-0-0--------------0-0-0-------------|


D||-----------------------------------------------------------------------------------------|
A||-----------------------------------------------------------------------------------------|
F||-----------------------------------------------------------------------------------------|
C||------------11-11-11-----------12-12-12-14-14-14-14-14-14-14-14-15-15-15-15-11-11-12-12--| x2
G||-----------------------------------------------------------------------------------------|
C||--8-8-8-8--------------8-8-8-------------------------------------------------------------|



Verse
Guitar 1:
D||------|
A||------|
F||------|
C||--0~--|
G||--0~--|
C||--0~--|
     .


Guitar 1:
D||--------------------------------------------------------------13~-----------------|
A||--15~-------15~-------15~-------15~-------14~-------14~-----------------14~-------|
F||----------------------------------------------------------------------------------|
C||-------12~-------12~-------12~-------12~-------12~-------12~-------12~-------12~--|
G||----------------------------------------------------------------------------------|
C||----------------------------------------------------------------------------------|


D||-------------------------------------------------------------------12~-------13~--|
A||--15~-------15~-------15~-------15~-------14~-------14~---------------------------|
F||----------------------------------------------------------------------------------|
C||----------------------------------------------------------------------------------| x2
G||-------13~-------13~-------13~-------13~-------13~-------13~--10~-------12~-------|
C||----------------------------------------------------------------------------------|



Guitar 1:
D||------------------------------------|-----------------------------------------|
A||------------------------------------|-----------------------------------------|
F||--3/15~-----14~-----12----10~---7~--|--14~---12~---15~-----14~-----12~---10~--|
C||--x/x-------x-------x-----x-----x---|--x-----x-----x-------x-------x-----x----|
G||--1/13~-----12~-----10~---8~----5~--|--12~---10~---13~-----12~-----10~---8~---|
C||------------------------------------|----------------------------------

Home Is In Your Eyes chords – Greyson Chance V2

 Greyson Chance
Home Is In Your Eyes
Hold On Til The Night
2011
Submitted by: jeremyunderground41

Key:  G 

Tuning: Standard EADGBe

Chords used:
 G  -    320033
 D  -    xx0232
 Em  -   022000
 C  -    x32010
 D/F#  - 2x023x
 A  -    x02220
 Cm  -   x35543
 B7  -   x21202
 G/B  -  x20033


Verse 1
 G 
  My heart beats a
little bit slower
 D/F# 
   these nights are
a little bit colder
 C 
  Now that your gone
 G 
  My skies seem a
little bit darker
 D/F# 
   sweet dreams seem
a Little bit harder
 C 
  I hate when you're gone


Refrain:
 Em D     
  Everyday times passing
growing tired of all 
      A 
this traffic take Me
  Cm 
away to where you are


Chorus 1:
 G  
  I wanna be holding your 
             D 
hand in the sand by the
                     Em 
Tire swing where we used 
            C 
to be baby you and me
 G 
  I'd travel a thousand miles
 B7 
Just so I can see you smile 
          Em 
feels so far away when
     C Cm 
you cry cuz home
is In your eyes


Verse 2:
 G 
  Your heart beats a little
           G/B 
bit faster   there's tears
were there used to be
         C 
Laughter now that I'm
     D G 
gone   You talk just a
                  G/B 
little bit softer  things
Take just a little bit 
       C 
longer you hate that I'm gone


(Repeat Refrain)
(Repeat Chorus 1)


Bridge:
 C D G 
  If I could write another ending 
 C D G C 
  this wouldn't even be our song I'd
        D G D/F# 
Find a way that we would never
 Em D C D 
ever be apart right from the start


Chorus 2:
 G  
  I wanna be holding your 
             D 
hand in the sand by the
                     Em 
Tire swing where we used 
            C 
to be baby you and me
 G 
  I'd travel a thousand miles
 B7 
Just so I can see you smile 
          Em 
feels so far away when
     C Cm 
you cry cuz home
is In your eyes
 G  
  I wanna be holding your 
             D 
hand in the sand by the
                     Em 
Tire swing where we used 
            C 
to be baby you and me
 G 
  I'd travel a thousand miles
 B7 
Just so I can see you smile 
          Em 
feels so far away when
     C Cm 
you cry cuz home
            G (hold)
is In your eyes

Intro intro Tabs by Before Their Eyes

 : Joshua Garcia (joshuag523@aol.com)

Tabs for the song: Intro by Before Their Eyes
Please rate and let me know if you have any corrections. Thank you.


Tuning: Drop C (C G C F A D)


Intro
Guitar 1:
D||--------------------------------------------------------------13~-----------------|
A||--15~-------15~-------15~-------15~-------14~-------14~-----------------14~-------|
F||----------------------------------------------------------------------------------|
C||-------12~-------12~-------12~-------12~-------12~-------12~-------12~-------12~--|
G||----------------------------------------------------------------------------------|
C||----------------------------------------------------------------------------------|


D||-------------------------------------------------------------------12~-------13~--|
A||--15~-------15~-------15~-------15~-------14~-------14~---------------------------|
F||----------------------------------------------------------------------------------|
C||----------------------------------------------------------------------------------| x2
G||-------13~-------13~-------13~-------13~-------13~-------13~--10~-------12~-------|
C||----------------------------------------------------------------------------------|




Tablature Legend
----------------
 h   hammer-on
 p   pull-off
 b   bend
 pb  pre-bend
 r   release bend
 ~   hold / vibrato
 .   palm mute
 /   slide up
 \   slide down
 *   pinch harmonic
 '   natural harmonic
 x   mute note
 T   tap

Revival Tabs by Before Their Eyes

 : Joshua Garcia (joshuag523@aol.com)

Tabs for the song: Revival by Before Their Eyes
Please rate and let me know if you have any corrections. Thank you.


Tuning: Drop B (B F# B E G# C#)


Intro
Guitar 1:
C#||---------------------------------------------|----------------------------------------|
G#||---------------------------------------------|----------------------------------------|
E ||---------------------------------------------|----------------------------------------|
B ||--12-----------------------------------------|--12------------------------------------|
F#||---------------------------------------------|---------------------------------12\0~--|
B ||-----13-12-0-12-13-0-15-0-13-0-0-12-0-10-12--|-----13-12-0-12-13-0-15-0-13-0-0-12\1~--|


C#||---------------------------------------------|-------------------------|
G#||---------------------------------------------|-------------------------|
E ||---------------------------------------------|-------------------------|
B ||--12-----------------------------------------|--12---------------------|
F#||---------------------------------------------|-------------------------|
B ||-----13-12-0-12-13-0-15-0-13-0-0-12-0-10-12--|-----13-12-0-12-13-0-15--|



Pre-Verse
Guitar 1/2:
C#||---------------------------------------------|----------------------------------------|
G#||---------------------------------------------|----------------------------------------|
E ||---------------------------------------------|----------------------------------------|
B ||--12-----------------------------------------|--12------------------------------------|
F#||---------------------------------------------|---------------------------------12\0~--|
B ||-----13-12-0-12-13-0-15-0-13-0-0-12-0-10-12--|-----13-12-0-12-13-0-15-0-13-0-0-12\1~--|


C#||---------------------------------------------|----------------------------------------|
G#||---------------------------------------------|----------------------------------------|
E ||---------------------------------------------|----------------------------------------|
B ||--12-----------------------------------------|--12------------------------------------|
F#||---------------------------------------------|------------------------00000~--00000~--|
B ||-----13-12-0-12-13-0-15-0-13-0-0-12-0-10-12--|-----13-12-0-12-13-0~---11111~--00000~--|
                                                                          ....    ....



Verse
Guitar 1/2:
C#||-------------------------------------------------------------------|
G#||-------------------------------------------------------------------|
E ||-------------------------------------------------------------------|
B ||--------------------------------------------12---------------------|
F#||--000-0------------------------------------------------------------|
B ||--000-0-0-0---0~---0-0-00---0~---0-0--0--0-----13-12-0-10-0-10-12--|
      ... .            .             .


C#||-----------------------------------------------------------------|
G#||-----------------------------------------------------------------|
E ||-----------------------------------------------------------------|
B ||--------------------------------------------12-------------------| x2
F#||--000-0-------------------------------------------------0-0-0-0--|
B ||--000-0-0-0---1~---0-0-00---0~---0-0--0--0-----13-12-0--1-1-1-1--|
      ... .            .             .                      . . . .



Chorus
Guitar 1/2:
C#||--------------------------------------------------------------------|
G#||--------------------------------------------------------------------|
E ||--------------------------------------------------------------------|
B ||--------------------------------------------------------------------|
F#||--------------------------------------------------------------------|
B ||--0000000000000000777777777777555588888888888888881111111111113333--|


Revenge Tabs by Before Their Eyes

 : Joshua Garcia (joshuag523@aol.com)

Tabs for the song: Revenge by Before Their Eyes
Please rate and let me know if you have any corrections. Thank you.


Tuning: Drop C (C G C F A D)


Intro
Guitar 1:
D||-------------------------------------------------------------------|
A||-------------------------------------------------------------------|
F||--1414141414141414141414141414141415151515151515151515151515151515-|
C||--0-0-0-0-0-0-0-0-0-0-0-0-0-0-0-0-0-0-0-0-0-0-0-0-0-0-0-0-0-0-0-0--|
G||-------------------------------------------------------------------|
C||-------------------------------------------------------------------|

D||-------------------------------------------------------------------|
A||-------------------------------------------------------------------|
F||--1212121212121212121212121212121210101010101010109-9-9-9-9-9-9-9--|
C||--0-0-0-0-0-0-0-0-0-0-0-0-0-0-0-0-0-0-0-0-0-0-0-0-0-0-0-0-0-0-0-0--| x2
G||-------------------------------------------------------------------|
C||-------------------------------------------------------------------|


Guitar 2:
D||---------------------------------------------------------------|
A||---------------------------------------------------------------|
F||---------------------------------------------------------------|
c||------------------000-0-0-0-0-0-----------------0-0-0-0-0-0-0--| x2
G||------------------000-0-0-0-0-0-----------------0-0-0-0-0-0-0--|
C||--3-2-0-3-2-0-0---000-0-0-0-0-0-3-2-0-3-2-0-0---0-0-0-0-0-0-0--|
                     ... . . . . .                 . . . . . . .



Verse
Guitar 1:
D||----------------------------------------------------|
A||----------------------------------------------------|
F||----------3~----------------------------3~----------|
c||------7~----------------------------7~------7~------|
G||--5~----------------------------5~--------------5~--|
C||----------------------------------------------------|



Chorus
Guitar 1:
D||---------------------------------------------------|
A||---------------------------------------------------|
F||---------------------------------------------------|
c||--12-12-15-12-15-12-12-12-14-12-14-12-12-12-14-12--|
G||---------------------------------------------------|
C||---------------------------------------------------|
     .  .     .     .  .  .     .     .  .  .     .

D||---------------------------------------------------|
A||---------------------------------------------------|
F||---------------------------------------------------|
c||--------14----14-----------------------------------|
G||--12-12----12----12-12-12-15-12-12-13-12-12-15-12--|
C||---------------------------------------------------|
     .  .     .     .  .  .     .  .     .  .     .

D||---------------------------------------------------|
A||---------------------------------------------------|
F||---------------------------------------------------|
c||--12-12-15-12-15-12-12-12-14-12-14-12-12-12-14-12--|
G||---------------------------------------------------|
C||---------------------------------------------------|
     .  .     .     .  .  .     .     .  .  .     .

D||---------------------------------------------------|
A||---------------------------------------------------|
F||---------------------------------------------------|
c||---------------------------------------------------|
G||--12-12-12-12-12-12-12-12-10-10-10-10-10-10-10-10--|
C||---------------------------------------------------|


Guitar 2:
D||------------------------------------------|------------------------------------------|
A||------------------------------------------|------------------------------------------|
F||------------------------------------------|------------------------------------------|
c||--00-----00---00---0---33333333-55555555--|--00-----00---00---0---33333333-11111111--|
G||--00-----00---00---0---33333333-55555555--|--00-----00---00---0---33333333-111

Eyes Dont See chords – Richie Spice

 Repeat:  Gm | A | F | Gm .

Richell Bonner (born September 8, 1971), better known as Richie Spice is a Jamaican
reggae artist. He is a member of the Rastafari movement. Some of his most famous songs
include, "Youth Dem Cold", "Groovin' My Girl", "Earth A Run Red", "Marijuana" and "The 
Plane Land". Three of his brothers are also reggae artists - Pliers, Spanner Banner, and 
Snatcha Lion.[1]

Oh You Are The Roots That Sleep Beneath My Feet And Hold The Earth In Place chords – Bright Eyes V2

 The version that was already up here had the interlude all wrong 
and a lot of the chords were misplaced throughout the song. 
This one should be more accurate. Enjoy!


    D Bm 
I met you through a common friend
           G D 
in the attic of my parent's house
          D Bm  
and though I didn't know it then
    G A  
I soon was finding out
              Bm G 
you are the roots that sleep beneath my feet 
      D A 
and hold the earth in place
              Bm  
each time a faucet opens
 G 
words are spoken
     D A 
the water runs away 
                 G 
and I hear your name
             D 
no, nothing has changed 


 D Bm G D D Bm 
there was this book I read and loved
       G D 
the story of a ship
         D Bm 
who sailed around the world and found
       G A 
that nothing else exists
            Bm 
beyond his own two sails
      G 
and wooden shell 
     D A 
and what is held within
             Bm 
all else is sure to pass
     G  
we clutch and grasp
      D A 
and debate what's truly permanent
                             G 
but when the wind starts to shift
                D 
there's no argument

[Interlude]
    D A  
I sing and drink and sleep on floors
      Bm G               
and try hard not to be annoyed
     F# Bm A 
by all these people worrying about me
   D A   
so when I'm suffering through some awful drive
          
        D G 
you occasionally cross my mind
          D Bm A 
it's my hidden hope that you are still among them

well are you?

[Interlude]
                 D G 
Oh, you are the roots that sleep beneath my feet 
       D A 
and hold the earth in place
               D 
each time a curtain opens
   G 
sunlight pours in
     D A 
a lifetime melts away
              G 
and we share a name
                      D 
on some picturesque grave

In Your Eyes chords – Chris De Burgh

 Chris de Burgh - In Your Eyes
From the  Power of Ten (1992)
Comment for any corrections and please rate


Capo 1

Intro:
 C Am7 G C Am7 G 

Verse 1:
              C F G Em 
Some people fall in love in rooms that are so dark,
       Am Em F G 
They can't see where they are going, and they lose their hearts,
       G C E7 Am 
But when I saw your face, it was a light so strong,
     F C G 
And I could see a long night coming on,

Chorus:
         F 
In your eyes, 
         G 
In your eyes,

             C 
And I saw driving down to the river,
  F 
Laughing in the rain,
  C 
Dancing out in the moonlight,
  F G 
Papers in bed,
            C 
And I saw your delights as a lover,
    Am7 Dm 
Until the break of day,
     Dm C 
And oh every time I look,
       F G C Am G C Am G 
It's you and me together in your eyes

Verse 2:
              C F G Em 
Some people say that time changes everything,
       Am Em F G 
With love there's no way of knowing what the world may bring,
     G C E7 Am 
But I don't mind at all, because it's you and me,
     F C G 
And all I've ever wanted, I can see,

Chorus:
         F 
In your eyes, 
         G 
In your eyes,

              C 
And we are driving down to the river,
  F 
Laughing in the rain,
  C 
Dancing out in the moonlight,
  F G 
Papers in bed,
             C 
And I feel your delights as a lover,
    Am7 Dm 
Until the break of day,
     Dm C 
And oh every time I look,
       F G C 
It's you and me together in your eyes

         C 
In your eyes, 
         G 
In your eyes,

Chorus:
 C F C F G C 
And I feel your delights as a lover,
    Am7 Dm 
Until the break of day,
     Dm C 
And oh every time I look,
       F G C Am7 G 
It's you and me forever in your eyes,

         C Am7 G 
In your eyes, 
         C Am7 G 
In your eyes,
         C Am7 G 
In your eyes,

   C Am7 G C Am7 G 
Driving down to the river,   In your eyes,
  C Am7 G C Am7 G                    
Your delights as a lover,    In your eyes,
  C Am7 G 
Dancing out in the moonlight...

A Pair Of Blue Eyes Tabs by Nightmare Of You

 A Pair of Blue Eyes by Nightmare of You

FIRST PART
E|--12----------------------|
B|------15--------------15--|
G|----------14--12--14------|
D|--------------------------|
A|--------------------------|
E|--------------------------|      X6

E|--12----------------------|
B|------15------13------15--|
G|----------14------14------|
D|--------------------------|
A|--------------------------|
E|--------------------------|    X4


E|--12----------------------|
B|------15--------------15--|
G|----------14--12--14------|
D|--------------------------|
A|--------------------------|
E|--------------------------|     X6


E|--12----------------------|
B|------15------13------15--|
G|----------14------14------|
D|--------------------------|
A|--------------------------|
E|--------------------------|     X3

E|--12----------------------|
B|------15------12--12--12--|
G|----------14--------------|
D|--------------------------|
A|--------------------------|
E|--------------------------|


SECOND PART
E|--7------------7--------7-----10--15--15--|
B|-----8------------8--------8--------------|
G|--------9------------9--------------------|
D|-----------10-----------------------------|
A|------------------------------------------|
E|------------------------------------------|

E|--------------7--8------|
B|--10------10--------10--|
G|------10----------------|
D|------------------------|
A|------------------------|
E|------------------------|   X2

THIRD PART
E|--17--17--17--17--16--16--16--16--15--15--15--15--8--8--8--|
B|-----------------------------------------------------------|
G|-----------------------------------------------------------|
D|-----------------------------------------------------------|
A|-----------------------------------------------------------|
E|-----------------------------------------------------------|

FOURTH PART
E|--12----------------------|
B|------15------13------15--|
G|----------14------14------|
D|--------------------------|
A|--------------------------|
E|--------------------------|

E|----------15--12--------------------------10--|
B|------------------13--10--12--13--12--10------|
G|--12--14--------------------------------------|
D|----------------------------------------------|
A|----------------------------------------------|
E|----------------------------------------------|

E|--------------------------------|
B|--12--10------------------------|
G|----------12--10--9-------------|
D|---------------------12--10--9--|
A|--------------------------------|
E|--------------------------------|

E|------------------------------------------|
B|------------------------------------------|
G|-------------------------------9--10--12--|
D|--10--9--10--9--10--9--10--12-------------|
A|------------------------------------------|
E|------------------------------------------|

E|----------------------------------------------------------------------|
B|--13--13--12--12--10--10--------------------------10--10--12--12--13--|
G|--------------------------12--12--10--10--12--12----------------------|
D|----------------------------------------------------------------------|
A|----------------------------------------------------------------------|
E|----------------------------------------------------------------------|

And the solo is a c maj pentatonic scale

Words In Your Eyes chords – Phil Everly

 #-------------------------------PLEASE NOTE-------------------------------------#
# This file is the author's own work and represents their interpretation of the #
# song. You may only use this file for private study, scholarship, or research. #
#-------------------------------------------------------------------------------#
Words In Your Eyes chords
Phil Everly 1975 ( Mystic Line)

Capo II

 G Gsus4  4x

 G 
You re here with me, but you long to be free
     D D7 G        ( G Gsus4 )
The words in your eyes say you re leaving
 G 
No one can hide, what they feel inside
     D D7 G G/D / Em 
The words in your eyes, say you re leaving

 Em G Em *    G Em 
Oh, my darling, talk to me, open up your heart  
                         D D7 
Don t give up so easily, don t let us fall apart

 G 
What can I do, It s really up to you
     D D7 G       ( G Gsus4 )
The words in your eyes, say you re leaving

 G D D7 G G/D / Em Em G Em G Em 
Oh, my darling, talk to me, open up your heart  
                         D D7 
Don t give up so easily, don t let us fall apart

 G 
I can t pretend, I don t know it s the end
     D D7 G 
The words in your eyes, say you re leaving
          D C6 Am 
Yes, the words in your eyes , say you re leaving, leaving
     D D7 G 
The words in your eyes, say you ve gone

* or  G 

Set8

Eyes Sewn Shut Tabs by Suicide Silence V3

 Tuning: AEADGB

. = Palm mute
b = bend
AH= artificial harmonic


Intro:

B|------------------------------------------------------|-
G|------------------------------------------------------|--
D|------------------------------------------------------|---
A|------------------------------------------------------|----x4
E|-333333------------------333333-------444444----------|---
A|-------2-1-0-2-1-0-2-1-0--------2-1-0--------2-1-0----|--
         . . . . . . . . .        . . .        . . .


0:13

B|------------------------------------------------------|-
G|------------------------------------------------------|--
D|------------------------------------------------------|---
A|------------------------------------------------------|----
E|-------------------------------------222233336666-----|---
A|-6-5-3-6-5-3-5-3-2-5-3-2-6-5-3-6-5-3------------------|--
   . . . . . . . . . . . . . . . . . .

                                                          2ndEnd:
B|------------------------------------------------------|-----------|-
G|------------------------------------------------------|-----------|--
D|------------------------------------------------------|-----------|---
A|------------------------------------------------------|-6--2--3---|----Repeat twice
E|------------------------------------------------------|-6--2--3---|---
A|-6-5-3-6-5-3-5-3-2-5-3-2-6-5-3-6-5-3-666622223333-----|-6--2--3---|--
   . . . . . . . . . . . . . . . . . .                    .  .  .



0:26
B|-------------------------|-------------------------------------|-
G|-------------------------|-------------------------------------|--
D|-------------------------|-------------------------------------|---
A|-------------------------|[x3] then----------------------------|----
E|-------------------------|----------------------222233336666---|---
A|-6-5-3-6-5-3-5-3-2-5-3-2-|----------6-5-3-6-5-3----------------|--
   . . . . . . . . . . . .            . . . . . .

B|-------------------------|-------------------------------|-
G|-------------------------|-------------------------------|--
D|-------------------------|-------------------------------|---
A|-------------------------|[x3] then-6--2--3--------------|----
E|-------------------------|----------6--2--3--------------|---
A|-6-5-3-6-5-3-5-3-2-5-3-2-|----------6--2--3--------------|--
   . . . . . . . . . . . .            .  .  . 


0:39
B|---------------------------------------------------------|---------|-
G|---------------------------------------------------------|---------|--
D|---------------------------------------------------------|---------|---
A|---------------------------------------------------x4----|----2----|----
E|-333333------------------333333-------444444-------------|----2----|---
A|-------2-1-0-2-1-0-2-1-0--------2-1-0--------2-1-0-------|----2----|--
         . . . . . . . . .        . . .        . . .            .


Breakdown:

0:54
B|------------------------------------------------------|-
G|------------------------------------------------------|--
D|------------------------------------------------------|---
A|-6--2-3-5--2-3-------6--2-3-5--2----------------------|----x2
E|-6--2-3-5--2-3-[x3]--6--2-3-5--2-2bAH-----------------|---
A|-6--2-3-5--2-3-------6--2-3-5--2----------------------|--
   .  . . .  . .       .  . . .  .


1:12
B|------------------------------------------------------|-
G|------------------------------------------------------|--
D|------------------------------------------------------|---
A|------------------------------------------------------|----
E|-------------------------------------222233336666-----|---
A|-6-5-3-6-5-3-5-3-2-5-3-2-6-5-3-6-5-3------------------|--
   . . . . . . . . . . . . . . . . . .

                                                        2ndEnd:
B|---------------------------------------------------|-----------|-
G|----------------------------------------

Open Up Our Eyes chords – Praise And Worship

 Chords:
 G   3x0033
 C   x32033
 Em  022033
 D   xx0233

Intro:  G 

Verse 1:
 G 
Greater is the One Who's in us
 Em D 
Greater is the One Who calls our name
                C 
He will never fail

Verse 2:
 G                           
Stronger is the One within us
 Em D 
Stronger is the One Who fights for us
                C G 
He will never fail, You will never fail

Pre-Chorus:
           C G D 
For Your love endures forever
           C G D 
Oh, Your love endures forever

Chorus:
  C G 
Open up our eyes
      D Em 
Surround us with Your light
       C G D 
Your love endures forever

Interlude:  G 

Verse 3:
 G 
Mighty is the One Who's for us
 Em D 
Mighty is the One Who's strong to save
                 C G 
He will make a way, You will make a way

Pre-Chorus:
           C G D 
For Your love endures forever
           C G D 
Oh, Your love endures forever

Chorus:
  C G 
Open up our eyes
      D Em 
Surround us with Your light
       C G D 
Your love endures forever

Bridge[(2x) Second time do an extra line of "We are not alone!"]:
 Em C G D 
 Our God is fighting for us always!
 Em C G D 
 Our God is fighting for us all!
 Em C G D 
 Our God is fighting for us always!
 Em C G D 
We are not alone, we are not alone!

Pre-Chorus:
           C G D 
For Your love endures forever
           C G D 
Oh, Your love endures forever

Chorus:
  C G 
Open up our eyes
      D Em 
Surround us with Your light
       C G D 
Your love endures forever (Our God!)

Bridge("We are not alone!" 3x):
 Em C G D 
 Our God is fighting for us always!
 Em C G D 
 Our God is fighting for us all!
 Em C G D 
 Our God is fighting for us always!
 Em C G D 
We are not alone, we are not alone!

Outro(2x):

 Em - C - G - D 

End on C!

One Of My Eyes Is A Clock Tabs by Jamie Lenman

 -----------------------------------------------------------------------------
                  One Of My Eyes Is A Clock - Jamie Lenman
-----------------------------------------------------------------------------
: Ryan
 RHARTRIDGE@GOOGLEMAIL.COM

Tuning: DROP C#

"AAAAAAAAAAAAAAAAAAAAHHHHHHHHHHHHHHHHHHHHHHHHHHHHHHHHHHHHHHHHHHHHHHHHHHHHHH!"
D#|-------------------------------|
A#|-------------------------------| THIS CHORD IS SO HARD TO HEAR.
F#|-8-x-8-8-x-x-8-x-8-8-8-x-x-x-8-| RHYTHM IS SUPER DIFFICULT.
C#|-7-x-7-7-x-x-7-x-7-7-7-x-x-x-7-| LISTEN CAREFULLY FOR TIMING.
G#|-6-x-6-6-x-x-6-x-6-6-6-x-x-x-6-|
C#|-------------------------------|

MAIN RIFF
"I DON'T WANT TO LIVE MY LIFE FROM THE OUTSIDE..."
D#|--------------------------------------------------------------|
A#|--------------------------------------------------------------|
F#|--------------------------------------------------------------|
C#|--------------------------------------------------------------|
G#|--------------------------------------------------------------|
C#|-12p0-12p0-12p0-12p0-11p0-11p0-12p0-11p0-12p013p012p011p0-----|


2ND GUITAR. TREMOLO PICK CHORDS
D#|---------------------------------|
A#|---------------------------------|
F#|-101010101010101010/5555555555---|
C#|-x-x-x-x-x-x-x-x-x--xxxxxxxxxx---|
G#|-8-8-8-8-8-8-8-8-8-/3333333333---|
C#|---------------------------------|

D#|--------------------------|
A#|--------------------------|
F#|-7777777777/5555555555----|
C#|-xxxxxxxxxx-xxxxxxxxxx----|  REPEAT SECTION X2
G#|-5555555555/3333333333----|
C#|--------------------------|


"WE DON'T GO TO PARTIES ANYMORE..."
D#|----------------------------------------------------------|
A#|----------------------------------------------------------|
F#|----------------------------------------------------------|
C#|-12p0-12p0-12p0-12p0-11p0-11p0-12p0-11p0-12p013p012p011p0-|
G#|-12p0-12p0-12p0-12p0-11p0-11p0-12p0-11p0-12p013p012p011p0-|
C#|-12p0-12p0-12p0-12p0-11p0-11p0-12p0-11p0-12p013p012p011p0-|


"LIIVVVVVEEEESSSSSS..."
D#|---------------------------------------------------------------|
A#|---------------------------------------------------------------|
F#|---------------------------------------------------------------|
C#|---------------------------------------------------------------| X2
G#|---------------------------------------------------------------|
C#|-3-0-3-0-3-0-3-0-3-0-3-0-3-0-3-0-3-0-3-0- <12><12><12><12><12>--|
  pm.......................................

"MOVIE OF ME..."
D#|---------------------------------------------------------------|
A#|---------------------------------------------------------------|
F#|---------------------------------------------------------------|
C#|---------------------------------------------------------------| X2
G#|---------------------------------------------------------------|
C#|-3-0-3-0-3-0-3-0-3-0-3-0-3-0-3-0-3-0-3-0-<12><12><12><12><12>--|
DON'T PALM MUTE.

"I'M NO ONE..."
D#|--------------------------------------|
A#|--------------------------------------|
F#|---17--17--17-----------17---17--17---|
C#|-2---2---2----2-----3-2---2-2---1-----|
G#|-2---2---2----2-----1-2---2-2---1-----|
C#|-2---2---2----2-0-0---2---2-2---1-----|
                 pm...

D#|------------------------------------------|
A#|------------------------------------------|
F#|-----17--17--17---------------------------|
C#|---2---2---2---2----3---------------------|
G#|---2---2---2---2----1---------------------|
C#|-0-2---2---2---2-0-0--2-/14-2-/15-2-/12---|
 pm..               ...

MAIN RIFF AGAIN.

"GOOD GOD..."
D#|-------------------------------------------------|
A#|-------------------------------------------------|
F#|-------------------------------------------------|
C#|-12-13-12-11--12-13-12-11--12-0-12-0-12-13-12-11-|
G#|-12-13-12-11--12-13-12-11--12-0-12-0-12-13-12-11-|
C#|-12-13-12-11--12-13-12-11--12-0-12-0-12-13-12-1

Dirty Eyes Tabs by Ac Dc V2

 -----------------------------------------------------------------------------
                                           Dirty Eyes - AC/DC
-----------------------------------------------------------------------------
: Thunderbird16
 al.hint12

Tuning: Standard

Intro/Verse: (repeat throughout verse)
|--------------------------|
|--------------------------|
|--2-----------2-2---2---2-|
|--2-----------2-2-4-2-4-2-|
|--0-3-0-5-0-3-0-0-0-0-0-0-|
|--------------------------|

Bridge (into chorus):
|------------------2-2-2--------------------------------|
|------------------3-3-3--------------------------------|
|--2-----------2---2-2-2-----------2--------------------|
|--2-----------2---0-0-0-3-4-0-3-4-0--2-2-2-----------2-|
|--0-3-0-5-0-3-0----------------------2-2-2-----------2-|
|-------------------------------------0-0-0-3-4-0-3-4-0-|

Chorus:                                        Back to Verse
|--0-0-0-------0-0-0-------0-0-0-------------|------------------------------|
|--2-2-2-------2-2-2-------2-2-2-------------|------------------------------|
|--2-2-2-------2-2-2-------2-2-2-------------|-2-2---2---2-------------2----|
|--2-2-2-------2-2-2-------2-2-2-------------|-2-2-4-2-4-2-------------2----|
|--0-0-0-5-5-5-0-0-0-5-5-5-0-0-0-5-5-5-5-5-5-|-0-0-0-0-0-0-0-3-0-5-0-3-0----|
|--------3-2-3-------3-2-3-------3-2-3-2-3-4-|------------------------------|

Nothing changes throughout the song except for the chorus after Angus's solo, it's easy 
to work out once you've heard it.

Open My Eyes chords – Praise And Worship

 Intro:  A2  -  F#m  -  C#m  (2x)

Verse 1:

 A2 B C#m 
Saviour of my soul
   A2 B C#m 
I worship You as God alone
 A2 B C#m               -  A - B - C#m 
Greater love has made a way to You

Verse 2:

 A2 B C#m 
I could not forget
     A2 B C#m 
The moment I in faith confessed
 A2 B C#m        -  A - B - C#m 
For my sin You died and rose again

Pre-chorus:

  E/G# A 
 I believe every word You say
   E/G# F#m 
 Father God with all my heart I sing

Chorus:

  E B 
  Open my eyes
             F#m A 
  I want to see Your glory, Your glory Lord
  E B 
  I open my heart
               F#m A 
  I want to be closer, closer to You

Interlude:  E  -  B  -  F#m 

Verse 3:
 A B C#m 
Here I am again
   A B C#m 
I find my strength in drawing near
 A B C#m          -  A - B - C#m 
You have heard the desperate cry in me

[Repeat Pre-chorus]

[Repeat Chorus 2x]

Bridge:
        C#m A E 
   And as I wait on You my God
          B C#m 
   I'll know the voice of truth
         A E B   
   In quietness I am in awe
        C#m A E 
   And as I worship You my Lord
        B C#m 
   I understand the cross
         A E/G#   -   F#m 
   The sacrifice of God

[Repeat Chorus 2x]

Right Before My Eyes Acoustic chords – Cage The Elephant V2

 Its tuned a full step down. 
This is exactly as Matt plays it on the rooftop of the Marriott link watch?v=bc9WVJA6e2Q
The chord changes get moved a little when i submit the tab but just listen along for the changes. 

Intro  D F#m Bm A 

Verse 1
 D F#m 
timber shakes this trails they all de-rail 
                        Bm 
phony false and frail
                         A 
an empty ocean lost all way with no direction umm
 D F#m                           
golden needles names we take in vain 
                          Bm 
find it harder to remain nothings sacred 
 A 
waiting on that explanation 

Chorus
 D A 
Right before my eyes i saw the whole world lose control 
 Bm G A 
the whole world lost control before my eyes  aww huu!
 D A 
i fall to the floor couldn't take it anymore 
          Bm G A 
i can't take this anymore fix my mind aww huu

Verse 2
 D F#m Bm 
hold her dirty hands over the flames getting pleasure from the pain
                                A 
softly screaming the pistol that you raise has spoken 
 D F#m 
golden needles names we take in vain
                        Bm 
find it harder to remain nothings sacred
       A 
just waiting on that explanation

chorus

bridge
 G Bm 
everything i thought i knew fell to the side
 G Bm        
time went on and on couldn't see past my own eyes
              A Bm A 
past my eyes past my eyes past my eyes

chorus
Right before my eyes i saw the whole world lose control 
the whole world lost control before my eyes aww huu!

i fall to the floor couldn't take it anymore 
i can't take this anymore fix my mind aww huu

Diviney – Crying Your Eyes Out Acoustic chords

 Crying Your Eyes Out (Acoustic)- DIVINEY

A beautiful song by Shaun Diviney (former Short Stack front man) off  of DIVINEY's debut EP- Sex Games
You can buy Sex Games EP here https://itunes.apple.com/au/album/sex-games/id656153263

INTRO

 A ,  D ,  E ,  A A 
I heard you moved on
             D A E 
but are you happy now?
 A 
I just called to tell you
                        D 
what I should of said before
                  E 
before it's too late


 B Bm 
and I don't know how it got to this
          D 
you're slipping through my fingertips
      Bm E 
you wasted so many tears on me


[chorus]

 E A F#m 
so don't go crying your eyes out
       E D 
don't sleep with the lights on
       A B Bm E 
don't try to make sense of things
 A D A F#m 
don't go thinking it's over
   E A 
I kept all the photos
                           Bm D 
told my friends when everything is said and done
                  A 
you're the only one


 A 
I'm sorry now
               D E 
I'm sorry I'm here
       A 
but I had to tell you
                                 D 
I had to tell you life makes no sense
               E 
when you disappear


        Bm 
and I know we can't come back from this
      D 
our hearts went down like sinking ships
        Bm E 
you wasted so many tears on me-e-e-e


[chorus]

 A F#m 
don't go crying your eyes out
         E D 
don't sleep with the lights on
       A B Bm E 
don't try to make sense of things
 A E A F#m 
don't go thinking it's over
    E D 
I kept all the photos
      A Bm D 
told my friends when everything is said and done
                  A 
you're the only one

 A D A  
so I drank up all my bad luck threw it all away
 Bm A E 
forgot about the world for an hour or two last night
     D 
and you were always worth it
                 A 
you were always perfect
     Bm A E 
you were always waiting there for me


[chorus]

     A Dbm F#m 
so don't go crying your eyes out
                  E D 
don't sleep with the lights on
              A B E 
don't try to make sense of things
 A F#m 
don't go thinking it's over
     E D 
I kept all the photos
            A B Bm D 
told my friends when everything is said and done
                  A 
you're the only one (x3)


Honey Tiger Eyes chords – Ducktails

 Honey Tiger Eyes by Ducktails (off of Wish Hotel EP)

The three D chords roll pretty easy into each other. The G6 is just a regular open G 
chord with the bottom strings open.


Verse:

 D Dmaj7 
In the afternoon,

 D7 G6 
I looked down at my feet

 D Dmaj7 
You left a message

 D7 G6 
on the computer screen


Chorus:

 Em D 
It took a second

 Em D 
for you to notice

 Em D 
It took a little while

 Em D 
for you to care


Verse:

 D Dmaj7 
In the garden,

 D7 G6 
I looked down at my feet

 D Dmaj7 
You left a message

 D7 G6 
under the orange tree

 D Dmaj7 
An invitation

 D7 G6 
that excited me

 D Dmaj7 
An invitation

 D7 G6 
that excited me


Chorus:

 Em D 
It took a second

 Em D 
for you to notice

 Em D 
It took a little while

 Em D 
for you to care


Solo:    D C#m Bm A    (x4)


Verse:

 D Dmaj7 
Stayed up past midnight

 D7 G6 
on the balcony

 D Dmaj7 
Exhausted by the sun,

 D7 G6 
not in reality

 D Dmaj7 
I didn't realize

 D7 G6 
Honey Tiger Eyes

 D Dmaj7 
What a nice surprise

 D7 G6 
Honey Tiger Eyes


Outro:   D Dmaj7 D7 G6   (x5)