Tag: Faces

My Window Faces The South chords – Glen Campbell

 My Window Faces The South
Glen Campbell with Carl Jackson
Live version. 


Intro   D7 A F# D A 

Verse 1

 A 
Well My window faces the South
                       A7 
I'm almost halfway to heaven
      D D7 A F# 
Well The snow maybe falling all I can see is
 B E E7 
Fields of clover just shining at me

Verse 2

 A 
My window faces the South
                          A7 
Though I am far from the Swanee
 D D7 A F# 
I'm never frowning or down in the mouth
          B E A 
Cause My window do face the South

   D7 A F# D A 

Verse 3

 A 
Well my window faces the south
                       A7     
I'm almost halfway to heaven
 D D7 A F#                  
Lord The snow is falling but still I can see
           B E E7 
are those Fields of cotton smiling at me  Yeah
    A           
My window faces the South
                           A7 
Though I am far from that Swanee
      D D7 A F# 
Well I never frown or get down in the mouth
    B E A 
my window faces the south

    D7 A F# D A 

Outro

 F# B E E7 A D F7 A  
Well I said My window faces the south            

flyinglibra51
God Bless Glen Travis Campbell

So Many Faces chords – Bernhoft

 -------------------------------------------------------------------------------
                             SO MANY FACES - Bernhoft
-------------------------------------------------------------------------------
: c0nk3r
Tuning: Standard

Capo on 1st fret

Intro:
 Am7 F D7 Am7 F 
In this city, there are so many faces you can go insane
                          D7 
I'm still so lonely, I'm about about to faint
      Am7 
And I don't faint easily
                  F 
Absurdities give my head the freeze
    D7 
So crowded, still I'm on my own
I'm on my own
I didn't know I could be so alone
I'm on my own in here, I...


           Am7 F 
I got the big city blues, I don't wanna stick around
        D7 
And I know that she knows
      Am7 F 
This here is all concrete, and I miss my little town
        D7 
And I know that she knows
She knows


 Am7 F D7 Am7 
I'm sorry, but these are twists of a mind in a social frost
              F D7 
Just give me seven seconds to gather my thoughts
    Am7 F 
It seems we're dealing solely with a social consciousness
                D7 
I got no other shoulder to cry on but my own
No other but my own
Please won't you bring me back home
I miss my home, oh


           Am7 F 
I got the big city blues, I don't wanna stick around
        D7 
And I know that she knows
      Am7 F 
This here is all concrete, and I miss my little town
        D7 
And I know that she knows
2x
She knows


(Just muted strings here if you want, nothing is played)
It takes so many faces to fill me up
I'm way past the brim of this here cup
Ain't got no one to talk to, no one to hear me out
No one to do nothing but to be there


           Am7 F 
I got the big city blues, I don't wanna stick around
        D7 
And I know that she knows
      Am7 F 
This here is all concrete, and I miss my little town
        D7 
And I know that she knows
2x
She knows


 Am7 F D7 Am7 F 
I miss the houses, I miss the street
   D7 
I miss all the people that greet me with a smile

22 Faces solo Tabs – Periphery

 Periphery - 22 Faces
 Lorcan Ward
Guitar Solo 2:40

Check out my cover video:


Standard Tuning

|----------------------------------------------------------------------|
|--------------------9h10-10/12--(12)/14-------------------------------|
|--------------9-11-----------------------14~~~~~~~~~------------------|
|-----------11---------------------------------------------------------|
|------9-12------------------------------------------------------------|
|--12------------------------------------------------------------------|

|--12p9---------------------------------------------------------------|
|-------10p9--------------------------------10h14---------------------|
|-------------11---------------------11h13---------11b13r11b13r11-----|
|----------------11---------------------------------------------------|
|-------------------12p9---9h11h12------------------------------------|
|------------------------9--------------------------------------------|

|-------------------------------------12/14----------------------------|
|------------10h12----------14--(14)-----------------------------------|
|--(11)/13--(13)-----14/16-(16)--16----------16b18r16b18r16b18---------|
|----------------------------------------------------------------------|
|----------------------------------------------------------------------|
|----------------------------------------------------------------------|

|----------------------------------------------------4h5h7---------------|
|------------------------------------------------------------------7/9~~-|
|--------------6-9--9/11--9\6~~---------6\2~~---------------6~~~---------|
|----------6-7------------------7-------------4--------------------------|
|------4-7------------------------9-------------5------------------------|
|--4-5-------------------------------------------------------------------|

|--14p9----------------------------17p14----------------20b21~~~r20~~--|
|-------10p9-----t21p12p10p9-------------15p14-------------------------|
|------------11---------------11---------------16p14-------------------|
|----------------------------------------------------------------------|
|----------------------------------------------------------------------|
|----------------------------------------------------------------------|


Eb Tuning

|----------------------------------------------------------------------|
|--------------------10h11-11/13--(13)/15------------------------------|
|--------------10-12-----------------------15~~~~~~~~~-----------------|
|-----------12---------------------------------------------------------|
|-----10-13------------------------------------------------------------|
|--13------------------------------------------------------------------|

|--13p10---------------------------------------------------------------|
|--------11p10---------------------------------11h15-------------------|
|--------------12------------------------12h14--------12b14r12b14r12---|
|-----------------12---------------------------------------------------|
|--------------------13p10-----10h12h13--------------------------------|
|--------------------------10------------------------------------------|

|-------------------------------------13/15----------------------------|
|------------11h13----------15--(15)-----------------------------------|
|--(12)/14--(14)-----15/17-(17)--17----------17b19r17b19r17b19---------|
|----------------------------------------------------------------------|
|----------------------------------------------------------------------|
|----------------------------------------------------------------------|

|-------------------------------------------------------5h6h8---------------|
|--------------------------------------------------------------------8/10~~-|
|--------------7-10--10/12--10\7~~---------7\3~~---------------7~~~---------|
|----------7-8----------------------8-------------5-------------------------|
|

Whatcha Gonna Do About It solo Tabs by Small Faces

 The Chord progression for this whole song is just E, A, D, A. But This is the tab for 
the little riffs whilst Steve sings.
I've put the tab for each little lick above the lyric (or tried to line it up).
Long Live Steve Marriott the greatest blue eyed soul singer of all time, and long live 
the Small Faces. C'mon children.




Intro
E------------------------------------------------------------------------|
B------------------------------------------------------------------------|
G---/16-14---------------------------------------------------------------|
D------------17-14-------------------------------------------------------|
A------------------------------------------------------------------------|
E------------------------------------------------------------------------|



1st CHORUS
E------------------------------------------------------------------------------------|
B------------------------17----------------------------------------------------------|
G----------------------------14b------------------------------------/16-14-----------|
D--------------------------------------------------------------------------17-14-----|
A------------------------------------------------------------------------------------|
E------------------------------------------------------------------------------------|
What'cha gonna do about it - Oh Yeah,   Tell the truth, She's so nice


2nd Verse
E--------------------------------------------------------|
B---------------------------17---------------------------|
G------------------14--h16-----------X4------------------|
D--------------------------------------------------------|
A--------------------------------------------------------|
E--------------------------------------------------------|
I want you to come whenever I call you

E------------------------------------------------------|
B------------------------------------------------------|
G---------------------------/16-14---------------------|
D------------------------------------17-14-------------|
A------------------------------------------------------|
E------------------------------------------------------|
And let me walk you home at night


SOLO
E---17bu-17bd--15---------------------------------------------------------------|
B-----------------------17-------------------------17---------------------------|
G--------------------------14bu--14bu----------------14b------------------------|
D--------------------------------------------17--14-------------17--14--17--14--|
A-------------------------------------------------------------------------------|
E-------------------------------------------------------------------------------|

E------------------------------|
B------------------------------|
G---14p--12-----14-------------|X2
D------------14----------------|
A------------------------------|
E------------------------------|

She Did chords – Austin Lucas

 There were no chords for this so I put some together! No tabs or riffs, just a 
little something to start with.

 G G D Am C G D Am D Am C 
Oh she’d drag me out with spurs 
        C 
Into the candlelight 
       G 
She did. 

                 C         
And she rode me like the bull 
                C 
In some honky-tonk 
         G D 
She did, oh yes she did 

                Am                
But she’d never had to worry 
                C 
About the dwindling of dollars 
             G 
Or how life could strike out iron spite 
         D 
And crush you without warning 
        Am C G D 
But I did, Lo-Lord I surely did. 


               Am 
And I was bold when I first met her 
       C G      
Enamored with all the things that she did 
                     Am 
Oh but then something crept into me 
             C G D         
It was a blackness I hated and I so deeply hid 
                Am 
But I was jealous and concerned 
                           C 
Like some damn beast and she was beauty 
                          G            
Thought some dashing man would sweep her up 
          D 
And bury me in torment 
 Am C G D 
Yes, I did, though I ain’t too proud of it 


               C 
Oh was I speaking holy tongues? 
              D 
Or withdrawing from you? 
          Em G D 
Did a plague of sinking feelings leave me speaking in half-truths? 
           C G 
Oh I do not have the stomach to repair these gaping wounds 
            Am C G 
I’ll take my share of the blame for all the things I did. 

 G D Am C G D Am D Am C 
So now our castle gates are broken 
           C G 
The wreckage is the price for what we did 
                     C   
Oh yeah that girl she was my lover 
      C G D 
Now she is a stranger in the land in which I live 
                     Am C 
Oh ain’t it funny how far we travel in the company of friends 
               G D 
Yet somehow the times we share but fill our faces with regret? 
     Am C G D 
Oh, I hate it, though I feel it must be said.

               C 
Oh was I speaking holy tongues? 
              D 
Or withdrawing from you? 
          Em G D 
Did a plague of sinking feelings leave me speaking in half-truths? 
           C G 
Oh I do not have the stomach to repair these gaping wounds 
            Am C G 
I’ll take my share of the blame for all the things I did. 

 G D Am C G D Am D Am G

Faces Stay With Me chords – The Thermals

 faces stay with me

C* is played like that x35x5x
E* is played like that x79x9x

 Am Dm 
the friends i’ve lost
 C *               G 
i can clearly see
 Am Dm 
the men i’ve ended
 C *               E *
not forgotten to me
 Am Dm 
i remember their faces
 C *               G F 
as i set them free
 F Am Dm C *      G 
faces stay with me

 Am Dm C *  G Am Dm 
the love i left
 C *               G 
i left in the dark
 Am Dm 
i fight for you now
 C *                       E *
they will know who we are
 Am Dm 
when i fall to the ground
 C *                  G 
when i sink in the sea
 F 
i picture your face
 G 
it’s all i can see

 C F Am 
faces stay with me
                 G 
when i close my eyes
 C F Am 
faces stay with me
 G 
when i stare at the sky
 C F 
i will not erase
 Am G F 
i can not unsee
 F Am 
faces stay with me

 Dm C *      G Am Dm E *      E *

 F Am 
the fate i fear
 G Am 
if it comes for me
 F Am 
if there is no way
 G G 
of escaping
 Dm Am 
i will welcome their faces
 G F G 
as the last thing i see
 G C F Am 
faces stay with me
 G C F Am 
faces stay with me
 G C F Am 
faces stay with me      Whoho   Oho 
 G Am Dm C *      G 
faces stay with me


Until We Have Faces Tabs by Red

 
-------------------------------------------------------------------------------
                             Until We Have Faces - Red
-------------------------------------------------------------------------------
: StevenBeaven90
 stevenkotelnikov
Tuning: Drop A ( A E A D F# B )
Go to http://www.youtube.com/watch?v=nEnZgtASzeA to view this tab in action.

B|-----------------------------------------------------------------------------|
F#|----------------------------------------------------------------------------|
D|-10-------7--------12--------9-----------------------------------------------|
A|--8--------5--------10--------7-----------(x2)-------------------------------|
E|--8--------5--------10--------7----------------------------------------------|
A|--8--------5--------10--------7----------------------------------------------|

B|------------------------------------------------------------------------------|
F#|-----------------------------------------------------------------------------|
D|------------------------------------------------------------------------------|
A|--0-------0---0-----------------------0-------0---0---------------------------|
E|--0-------0---0-----------------------0-------0---0---------------------------|
A|--0-------0---0-----------------------0-------0---0---------------------------|

B|------------------------------------------------------------------------------|
F#|-----------------------------------------------------------------------------|
D|------------------------------------------------------------------------------|
A|--0---------------------------------------------------------------------------|
E|--0---------------------------------------------------------------------------|
A|--0---------------------------------------------------------------------------|

B|------------------------------------------------------------------------------|
F#|-----------------------------------------------------------------------------|
D|------------------------------------------------------------------------------|
A|--0--3--0--6--0--3--6--0--6--0--3--6--7--0--3--6------------------------------|
E|--0--3--0--6--0--3--6--0--6--0--3--6--7--0--3--6------------------------------|
A|--0--3--0--6--0--3--6--0--6--0--3--6--7--0--3--6------------------------------|

B|------------------------------------------------------------------------------|
F#|-----------------------------------------------------------------------------|
D|------------------------------------------------------------------------------|
A|--0--7--6--0--3--6--0--6--0--3--6--0--1--1------------------------------------|
E|--0--7--6--0--3--6--0--6--0--3--6--0--1--1----------(x2)----------------------|
A|--0--7--6--0--3--6--0--6--0--3--6--0--1--1------------------------------------|

B|------------------------------------------------------------------------------|
F#|-----------------------------------------------------------------------------|
D|------------------------------------------------------------------------------|
A|--3-------------6-------------4-------------7---------------------------------|
E|--3---(x16)-----6---(x16)-----5---(x16)-----7---(x16)-------------------------|
A|--3-------------6-------------4-------------7---------------------------------|




B|------------------------------------------------------------------------------|
F#|-----------------------------------------------------------------------------|
D|------------------------------------------------------------------------------|
A|--3-------------6-------------4-------------3---------------------------------|
E|--3---(x16)-----6---(x16)-----5---(x16)---- 3---(x16)-------------------------|
A|--3-------------6-------------4-------------3---------------------------------|

B|------------------------------------------------------------------------------|
F#|----------

Plastic Faces chords – Miss Li

 Am 
I’m so tired of the blogging 
                            Dm 
Yeah, I’m so tired of them bothering
                              E 
This thing called modern generation 
                             Am 
Is born of life of constant logging
                       Am 
Yeah, I’m so tired of opinions 
                        Dm 
And all the shadow equitation
                          E 
I call the local weather station 
                                   Am 
It’s raining bullshit through the nation

    Dm 
So go, get far
                            Am 
It comes a message from an empty heart
 Dm 
Go, get far
                           E 
Tweet it, tweet it little star.

 Am 
Plastic faces, plastic words
 Dm C 
We’re all living in our plastic world
                      G 
And we are caught in mud
 Am 
Plastic faces, plastic fools
 Dm C 
God was sure misunderstood, aha
                 G 
In this plastic world

                             Am 
This is a world with people starving
                               Dm 
Young people dying, bombs are falling
                       E 
We do our party conversations
                           Am 
About our make-up and foundation
                             Am 
And all this talk about the fashion
                          Dm 
Is such a western life obsession
                                 E 
Who’s in, who’s out, who bloody cares?
                              Am 
I just close my eyes and disappear

    Dm 
So go, get far
                            Am 
It comes a message from an empty heart
 Dm 
Go, get far
                           E 
Tweet it, tweet it little star.


 Am 
Plastic faces, plastic words
 Dm C 
We’re all living in our plastic world
                      G 
And we are caught in mud
 Am 
Plastic faces, plastic fools
 Dm C 
God was sure misunderstood, aha
                 G 
In this plastic world
                 Am 
In this plastic world

---
Took out the chords - ear listen to the acoustic session, so I hope everything sound ok. Enjoy!

Valley Of Casualties Chords – My Jerusalem

 Valley Of Casualties
by My Jerusalem

 D A 
Night is creeping through our neighbourhood
                       Bm 
Tucking in the indian sun
                                 D 
Throwing shadows on the asphalt plane

 D A 
Kids playin baby if you love me smile
                                     Bm 
Saying I love you, but i just cant smile
                             D 
And laughing cuz its just a game

R:
    G 
We wade through the valley of casualties
 D 
caused by all the things that we
   G D 
deny ourselves in the wake of a world
                             G 
thats stuck behind traffic lights
                              D 
no longer do i need to be be blinded
                          A 
from the things that i desire

the things that i desire


My friends, feels like theyre aging at a rapid pace
Soft faces in a hard parade
left with no one but themselves to blame

Snow never seems to find its way down south
always waiting for a season to change
never get to see the Ice Capades

R:
We wade through the valley of casualties
caused by all the things that we
deny ourselves in the wake of a world
thats stuck behind traffic lights
no longer do i need to be be blinded
by the things that i desire
the things that i desire

 Bm A D G Bm A D Bm A D G Bm A D 

R:
We wade through the valley of casualties
caused by all the things that we
deny ourselves in the wake of a world
thats stuck behind traffic lights
no longer do i need to be be blinded
by the things that i desire
the things that i desire

Electricity Chords – Delain

 "Electricity" - Delain
 We Are the Others
-----------------------------------------------------------------------------


Intro:
5x  Bm G Em Bm Bm                                                                          
I can't forget the faces. I can't forget the sounds. I can't forget, can't 
          G 
get the fever down

 Bm                                                       
I guess imagination. It makes it come around. Whenever lightning strikes and
 G 
thunder sounds.


 Em Bm Em Bm C D       
 We shared nothing, but storm, but wind. One rains wept moment stuck within.

Chorus:

 Bm F#m Bm F#m D Em F#m 
Day by day  -  I walk the distance alone, walk the distance alone
 Bm F#m Bm F#m D Em F#m 
Day by day, I fight the fever alone, fight the fever alone


 Bm G Em Bm Bm 
I can't forget the shaking. Your hands over my own. Both hot with fever
         G 
To our very bones.
 Bm 
I do regret the feeling, that we will never know what might have happened 
        G 
had we not let go.


Chorus


Solo 
2x  C#m A F#m C#m C#m A F#m C#m C#m A F#m C#m 
  I can't forget the faces, I can't forget the sounds

Chorus (2 or more times ;) )

Kellys Wellies Chords – Gaelic Storm

 Gaelic Storm
Kelly's Wellies
----------------------

Intro: D with Dsus4 for flair at the end of the measure.

              D 
When I was a young un', I knew a lad from Ballybunion
                                     A 
He hadn't got a single penny to his name, you might say
                  D 
He had a raggedy coat, and like two rubber boats
             Bm A D 
He kept his wellington boots on from December to May


Chorus:
              G D 
It was Kevin Kelly, with his chopped off wellies
                      A D 
In the middle of the summer time he was looking fine!
               G D A 
His pants had holes in the knees but he was proud as you please
             G A D 
With his ol' wellies he keep strolling along


             D 
As we got older and slyer and bolder 
                                           A 
and the girls we had our eyes on they got older as well
                     G D 
With paint on their faces and curves in nice places
              Bm A D 
Well we were dressed to impress them and we thought we were swell!


                       D 
Well our duds were in fashion to kindle their passion
                                                A 
But there was Kevin on the dance floor looking anything but neat
                  D 
He was tryin' to flirt in his hand-me-down shirt,
          Bm A D 
with the same ol' wellies on his two big feet!


Chorus:
              G D 
It was Kevin Kelly, with his chopped off wellies
                      A D 
In the middle of the summer time he was looking fine!
               G D A 
His pants had holes in the knees but he was proud as you please
             G A D 
With his ol' wellies he keep strolling along


                Em                   
Well we teased him and we mocked him, but sure that never shocked him, 
    Bm A 
he painted on some laces and cut them down to look like shoes.
             Em 
He was poor but he had style, he made everybody smile
        A 
He wore his ol' wellies!
He wore his ol' wellies!
He wore his ol' wellies!
                          D G D A 
Like he'd nothin' to lose!

 D G D A D D 
The next time we found him, well the girls were all around him
                                  A 
He was busting the moves, he was happy as can be
                       D G 
One of the girls came near, and whispered in my ear...
       D                           notes:   A F# D 
"Only boys who wear their wellies have a chance wit' me."


Chorus:
              G D 
It was Kevin Kelly, with his chopped off wellies
                      A D 
In the middle of the summer time he was looking fine!
               G D A 
His pants had holes in the knees but he was proud as you please
             G A D 
With his ol' wellies he keep strolling along


              G D 
It was Kevin Kelly, with his chopped off wellies
                      A D 
In the middle of the summer time he was looking fine!

Miracle Chords – Ilse De Lange V5

 C * (one strum)                     G *
   Someone put a lock on this old door
                                    Am *
It's been beaten up and used and more
                                        F *
It's been kicked a hundred thousand times
                                C *
Keeping all the memories behind
                      
                                        G 
If you read the lines between the paint
                                           Am 
Look beyond the cracks that store away
                                            F 
It's hidden in the windows of the walls
                                            C 
Right behind the eyes that saw it all

                                    G 
Given all the facts of circumstance
                                  Am 
I did not believe that a romance
                                         F 
Would show itself in all this dark and blue
                                    C 
That's the only place I ever knew

                                    G 
You put me outside my safety-zone
                                    Am 
Outside all the lines that made my home
                                      F 
To find out that no one really lives
                                      C 
Without giving what it is you give

   Am F 
A miracle looking in my life
   C G 
A mirror-ball showing me all these faces
   Am F G 
A miracle looking in my life, after all
   Am F 
A miracle looking in my life
   C G 
A mirror-ball showing me all these faces
   Am F G 
A miracle, A miracle, A miracle

 C G 
I've been living underneath my skin
                             Am 
Everything I felt I kept it in
                                F 
It carried all the words without a sound
                                 C 
It got me, it almost got too loud

                                  G 
But now that my arms are holding on
                                  Am 
To someone as sacred as a song
                                     F 
To the one who wants to be my own
                                     C 
I have found that blood can come from stone

   Am F 
A miracle looking in my life
   C G 
A mirror-ball showing me all these faces
   Am F G 
A miracle looking in my life, after all
   Am F 
A miracle looking in my life
   C G 
A mirror-ball showing me all these faces
   Am F G 
A miracle, A miracle, A miracle

   Am F 
A miracle looking in my life
   C G 
A mirror-ball showing me all these faces
   Am F G 
A miracle looking in my life, after all
   Am F 
A miracle looking in my life
   C G 
A mirror-ball showing me all these faces
   Am F G 
A miracle, A miracle, A miracle

 C * (one strum)                      G *
   Someone put a lock on this old door
                                     Am *
It's been beaten up and used and more
                                        F *
It's been kicked a hundred thousand times
                               C *
Keeping

The Call Chords – Miracle Of Sound

 D 
Echoes from the west 
       C             
Great hammers will fall 
 G 
Under high rocks all will 
 F 
Answer the call 

 Dm 
Bring us your arms 
    F 
Pariahs of yore 
 G A 
All faces turn now to war 

 D 
Exiles of the ash 
       C 
Stare through crimson glow 
 G 
Guards of the north 
            F 
Sing their songs of the snow 

 Dm 
Bring us the breath 
        F 
Of the marshes and rain 
 G A 
Courage is rising again! 

 Dm F C Am 
War will weather the souls of the lost
 Dm F C Em 
Stand together whatever the cost 
 Dm F C Am 
Shields will falter and many will fall 
          G Am 
Time has come for us all 
               Dm F C A#   
To answer the call 
               Dm F A# B 
To answer the call

 Dm F C A# Dm F A# B D C G F D F G A D 
Pride of Summer's shores 
           C          
Guide the voices of kings 
 G 
Children of bark 
           F 
They will tighten their strings 

 D 
Bring us the wits 
        F 
Of the warm southern sands 
 G A 
Clouds over all of the lands


 Dm F C Am 
War will weather the souls of the lost
 Dm F C Em 
Stand together whatever the cost 
 Dm F C Am 
Shields will falter and many will fall 
          G Am 
Time has come for us all 
               Dm F C A#   
To answer the call 
               Dm F A# B 
To answer the call


 Dm F 
White gold 
 G Dm 
Burning sky 
(For the souls of the lost) 
 Dm F A# B 
Purify 
x2

 Dm F C Am 
War will weather the souls of the lost
 Dm F C Em 
Stand together whatever the cost 
 Dm F C Am 
Shields will falter and many will fall 
          G Am 
Time has come for us all 
               Dm F C A#   
To answer the call 
               Dm  
To answer the call

Let me know if there's any mistakes!

Always The Same Chords – Useless Id

 Useless ID
Always The Same
The Lost Broken Bones
2008 Kung Fu Records
Submitted by: jeremyunderground41@yahoo.com

Key:  D 

Tuning: Standard EADGBe

Chords used:
 Bm  -  x24432
 G  -   320033
 D  -   xx0232
 A  -   x02220
 Em  -  022000
 F#m  - 244222
 F#  -  244322


Intro: 
A(hold)-Bm--G-A-
Bm--G-A-


Verse 1:
 Bm (hold)
Are you here to save the world?
     G A 
The odds are running against you
 Bm (hold)
Every day the same impression 
 G A 
that something will change
   Bm 
Today I felt so sick when 
         G A 
all the warnings got me down
 Bm A 
All we are is a voice 
          G 
without a sound


Refrain 1:
          Em 
Face the problem lead 
     F#m G 
the way to the solution
            Em 
Raise your flag in 
      F#m 
victory when you 
 G 
lost more than you
         F#--
had It's all gone


Chorus 1:
          Bm G 
Now it's more than a dream 
          D A 
and it's dying next to me
       Bm G 
If we had so much more then
 D A 
what would we be fighting for?
     Bm G 
Are days go by we're killing 
           D F#m 
time with so much in our way
          G A 
But it's always the same
             Bm G A Bm G G - F#m - Em - D -
(Always the same)


Verse 2:
 Bm 
I remember when we 
      G A 
were faces in the hall
 Bm 
Now what's left 
are memories
 G A 
posters on the wall
       Bm 
We're getting by with 
              G 
no direction faster 
         A 
than we know
    Bm 
It feels like we've 
      A 
been winning all 
 G     F#--
a-long No more


Chorus 2:
          Bm G 
Now it's more than a dream 
          D A 
and it's dying next to me
       Bm G 
If we had so much more then
 D A 
what would we be fighting for?
     Bm G 
Are days go by we're killing 
           D F#m 
time with so much in our way
          G A F# 
But it's always the same


Guitar Solo:  Bm - G - D - A - F# - G - D - F# -


Bridge:
 Bm G 
  Let's turn it off
                D 
(Let's turn it off)
           A 
and walk away
 F# G 
  No I don't want to know 
 D F# 
what we were thinking
 Bm G 
  Let's turn it off
                D 
(Let's turn it off)
           A 
and walk away
 F# G 
  No I don't want
            D 
to know at all
(No I don't
 F# 
want to know)


Chorus 3:
          Bm G 
Now it's more than a dream 
          D A 
and it's dying next to me
       Bm G 
If we had so much more then
 D A 
what would we be fighting for?
     Bm G 
Are days go by we're killing 
  

Big Eyes Chords – Bouncing Souls V2

 Bouncing Souls
Big Eyes
Ghosts On Boardwalk
2009 Epitaph Records
Submitted by: jeremyunderground41@yahoo.com

Key: A

Tuning: Standard EADGBe

Chords used:
 A  -    x02220
 E  -    022100
 F#m  -  244222
 D  -    xx0232
 Bm  -   x24432
 A/C#  - x476xx


Intro:  A - E - F#m - D - x2


Verse 1:
 A E 
  You left home for the first 
                         A 
time when you were seventeen
                 E 
Searching for a life 
           A/C# D 
beginning a new dream
                        A 
You drove your car all night 
               A/C# D    
to learn your way around
             A 
Feeling so alone in a 
         A/C# D 
parking lot downtown
You had your love to 
 A Bm A E --
give So much life to live 


Chorus 1:
 A E 
  Hey little girl don't 
         F#m 
look so sad it’s not 
                D 
the end of the world
                       A 
I've seen this film before
                  E 
already know the ending 
                   F#m 
Some of the faces change 
                           D 
but the plot it stays the same
      Bm A/C# D 
Take my hand 
            A E F#m D A E F#m D 
lets walk away


Verse 2:
 A 
  What did those big
      E 
eyes see in a world 
                A 
where nothings free?
          A/C# E 
Your innocent beauty 
              A/C# D 
was slipping quietly
                     A 
With every turn you frown
           A/C# D 
No one to understand
                       A 
Why would you feel so down? 
                  D 
No one to really see what 
   A Bm A E --
a woman you could be


Chorus 2:
 A E 
  Hey little girl don't 
         F#m 
look so sad it’s not 
                D 
the end of the world
                       A 
I've seen this film before
                  E 
already know the ending 
                   F#m 
Some of the faces change 
                           D 
but the plot it stays the same


Bridge:
               F#m 
You gave your heart
 D F#m 
  Every moment
             Bm 
when no one can
                F#m D 
They made you small
They couldn't
make you fall


Guitar Solo:  A - E - F#m - D - A - E - D - A -


Verse 3:
 D A A/C# 
  Hey little girl
 D A A/C# 
  Hey Hey little girl
 D A Bm A E -- D - A/C# 
  Hey little girl


Chorus 1:
 A E 
  Hey little girl don't 
         F#m 
look so sad it’s not 
                D 
the end of the world
                       A 
I've seen this film before
                  E 
already know the ending 
                   F#m 
Some of the faces change 
                          

The Next Step Is Love Chords – Elvis Presley

 key:  Ab 
   Intro:   Eb Gm Bbm Eb Ab Bb 
    Yesterday, I slipped away
                                      Gm 
    The sun is welcoming the evening shadows
                  Cm Eb Fm Bb 
    On a perfect day and the next step is love
                      Eb Cm Bb 
    The next step is love


               Eb Cm 
    We walked barefoot through the misty meadows
     C5 Bb Eb Cm Bb 
    Laughing at each other in the rain
               Eb Cm 
    Made some faces at some people in the park
            Bb Eb Cm Bb 
    Didn't bother to explain
     Eb Db  
    Fun, fun, look at us run
     Cm Bb Eb Cm Bb 
    Going nowhere special really fast
               Eb Db Cm 
    But we've yet to taste the icing on the cake
                     Bb Eb Ab Eb 
    That we've been baking with the past


                           Ab 
    And the next step is love
                            Eb 
   So what are we waiting for?
                       Ab 
    The next step is love
                      Eb 
     Girl, it's for sure
          Ab Bb 
    Yesterday, I slipped away
                                      Gm 
    The sun is welcoming the evening shadows
                  Cm Eb Fm Bb 
    On a perfect day and the next step is love
                      Eb Dm C 
    The next step is love

     F Dm 
    Love will be a place to run to
     Bb C F Dm C 
    From the world they've built to you and me
              F Eb 
    We'll be closer than we've ever been
            Dm C5 F Dm C 
    Though looking back it's so hard to believe
     F                  
    Hang it all out or bring it all in
         Dm C F5 Eb Dm C 
    The best we've picked upon the way tonight
     F Dm Bb 
    Changes are coming but together
            C F Bb F 
    We can make it through somehow


          Ab 
    And the next step is love
                            Eb 
   So what are we waiting for?
                       Ab 
    The next step is love
                      Eb 
     Girl, it's for sure
          Bb C 
    Yesterday, I slipped away
                                      Am 
    The sun is welcoming the evening shadows
                  Dm F Bb Gm Cm F 
    On a perfect day and the next step is love
                      Eb Dm C 
    The next step is love
               Fm Eb Dm F 
    Yes it's love
                        Eb Dm F 
    The next step is love
              F Eb Dm F 
    Yes it's love
                      F <sp

Shine Jesus Shine Chords – Cliff Richard

 G C G D   
Lord the light of Your love is shining
 G C G D 
In the midst of Your darkness shining
  C D Bm Em 
Jesus light of the world shine upon us
 C D Bm Em 
set us free by the truth You now bring us
 F D F D 
Shine on me, Shine on me

   G D C G Am D 
Shine Jesus shine, fill this land with the Father's glory
  G D C G Am F D 
Blaze spirit blaze, set our hearts on fire
  G D C G Am D 
Flow river flow, flood the nations with grace and mercy
  G D C G Am D G    
Send forth Your word, Lord and let there be light! 

  G C G D 
Lord I come to Your awesome presence
  G C G D 
From the shadows into Your radiance
 C D Bm Em 
By the blood I may enter Your brightness
 C D Bm Em 
Search me, try me, consume all my darkness
 F D F D 
Shine on me, Shine on me

 G C G D 
As we gaze on Your kingly brightness
 G C G D 
So our faces display Your likeness
 C D Bm Em 
Ever changing from glory to glory
 C D Bm Em 
Mirrored here may our lives tell Your story
 F D F D 
Shine on me, Shine on me

All The Faces Chords – Creed Bratton

 Intro/Verse:     D D/Db -> Bm G D D E7 Asus2 D 

I saw a friend today, it had been a while.
And we forgot each others names.
But it didn't matter cause deep inside
The feelings still remained the same.

We talked of knowing one before you've met,
And how you feel more than you see,
And other worlds that lie in spaces in between,
And angels you can see.

 G A D 
And all the faces that I know

 G A D 
Have that same familiar glow.

 G D G 
I think I must've known them somewhere once before

 Em A D 
All the faces that I know.

[Intro - just the first line]

 D Bm G A D 
All the faces that we see each and every day

 D F#m Em A D  
When I get home at night, you're the face I need.

And when my mind's absorbed on my private  little screen,
And I'm walking blind through a sea of unknown men,
I hear a voice reminding there across the street
Walks an old forgotten friend.

 G D 
We don't have to say a word .

 G D 
It's really better left unsaid.

 G Dmaj7 
Just like through eyes that recognize

 G A D 
All the faces that I know.

 G A D 
All the faces that I know.

All the faces that we see each and every day
When I get home at night, you're the face I need.
When I get home at night, you're the only face I need. 

Better Day Chords – Sleepy Rebels

 Sleepy Rebels - Better day
Please note that this is my first tab, and I'm not sure that this will sound 
exactly like the recorded version of the song. Other than that I hope it's ok
Also, this is the band's website: http://sleepyrebels.com/
Please support the band guys!
Capo 6

Intro:  F C G Am  x2

 F C G 
 Here's a blueprint of the sun
               Am F 
Hand it out to everyone
        C G       
So the world can shine


 F C G 
 There is nothing we can't do
              Am F 
Now we're in reach of the moon
          C G     
And we're feeling fine


          Em C     
Cause the world is a show
          Em C 
All the faces you know


 F C G 
It's such a better day
 G  
Than the one before
 F C G 
It's such a better day
 G 
Listen, I want more
 F C G 
It's such a better day
 G C G D Em 
Du du du du du duuu



 C G D Em F C G 
 Take this spirit from my heart
              Am F 
So your melody can start
      C G 
Just say you do


 F C G 
 There is nothing we can't do
          Am F 
When december turns to june
      C G 
And we feel the fun


          Em C 
Cause the world is a show
          Em C 
All the places we'll go



 F C G 
It's such a better day
 G  
Than the one before
 F C G 
It's such a better day
 G 
Listen, I want more
 F C G 
It's such a better day


solo  Em Em C C  x2
      Em G D D   x3
      F C G Am   x2


 F C G 
 Here's a blueprint of the sun
               Am F 
Hand it out to everyone
        C G       
So the world can shine


 F C G 
 There is nothing we can't do
              Am F 
Now we're in reach of the moon
          C G     
And we're feeling fine

 F C G 
It's such a better day
 G  
Than the one before
 F C G 
It's such a better day
 G 
Listen, I want more
 F C G 
It's such a better day
       F C G Am 
Cause it's you and me
      F C G Am C          
And a yellow tree

Back To New Orleans Chords – Old Crow Medicine Show

 -------------------------------------------------------------------------------
                   Back to New Orleans - Old Crow Medicine Show
-------------------------------------------------------------------------------
Tabbed by: Jon Fye
E-mail: jonathanfye@gmail.com

Tuning: Standard

 A :      X02220
 C#m/A :  X06654
 D :      XX0232
 Dm :     XX0231
 C#m :    X46654
 E :      022100
 G :      320033


Intro:
 A C#m/A D Dm A 


Verse:
 A C#m/A 
Pardon me sir, you got a dime? 
                       D Dm A   
I'm trying to find my way back to New Orleans.
 A C#m/A 
Broke down and fallen on hard times,
                       D Dm A  
I need just one kind favor to get back on my feet.


Chorus:
 C#m D A 
Lost my ticket for a Greyhound bus, 
         D A E 
when it left me in the dust and gone away.
 C#m D A D A E 
Man at the station says, "Boy get lost, start going your own way."
 

 A C#m/A D 
Im walking 40 days and nights under the Texas sun, 
        Dm A 
won't someone help me please?
 A C#m/A 
Pardon me sir, you got a dime?
                       D Dm A 
I'm trying to find my way back to New Orleans.


 A C#m/A D Dm A 


Verse:
I did my time in Baton Rouge, in Birmingham and Huston, too, 
but all I ever see
Was weary faces just like mine, waiting in endless lines, 
just'a trying to find a seat.

Chorus:
Lost their tickets for a Greyhound bus, 
when it left them in the dust and gone away.
Now all they're asking is for you to help their cause, 
'cause they're going a long way.

They're walking 40 days and nights under the Texas sun, 
won't someone help them please?
Spare just a dollar or a dime, 
they're trying to find their way back to New Orleans.
 

Harmonica Solo:
 G D A G D A G D A G D E 


Verse:
We're walking 40 days and nights and only just begun 
to reach our destiny.
Still got a long hill left to climb, 
come on let's find our way back to New Orleans.

Outro:
               G D A 
Come on let's find our way. 
             G D A 
Come on and find our way.
               G D A  
Come on let's find our way.

 G D E A C#m/A D Dm A A C#m/A D Dm A A ~


The little fills you hear off of the A and E chords:
e|---0--0-----------0---|---0--0--------0------------------------------------|
B|---2-----(2)----3-----|---0-----0-------3----------------------------------|
G|---2--------2---------|---1-------1----------------------------------------|
D|---2------------------|---2------------------------------------------------|
A|---0------------------|---2------------------------------------------------|
E|----------------------|---0------------------------------------------------|