Tag: fall

Till I Fall Asleep chords – Jayme Dee Vsion 3

 Capo 1


 C F Am  
If you would just slow down you would see
                   F 
We were meant for something
 C F Am 
Lay your armor down and stay with me
                    F 
Aren't you tired of running?



 G F G 
Can we go back before the storm came raging?
                           F 
And everything we built was gone

-----------[Chorus]------------------------------------
   C F 
So sing to me til I fall asleep
 Am G F 
Like the way you did when you were still mine
    C F 
And tell me that it's not over yet
 Am G F 
We were never good at saying goodbyes
     Am G F 
Why can't you see what's right in front of your eyes?
-------------------------------------------------------

 C F Am  
Remember our first kiss that starry night?
                      F 
It felt like we were flying
 C F Am 
So how do we forget that love is on our side
                 F 
Oh we never saw this coming



 G F G 
Can we go back before the morning took you?
                         F 
And every dream of you was gone


-----------[Chorus]------------


 Am F Am G F 
Woah, woahhh, woahhhhh


 G F G 
Can we go back before the storm came raging?
                           F 
And everything we built was gone


   C F 
So sing to me til I fall asleep
 Am G F 
Like the way you did when you were still mine

-----------[Chorus]-------------

Fall Tabs – Something Corporate Vsion 2

 Song: Fall
 Something Corporate
Tuning: eADGBE
 Brandon Bushnell


Intro/Verse:Riff1                                              
E|-----------------------------------------------------------|
B|-----------------------------------------------------------|
G|------------------------------------44-44-4444-------------|
D|22-22-2222--44-44-4444--66-66-6666--44-44-4444-Repeat 3x---|
A|22-22-2222--44-44-4444--66-66-6666--22-22-2222-------------|
e|00-00-0000--22-22-2222--44-44-4444-------------------------|


 [Lead Guitar Fill] 
E|-----------------------------------------|
B|--44444444------------1111111--44444444--|
G|------------88888888---------------------|
D|-----------------------------------------|
A|-----------------------------------------|
e|-----------------------------------------|

  [Pre-Chorus]
E|------------------------------------------|
B|--------------------------------44444444--|
G|--------------------------------44444444--|
D|--22222222--44444444--66666666--22222222--|
A|--22222222--44444444--66666666------------|
e|--00000000--22222222--44444444------------|

[Chorus]:(x2)
E|-----------------------------------------|
B|-----------------------------------------|
G|------4444-----------------4444----------|
D|-2222-4444-4444-66-44-2222-4444-44444444-|
A|-2222-2222-4444-66-44-2222-2222-44444444-|
e|-0000------2222-44-22-0000------22222222-|


E|-----------------------------------------------------------|
B|-----------------------------------------------------------|
G|------------------------------------44-44-4444-------------|
D|22-22-2222--44-44-4444--66-66-6666--44-44-4444-Repeat 4x---|
A|22-22-2222--44-44-4444--66-66-6666--22-22-2222-------------|
e|00-00-0000--22-22-2222--44-44-4444-------------------------|


 [Lead Guitar Fills]
E|-------------------------------------------|----------------------------------------------------|
B|-------------------------------------------|-----------------------------------------14p0-14p0--|
G|--3333-4444-3333-4444-3333-4444-6666-4444--|-------------h11p0--h11p0--h11p0--h11p0-------------|
D|-------------------------------------------|--11br-9v-------------------------------------------|
A|-------------------------------------------|----------------------------------------------------|
e|-------------------------------------------|----------------------------------------------------|


[Pre-Chorus]
E|------------------------------------------|
B|--------------------------------44444444--|
G|--------------------------------44444444--|
D|--22222222--44444444--66666666--22222222--|
A|--22222222--44444444--66666666------------|
e|--00000000--22222222--44444444------------|


[Chorus]:(x2)
E|-----------------------------------------|
B|-----------------------------------------|
G|------4444-----------------4444----------|
D|-2222-4444-4444-66-44-2222-4444-44444444-|
A|-2222-2222-4444-66-44-2222-2222-44444444-|
e|-0000------2222-44-22-0000------22222222-|


Interlude:(x4)
E|---------------------------|
B|---------------------------|
G|---------------------------|
D|--66666666666668-98989898--|
A|--66666666666668-98989898--|
e|--44444444444446-76767676--|
  pm.............

 [Lead Guitar Fills]
E|-------------------------------------------------------------------|
B|-------------------------------------------------------------------|
G|-------------------------------------------------------------------|
D|--11br--9-8-9-8-9-8---11br--9-8-9-8-9-8--11br--9-8-9-8-9-8--11br~--|
A|-------------------------------------------------------------------|
e|-------------------------------------------------------------------|


[Chorus]:(x2)
E|-----------------------------------------|
B|-----------------------------------------|
G|------4444-----------------4444----------|
D|-2222-4444-4444-66-44-2222-4444-44444444-|
A|-2222-2222-4444-66-44-2222-2222-44444444-|
e|-0000------2222-44-22-0000------22222222-|

 
[Lead Guitar] 
E|--------------------------------------------

Where Shadows Never Fall chords – Glen Campbell

 Where Shadows Never Fall
Glen Campbell


Intro   Cm D# G# Gm D# Cm Fm Bb D# 

Verse 1

        Bb Cm        
Once I stood alone in darkness
 Bb G# D# Fm Bb D# 
In the valley of the shadow
      Bb Cm         
In a world so cold and heartless
 Bb G# Gm Fm G G7 Cm 
Filled with anger greed and sorrow
           D# G# Bb Cm 
I know my life was in a stormy rage
        D# G# Bb D# 
Then I fell down on my knees and prayed

Verse 2

             Bb Cm 
And I could feel HIS light surround me
 Bb G# Gm Fm Bb D# 
and the darkness in the shadows
         Bb Cm   
Then HE wrapped HIS love around me
 D# G# Gm Fm G G7 Cm 
And HE healed a heart torn and tattered

Verse 3

         D# G# Bb Cm 
HE cast away the shadows of the night
           D# G# Bb D# 
And I was saved once and for all
                  G# F Bb 
Now I'm standing in HIS light
                      D# 
Where shadows never fall

riff   Bb Cm Bb G# Gm Fm Bb D# Bb Cm D# G# Gm Fm Bb Cm 

Verse 4

 Cm D# G# Bb Cm 
The way is clear now and HIS truth shines bright
                  D# G# Bb D#            
Cause I 've been saved once and for all
              Gm G# F D# 
Now I'm standing in HIS light
       Bb Cm D# F G# Gm 
Where shadows never fall
       Fm B G#m D#   
Where shadows never fall


flyinglibra51
God Bless Glen Travis Campbell

Irresistible Tabs – Fall Out Boy Vsion 1

 Fall out boy - Irresistible
 so if it's fucked up 
I'm sorry

Intro+Verse

E)-----------------2-5-2-5-----------| 
A)--0-2-0-2-2-5-2-5------------------|
D)-------------------------0-2-0-2--0|
G)-----------------------------------|
B)-----------------------------------|
e)-----------------------------------|
                                      x8

Pre-chorus

E)3----2----0|
A)5----5----2|
D)5----5----2|
G)4----4----0|
B)3----2----0|
e)3----2----0|

Chorus

E)x-x-7-7-7-5-5-5-3-3-3-3|
A)x-x-9-9-9-7-7-7-5-5-5-5|
D)x-x-9-9-9-7-7-7-5-5-5-5|
G)x-x-7-7-7-5-5-5-3-3-3-3|
B)x-x--------------------|
e)x-x--------------------|
                         x2

Guitar 1
E)7-7-7-7-10-10-10-10-5-5-5-5-12-12-12-12|
A)9-9-9-9-12-12-12-12-7-7-7-7-14-14-14-14|
D)9-9-9-9-12-12-12-12-7-7-7-7-14-14-14-14|
G)7-7-7-7-10-10-10-10-5-5-5-5-12-12-12-12|
B)---------------------------------------|
e)---------------------------------------|
                                         x2

Guitar 2

E)-----------------2-5-2-5-----------| 
A)--0-2-0-2-2-5-2-5------------------|
D)-------------------------0-2-0-2--0|
G)-----------------------------------|
B)-----------------------------------|
e)-----------------------------------|
                                     x2

Verse

E)-------|---------------2-5-2-5----------|
A)0-2-0-2|0-2-0-2-2-5-2-5-----------------|
D)-------|----------------------0-2-0-2--0|
G)-------|--------------------------------|
B)-------|--------------------------------|
e)-------|--------------------------------|
       x2                                x6

Pre-chorus

E)3----2----0|
A)5----5----2|
D)5----5----2|
G)4----4----0|
B)3----2----0|
e)3----2----0|

Chorus

E)x-x-7-7-7-5-5-5-3-3-3-3|
A)x-x-9-9-9-7-7-7-5-5-5-5|
D)x-x-9-9-9-7-7-7-5-5-5-5|
G)x-x-7-7-7-5-5-5-3-3-3-3|
B)x-x--------------------|
e)x-x--------------------|
                         x2

Guitar 1
E)7-7-7-7-10-10-10-10-5-5-5-5-12-12-12-12|
A)9-9-9-9-12-12-12-12-7-7-7-7-14-14-14-14|
D)9-9-9-9-12-12-12-12-7-7-7-7-14-14-14-14|
G)7-7-7-7-10-10-10-10-5-5-5-5-12-12-12-12|
B)---------------------------------------|
e)---------------------------------------|
                                         x2

Guitar 2

E)-----------------2-5-2-5-----------| 
A)--0-2-0-2-2-5-2-5------------------|
D)-------------------------0-2-0-2--0|
G)-----------------------------------|
B)-----------------------------------|
e)-----------------------------------|
                                     x2

Bridge 
Don't play until Patrick comes in

Guitar 1

E)---|-------------|
A)---|-------------|
D)---|-------------|
G)---|-------------|
B)---|--------15-12|
e)-14|-14-12-------|
   x16

E)----------------------------|
A)----------------------------|
D)----------------------------|
G)--------------11-9-11-------|
B)--12-10h12----------------12|
e)-----------------------10---|

E)-------------------------------------|
A)-------------------------------------|
D)-------------------------------------|
G)-------------------------------------|
B)-10h12----12-10----7----3/5/7b7-5-3-0|
e)-------10----------------------------|


Guitar 2

E)-----------------2-5-2-5-----------| 
A)--0-2-0-2-2-5-2-5------------------|
D)-------------------------0-2-0-2--0|
G)-----------------------------------|
B)-----------------------------------|
e)-----------------------------------|
                                     x2

Pre-chorus

E)3----2----0|
A)5----5----2|
D)5----5----2|
G)4----4----0|
B)3----2----0|
e)3----2----0|

Chorus

E)x-x-7-7-7-5-5-5-3-3-3-3|
A)x-x-9-9-9-7-7-7-5-5-5-5|
D)x-x-9-9-9-7-7-7-5-5-5-5|
G)x-x-7-7-7-5-5-5-3-3-3-3|
B)x-x--------------------|
e)x-x--------------------|
                         x2

Guitar 1
E)7-7-7-7-10-10-10-10-5-5-5-5-12-12-12-12|
A)9-9-9-9-12-12-12-12-7-7-7-7-14-14-14-14|
D)9-9-9-9-12-12-12-12-7-7-7-7-14-14-14-14|
G)7-7-7-7-10-10-10-10-5-5-5-5-12-12-12-12|
B)---------------------------------------|
e)---------------------------------------|
                     

Fall On Me chords – Pousette-Dart Band V2

 FALL ON ME 
by Jon Pousette-Dart 
(The Pousette-Dart Band)


[Intro]
 G#m7 C#7sus F#m7add4 B7sus E 
Fall,  fall,    fall,  fall on me. 

[Chorus]
 E G#m7 C#7sus F#m7add4 B7sus E 
If you’re gonna fall...               fall on me,
 E G#m7 C#7sus F#m7add4 B7sus E 
and if you're goin’ down...               hold on to me.

[Verse 1]
               G#m7 C#m7 
I can see the sorrow in your eyes,
                 F#m7 B 
I can feel your heart wondering why.

[Chorus]
 E G#m7 C#7sus F#m7add4 B7sus E 
If you’re gonna fall...               fall on me,
 E G#m7 C#7sus F#m7add4 B7sus E 
and if you're goin’ down...               hold on to me.

[Verse 2]
         G#m7 C#m7 
Now you feel you’ve lost all reason,
       F#m7 B 
can’t face another day,
              G#m7 C#m7 
when it’s despair it’s just a season,  
      F#m7 B 
that comes and goes away.

[Chorus]
 E G#m7 C#7sus F#m7add4 B7sus E 
If you’re gonna fall...               fall on me,
 E G#m7 C#7sus F#m7add4 B7sus E 
and if you're goin’ down...               hold on to me.

[Break]
G#m7  C#7sus  F#m7add4  B7sus  E (similar to Intro, but without vocals)
 E G#m7 C#7sus F#m7add4 B7sus E 
And if you're goin’ down...               hold on to me.

[Verse 3]
                G#m7 C#m7 
when you got a soul that shines on, 
         F#m7 B 
so much love can’t help but turn mine on.

[Chorus]
 E G#m7 C#7sus F#m7add4 B7sus E 
If you’re gonna fall...               fall on me,
 E G#m7 C#7sus F#m7add4 B7sus E 
and if you're goin’ down...               hold on to me.

[Outro]
 G#m7 C#7sus F#m7add4 B7sus E 
Fall,  fall,    fall,  fall on me. 


This song is originally performed with an alternate tuning. 
In standard tuning, the chords of this song, using a number of open string configurations, can be fingered:

G#m7: 464444
C#7sus: X46444 (or, for the adventurous, X46474)
C#m7: X46454
F#m7add4: X44200
F#m7: 242222
B7sus: X2X200
B: X24442
E: 022100

As for the very interesting vocals, in the intro & outro, after the melody, the top harmony moves D# to 
E, then down B/A/G#; the bottom harmony moves G# to A. During the inner choruses, the bottom harmony changes 
to F# to G#.

The Kids Arent Alright chords – Fall Out Boy V2

 *muted

[Intro]

 F# B D#m B 

[VERSE 1]
   F# 
Stuck in the jetwash 
      B 
Bad trip I couldn’t get off 
             D#m 
And maybe I bit off more than I could chew
         B 
And overhead of the aqua blue
              F# 
Fall to your knees bring on the rapture
                B 
Blessed be the boys time can’t capture
    D#m 
On film or between the sheets 
                         B 
I always fall from your window to the pitch black streets

[PRE-CHORUS]
              B F# 
And with the black banners raised as the crooked smiles fade
  B F# 
Former heroes who quit too late 
 B D#m C# 
Just wanna fill up the trophy case again

[CHORUS]
            F# 
And in the end
                B 
I’d do it all again 
                        D#m 
I think you’re my best friend
                         B 
Don’t you know that the kids aren’t all, kids aren’t alright
         F# 
I’ll be yours
                  B 
When it rains it pours
                   D#m 
Stay thirsty like before
                         B 
Don’t you know that the kids aren’t all, kids aren’t alright

 F# B 

[VERSE 2]
         F# 
I’m not passive but aggressive
      B 
Take note, it’s not impressive
            F# 
Empty your sadness  
                                              B 
Like you’re dumping your purse on my bedroom floor 
We put your curse in reverse
          F# 
And it’s our time now if you want to to be
          B 
More the war like the carnival bears set free
          D#m 
And your love is anemic and I can’t believe
      B 
That you couldn’t see it coming from me

[PRE-CHORUS]
     B F# 
And I still feel that rush in my veins
    B F# 
It twists my head just a bit too thin
           B F# C# 
And those people in those old photographs I’ve seen are dead

[CHORUS]
            F# 
And in the end
                B 
I’d do it all again
                        D#m 
I think you’re my best friend
                         B 
Don’t you know that the kids aren’t all, kids aren’t alright
         F# 
I’ll be yours 
                  B 
When it rains it pours
                   D#m 
Stay thirsty like before
                         B 
Don’t you know that the kids aren’t all, kids aren’t alright

[BRIDGE]

     F# B 
And sometimes I just want to sit around and gaze at my shoes
                     D#m B 
And let your dirty sadness fill me up just like a balloon

[CHORUS]

            F# *
And in the end
               B *
I’d do it all again
                        D#m *
I think you’re my best friend
                         B *
Don’t you know that the kids aren’t all, kids aren’t alright

         F# 
I’ll be yours
                  B 
When it rains it pours
                   D#m 
Stay thirsty like before
                         B 
Don’t you know that the kids aren’t all, kids aren’t alright


 F# B D#m B (once)

Centuries chords – Fall Out Boy V6

 Fall Out Boy - Centuries

Intro 

Doot do doo-doot, doot do doo-doot, doot do doo-doot, doot do doo-doot

Chorus
       Em G 
Some legends are told, some turn to dust or to gold
                 C Am D 
But you will remember me, remember me, for centuries
      Em G 
Just one mistake is all it will take
                   C Am D 
We'll go down in history, remember me for centuries

 Em G C Am D 
Hey-ya, hey, hey-ya, remember me for centuries


Verse 1
 Em G 
Mollified my teenage dreams, no, it's nothing wrong with me
      Am 
The kids are all wrong the stories are off
  C D 
Heavy Metal broke my heart

  Em G 
Come on, come on, and let me in, bruises on your thighs like fingerprints
  Am 
This is for tonight, the darkness that you felt
    C D 
I never meant for you to fix yourself

          Em G 
Doot do doo-doot, doot do doo-doot, doot do doo-doot, doot do doo-doot


Chorus
       Em G 
Some legends are told, some turn to dust or to gold
                 C Am D 
But you will remember me, remember me, for centuries
      Em G 
Just one mistake is all it will take
                   C Am D 
We'll go down in history, remember me for centuries

 Em G C Am D 
Hey-ya, hey, hey-ya, remember me for centuries






Verse 2
              Em 
And I can't stop till the whole world knows my name
       G 
Cause I was only bold inside my dreams
   Am 
Until you die for me, as long as there's a light
      C D Em G 
My shadow's over you cause I, I am the opposite of amnesia
      Am 
And you're a cherry blossom, you're about to bloom
      C D 
You look so pretty but you're gone so soon 

Doot do doo-doot, doot do doo-doot, doot do doo-doot, doot do doo-doot

Chorus
       Em G 
Some legends are told, some turn to dust or to gold
                 C Am D 
But you will remember me, remember me, for centuries
      Em G 
Just one mistake is all it will take
                   C Am D 
We'll go down in history, remember me for centuries

 Em G C Am D 
Hey-ya, hey, hey-ya, remember me for centuries


Bridge 
  Em G C Am D 
We've been here forever and here's the frozen fruit
 Em G C Am D 
I could scream forever we are the poisoned youth


Doot do doo-doot, doot do doo-doot, doot do doo-doot, doot do doo-doot


Chorus
       Em G 
Some legends are told, some turn to dust or to gold
                C            Am            N.C.
But you will remember me, remember me, for centuries
      Em G 
Just one mistake is all it will take
                   C Am D 
We'll go down in history, remember me for centuries

 Em G C Am             
Hey-ya, hey, go down in history, remember me for centuries
                       (hey-ya)

And We Fall chords – Melanie Safka V2

 Melanie Safka - And We Fall
 
 
INTRO:  G C Em D    (4X)
 
 G D 
Promises are hard to keep
     Em D G     
She falls in love three times a week
      Em D G C 
And when she falls it's always deeper
                 D Dsus4 
Than the time before
 
 
 G D 
Easier said and harder done
    Em D G 
To love one only, only one
 Em D G 
Sometimes head and heart succumb
    C D 
To heaven in the making
 
 
CHORUS:
        G C Em D 
And we fall, after being warned and told
       G C Em D 
After all, the days and nights of hot and cold
         G C Em D G 
Knowing calls for closing eyes and healing words
      C D G C Em D G C Em D 
I'll love you forever
 
 
 G D 
Beholding to the heart in dreams
    Em D G 
We fall in love with love, it seems
   Em D G 
Believing in those movie scenes
         C D Dsus4 
And the happily ever after
 
 
       G D 
Well, some go on and some remain
        Em D G 
In the winning losing loving game
     Em D G 
And who we hurt in love's name
    C D 
It haunts us in our dreaming
 
 
CHORUS:
        G C Em D 
And we fall, after being warned and told
       G C Em D 
After all, the days and nights of hot and cold
         G C Em D G 
Knowing calls for closing eyes and healing words
      C D G C Em D G C Em D 
I'll love you forever
 
 
BRIDGE:
 G D G 
Through the door and down the aisle
 Em D G 
Through the mind's eye, the years and miles
             Em D G 
And tell me dear, do you still smile?
        C D G C Em D  
'Cause this is how you've spent your life tonight
 
 
INTERLUDE:
         G C Em D 
And we fall
         G C Em D 
Oh, we fall
               G C Em D 
Over and over we fall
 
 
CHORUS:
        G C Em D 
And we fall, after being warned and told
       G C Em D 
After all, the days and nights of hot and cold
         G C Em D G 
Knowing calls for closing eyes and healing words
      C D G C Em D    
I'll love you forever
 
 
OUTRO:   (## fade to end ##)
 G C Em D 
     The days and nights of hot and cold
         G C Em D       
Knowing calls for closing eyes and healing words
 C D    
I'll love you

The Courage Or The Fall Acoustic chords – Civil Twilight

 I'm a beginner so this was all I could do and any corrections are welcome!

No capo needed. Simplest way for me strumming wise was to hook my thumb over 6th string
for open F# and open F. 
A(O) is just A(open string). Song in 3/4 time .



Intro |:  A (open string)  Am  |  F# (open)  Am  |  F (open)  Am  :|

Verse 1:

 A (open) Am F# (open)  Am F (open)  Am 
Man wasn't made to live alone
 A (open) Am F# (open) Am F (open)  Am 
That's why I have my enemies
 A (open) Am F# (open) Am    
The moment I close my 
 F# (open) Am C (open) Am A (open) Am 
eyes they're all I can see.

         
Verse 2:

 A (O) Am F# (open) Am F (open) Am 
Every man needs his savior
 A (O) Am F# (open) Am F (open) Am 
Every savior needs his task
 A (O) Am F# (open) Am    
But which one am I,
                F (open) Am 
the man or the one
 C (open) Am A (open) Am 
behind the mask?
 C (open) Am A (open) Am C (open) Am A (open) Am 
What comes first? The courage or the fall?

Verse 3:

 A (open) Am F# (open)  Am F (open)  Am 
Is that a saviour outside my window?
 A (open) Am F# (open)  Am F (open)  Am ||
Or is that a reflection of me?

Fall Into Place Tabs by Apartment V2

 ------------------------------------------------------------------------------
                                        Fall Into Place - The Apartment
------------------------------------------------------------------------------
: Dani N.

Tuning: Standard

Yo everyone, so this is my first tab and I hope you find it useful. I wrote it by ear so
it isnt perfect; actually there are quite a few mistakes that I just couldnt get right.
Pay special attention to the solo, thats where I may have messed up the most. Im open 
for every criticism so just shoot, no worries. Have fun!

Intro (This intro is the same as the one posted by David H., version 1 tab)

e|--10---10-9---9-5---5-7---7--10------10-12------12-10------10-12------12---|
B|----7-7----7-7---7-7---7-7-----12--12-----12--12-----12--12-----12--12-----|
G|-----7------7-----7-----7--------12---------12---------12---------12-------|
D|---------------------------------------------------------------------------|
A|---------------------------------------------------------------------------|
E|---------------------------------------------------------------------------|

The intro is played 4 times at the beginning of the song.

Next part:

e|---------------------------------------------------------------------------|
B|----7----------------------------------7/10--8--7--5h8--5--8\10--8--7------|
G|--7---7--9--7/2--2--2\7--6--7--4h7--4--------------------------------------|
D|---------------------------------------------------------------------------|
A|---------------------------------------------------------------------------|
E|---------------------------------------------------------------------------|

After playing this part TWICE, play the INTRO again TWICE. And you keep doing this
alternated sequence (2x Next part, then 2x Intro) TWICE (too…).

After playing the sequence above twice, youll have to repeat the intro twice, but the
second time it has got a slight variation at the end.

Intro (with a minimal variation at the end, its played once after repeating the intro)

e|--10---10-9---9-5---5-7---7--10------10-12------12-9-------9-12-------12---|
B|----7-7----7-7---7-7---7-7-----12--12-----12--12-----12--12-----12--12-----|
G|-----7------7-----7-----7--------12---------12---------12---------12-------|
D|---------------------------------------------------------------------------|
A|---------------------------------------------------------------------------|
E|---------------------------------------------------------------------------|

Solo (I couldnt get this part well, so suggestions are welcomed)

e|-7-10--5-9--3-7-----2h3----------9---7-10--5-9--3-7--------------14----12--|
B|----------------5-0------7-10--7--------------------5-0--7-5--10----10-----|
G|---------------------------------------------------------------------------|
D|---------------------------------------------------------------------------|
A|---------------------------------------------------------------------------|
E|---------------------------------------------------------------------------|

e|-7-10--5-9--3-7-----2h3----------9---7-10--5-9--3-7---10-10-10-10-10-10-10-|
B|----------------5-0------7-10--7-----------------------7--7--7--7--7--7--7-|
G|-------------------------------------------------------7--7--7--7--7--7--7-|
D|---------------------------------------------------------------------------|
A|---------------------------------------------------------------------------|
E|---------------------------------------------------------------------------|

e|-10-10-10------------------------------------------------------------------|
B|--7--7--7------------------------------------------------------------------|
G|--7--7--7------------------------------------------------------------------|
D|---------------------------------------------------------------------------|
A|---------------------------------------------------

Into Each Life Some Rain Must Fall chords – The Inkspots

 Into Each Life Some Rain Must Fall
The Inkspots (1944)

C7sus2:  x3533x
C7add#5: x35354

e|-----------10--9-8-----12--10-|-----------10------------------|
B|--------10----------10--------|--------11---------10-13-------|
G|-----10-----------------------|-----12------------------------|
D|-10---------------------------|-12------------12--------10-12-|
A|------------------------------|-------------------------------|
E|------------------------------|-------------------------------|

e|------------------------------|----------10-----------|
B|------------------------------|-------11----10-13-----|
G|-10-----------10h11----11-----|----10-----------------|
D|--------10h12-------10-----11-|-12----------------10--|
A|-----12-----------------------|-----------------------|
E|------------------------------|-----------------------|

 F6 F6 
Into each life some rain must fall
     F6 Gm C7  C7sus2
But too much is falling in mine.
 Gm Gm 
Into each heart some tears must fall,
     C7                C7add#5  F Gbdim Gm C7 
But some day the sun will    shine.

 A7 
Some folks can lose
     Am 
The blues in their hearts,
     G7 
But when I think of you,
                C7 
Another shower starts.

 F6 F6 D7 
Into each life some rain must fall,
     Gm F 
But too much is falling in mine.

 Bb Bb 
Into each life some rain must fall
     Bb Cm F7 
But too much, too much is falling in mine.
 Cm7 Cm7 
Into each heart some tears must fall,
     Cm7 C7 Bb Bdim Cm F7 
But some day the sun will shine.

 D7 
Some folks can lose
     Dm 
The blues in their hearts,
     C7 
But when I think of you,
                F7 
Another shower starts.
 Bb Bb G7 
Into each life some rain must fall,
     Cm Bb Bdim Cm F7 
But too much is falling in mine.


[Spoken]
 Bb Bb 
Into each and every life some rain has got to fall
 Bb Cm F7 
But too much of that stuff has fallen into mine
 Cm7 Cm7 
And into each heart some tears gotta fall
 Cm7 Bb Bdim Cm F7 
But I know that someday that sun is bound to shine


[Sung]
 D7 
Some folks can lose
     Dm 
The blues in their hearts,
     C7 
But when I think of you,
                F7 
Another shower starts.
 Bb Bb G7 
Into each life some rain must fall,
     Cm Bb Bb Eb7 Bb 
But too much is falling in mine.

Seconds To Fall intro Tabs by Fury In The Slaughterhouse

 Title: Seconds to fall
Artist: Fury in the Slaughterhouse
Author: Frederic Meyer

Not 100% sure if this is right... Please email me if you have a better version!

frederic.r.meyer

E|---------------------|---------------------|---------------------|---------------------|
B|---------------------|---------------------|---------------------|-0-------------------|
G|------0----0---------|-----------0---------|-----------0---------|-----------0---------|
D|-2--------------2----|-0----4---------4----|------2---------2----|------2---------2----|
A|---------------------|---------------------|-3-------------------|---------------------|
E|---------------------|---------------------|---------------------|---------------------|


E|-----------------|---------------------|---------------------|------------------------|
B|-----------0-----|---------------------|-----------3---------|------------------------|
G|-----------0-----|---------------------|------0---------0----|-0---2---0--------------|
D|-----------0-----|----------------0----|---------------------|--------------0----2----|
A|------2----------|------0----2---------|---------------------|------------------------|
E|-3---------------|-3-------------------|---------------------|------------------------|

Fall Asleep chords – Us V2

 Fall Asleep 
Us (Us the Duo) 
Us (2012) 

Here is an acoustic version of this song from their YouTube channel:



Tuning: EADGCe (you just tune up the b string a half step to c) 

*********************************
        C  - x32000 
        F  - x87000 
       Am  - 5x5500 
      C/B  - x2000x 
        G  - x109000
   F (bar) - 13320x
   C (bar) - 8101090x
 C/B (bar) - 7101090x
*********************************


Intro 
 F C  X2 


Verse 1 
 F C  
  I'm always worrying through-out the day 
       F C  
These troubles and these problem never go away 
            F Am  
And at the end of the day I just want to lay my head 
        F C C/B G  
On the pillow next to yours in-side our bed 


Chorus 
                F  
I just want to fall asleep 
                C 
I just want to fall asleep 
                F 
I just want to fall asleep 
             C C/B  
Inside your arms 
                F 
I just want to fall asleep 
                C 
I just want to fall asleep 
                F 
I just want to fall asleep 
             C C/B F  
Inside your arms 



Verse 2 
 F C 
  I'm always worrying when I'm awake 
 F C 
Life is kinda hard with all this give and take 
           F Am 
When it's too much to bare and I'm all-alone 
   F G 
I think about lying next to you when I get home 


Chorus (barred)
                F  
I just want to fall asleep 
                C 
I just want to fall asleep 
                F 
I just want to fall asleep 
             C C/B  
Inside your arms 
                F 
I just want to fall asleep 
                C 
I just want to fall asleep 
                F 
I just want to fall asleep 
                C C/B F G  
Inside your arms 


Bridge 1
 F 
    We're just lovers lovers 
 C  
    Under the covers covers 
 F C C/B  
    We got each other each other now 
 F 
    We're just lovers lovers 
 C  
    Under the covers covers 
 F C C/B  
    We got each other each other now 


Bridge 2 (barred)
    F C F C C /B 
Woah   yeah  woah  oh yeah 
    F C F C C /B   F 
Woah   yeah  woah  oh yeah 


Chorus 
                F 
I just want to fall asleep 
                C 
I just want to fall asleep 
                F 
I just want to fall asleep 
             C 
Inside your arms 
             C  
Inside your arms 
             C  
Inside your arms 
             C 
Inside your arms

Every Time I Fall In Love chords – Nashville Cast

 SONG:   EVERY TIME I FALL IN LOVE
ARTIST: CLARE BOWEN / NASHVILLE CAST
TAB BY: DON CZARSKI
EMAIL:  GUITARZAN@HOTMAIL.COM


             EVERY TIME I FALL IN LOVE
           CLARE BOWEN / NASHVILLE CAST

INTRO:  E F# B E E A E 


VERSE:
 E F# B E 
 I'm in heaven on solid ground
              F# B E 
It makes my world spin round and round
 Dbm Abm B E 
 I'm inside out, I'm upside down
        F# E B A E      
Every time I fall in love


VERSE:
 E F# B E 
I lose my keys, I lose my cool
           F# B E 
I never learn, it's like I'm back in school
 Dbm Abm B E 
I end up breaking all my rules
       F#m B E 
Every time I fall in love


CHORUS:
  A E F#m 
I've been here before
  A E B 
I'll be here again
    Am C Dbm B A 
I tell myself there's no one else
      B 
And then...


VERSE:
 E F# B E 
 I'm flying high with the birds and bees
               F# B E 
But then they get the best of me
 Dbm Abm B E 
How come it feels like it's meant to be
       F#m E B A E 
Every time I fall in love

              
CHORUS:
  A E F#m 
I've been here before
  A E B 
I'll be here again
    Am C Dbm B A 
I tell myself there's no one else
      B 
And then...


VERSE:
 E F# B E 
 I'm by the phone waiting for his call
                F# B E 
Best looking thing that you ever saw
 Dbm Abm B E 
  All dressed up for the wrecking ball
           Am E A E F# 
Every time I fall in love
               B E F# B E F# B E 
Every time I fall in love

Tears Will Fall chords – Ricky Dean Howard

 Ricky Dean Howard - Tears Will Fall
Capo 1

Verse 1
 Dm 
There's nothing to say
                              F 
Cause you've heard it all before
 Dm 
But you're on you way
                          F 
To happiness beyond that door
 Dm 
So keep your head held high
                       Bbsus2 
And never lose your heart

Prechorus
 Dm 
Keep that sparkle in your eyes
                  Gm Bb 
And never lose your smile

Chorus
 Dm 
Cause tears will fall
            Bb 
And they'll hit the ground
         F 
And will make no sound
                C 
As they wash away with you
 Dm Bb 
Smiles fade and they turn to dust
         F 
And your beating heart seems to
          C 
Beat no more for me

Verse 2
There's nothing to see
Cause you've seen it all before
But what will be will be
But you just can't take no more

Pre Chorus
Chorus

Interlude  Bb F Dm C Bb F C 
It beats no more for me
                 Bb F Dm C 
It beats no more
                        Bb F C 
It beats no more for me


Chorus


1x  Dm 
Cause tears will fall
         1x  Bb 
And they'll hit the ground
     1x  F 
And your beating heart seems to
      1x  C 
Beat no more for me

We Fall Apart Tabs by We As Human

 Artist: WE AS HUMAN
  WE AS HUMAN
Song:   We Fall Apart

: Rulerof52
Tabbed on: Jan 26 2014

You must message me for permission before copying ANY part of this tab!

There is no electric guitar until after the first chorus. 


INTERLUDE |1:17|   "The way we fall apart..."
============
D|-----------------------------------------------------------------| 
A|-13-12-10--------------------------------------------------------|
F|----------12~~---------------------------------------------------|
C|------------------12h14--12\11~~~--------------------------------|
G|-----------------------------------------------------------------|
C|-----------------------------------------------------------------| 


VERSE 2 |1:20|   "You're a liar but I'm a coward"
============
D|-----------------------------------------------------------------| X2
A|-----------------------------------------------------------------|
F|-----------------------------------------------------------------|
C|-4-4-4-4-4-4-4-4-4-4-4-4-4-4-4-4---------------------------------|
G|-2-2-2-2-2-2-2-2-2-2-2-2-2-2-2-2-5-5-5-5-5-5-5-5-5-5-5-5-5-5-5-5-|
C|---------------------------------5-5-5-5-5-5-5-5-5-5-5-5-5-5-5-5-|

D|-----------------------------------------------------------------| X2
A|-----------------------------------------------------------------|
F|-----------------------------------------------------------------|
C|-----------------------------------------------------------------|
G|-7-7-7-7-7-7-7-7-7-7-7-7-7-7-7-7-5-5-5-5-5-5-5-5-5-5-5-5-5-5-5-5-|
C|-7-7-7-7-7-7-7-7-7-7-7-7-7-7-7-7-5-5-5-5-5-5-5-5-5-5-5-5-5-5-5-5-|


CHORUS |1:52|   "But isn't it beautiful"
=============
D|-----------------------------------------------------------------| 
A|-----------------------------------------------------------------|
F|-----------------------------------------------------------------|
C|-0-----5-----2--5--0-----4--0-----5-----2--5--0--2--5------------|
G|-0-----5-----2--5--0-----4--0-----5-----2--5--0--2--5------------|
C|-0-----5-----2--5--0-----4--0-----5-----2--5--0--2--5------------|



BRIDGE |2:26|   "If the world is dark.."
============
D|-----------------------------------------------------------------| 
A|-----------------------------------------------------------------|
F|-----------------------------------------------------------------|
C|-9-------4-------5-------7---------------------------------------|
G|-9-------4-------5-------7---------------------------------------|
C|-9-------4-------5-------7---------------------------------------| 


    //GUITAR 2//
    FINAL CHORUS |3:06|   "But isn't it beautiful"  
    ===================
    D|-----------------------------------------------------------------| 
    A|-15-14-----------------------------------------------------------|
    F|-------14~------16-----------------------------------------------|
    C|-------------16----14/16-16b17b16-12-12h14~----12h14-------------|
    G|-----------------------------------------------------------------|
    C|-----------------------------------------------------------------| 

    D|-----------------------------------------------------------------| 
    A|-----------------------------------------------------------------|
    F|-------16-------16-------------16----14---12/14------------------|
    C|-14-17----14-17----14----14-17-----------------------------------|
    G|----------------------------------17-----------------------------|
    C|-----------------------------------------------------------------| 

    D|-------------------17~---14~-------------------------------------| 
    A|-17b19b17-15-----------------------------------------------------|
    F|-------------18-16-------------14~---9~----7~--------------------|
    C|-----------------------------------------------------------------|
    G|-----------------------------------------------------------------|
    

Waiting On The Night To Fall chords – Casting Crowns

 "Waiting On The Night To Fall"

This is the last track (#12) on Casting Crowns latest album (at the current date)
"Thrive." I've done my best to tab it out properly, that doesn't mean there may not be
mistakes. If you spot one please send me a PM or shoot me an email at "embear11".


"Waiting On The Night To Fall" is in standard tuning with a Capo on the 3rd fret. I
believe this is how they play it (I saw them live, however I can't remember if they played
this song or not. Their guitarist used a capo on all the songs they played though). You 
can remove the Capo, or move it up/down the neck to fit your vocal range.


Suggestion: This should sound much better if for the first verse and chorus you put most
of the emphasis on the high notes and only sparingly strike the low notes, then as the
song progresses gradually put more emphasis on the lower notes.


          Chord Guide

 G          3 2 0 0 3 3
 D          - - 0 2 3 2
 Em         0 2 2 0 0 0
 Em7        0 2 2 0 3 3
 C          0 3 2 0 1 0
 Am7        - 0 2 0 1 0
 A7         - 0 2 0 2 0




[Intro]
 G D Em C 


[Verse 1]
    G D 
There's an old man living in the back of your woods tonight
      Em C 
You forgot he was even there, but you've never slipped his mind
   G D 
He's living off of scraps of you you never knew you left behind
      Em7 C 
And as the sun goes down, he rises with a smile


[Chorus]
                             C 
He's waiting on the night to fall
                         G 
The old man's coming to call
  D Em7 
You don't see the writing on the wall
                             C 
He'll never step out in the light
                     G 
No, he's just biding time
               D Em 
And while you slumber, he's gonna come and take it all
                             C Em 
He's waiting on the night to fall
                             Am7 A7 
He's waiting on the night to fall


[Verse 2]
   G D 
He knows you have the answers, but Truth lies dusty on your shelf
          Em7 C 
And the sword that you could slay him with has become an ornament and nothing else
            G D 
You could put him back down in his hole in the ground, but he knows you never will
          Em7 C 
He's been around so long you got used to the smell


[Chorus]
                             C 
He's waiting on the night to fall
                         G 
The old man's coming to call
  D Em7 
You don't see the writing on the wall
                             C 
He'll never step out in the light
                     G 
No, he's just biding time
               D Em 
And while you slumber, he's gonna come and take it all
                             C Em 
He's waiting on the night to fall
                             Am7 A7 
He's waiting on the night to fall


[Bridge]
     C 
He knows he'll never have your soul
     G 
But he will gladly rob you blind
     D Em 
While you're feasting at his table, he'll tie your hands and numb your mind
     C 
He'll take you farther than you wanna go
     G 
He'll keep you longer than you wanna stay
      Em D 
And it will cost you more than you ever thought you'd pay


My Songs Know What You Did In The Dark Acoustic chords – Fall Out Boy

 Intro: Dm (add a thumb on the top strings)

 Dm 
Be careful making wishes in the dark, dark
 F 
Can't be sure when they've hit their mark
 Dm F 
And besides, in the mean meantime I'm just dreaming of tearing you apart

 Dm 
I'm in details with the devil
 F 
The world can't ever get me on my level
 Dm 
I just got to get you out the cage

I'm a young lover's rage 
 F                   
Gonna need a spark to ignite
 Dm 
My songs know what you did in the dark

Chorus:  

 Dm 
So light 'em up, up, up
 Fm 
Light 'em up, up, up
 F 
Light 'em up, up, up
 C 
I'm on fire

 Dm 
So light 'em up, up, up
 Fm 
Light 'em up, up, up
 F 
Light 'em up, up, up
 C 
I'm on fire

 Dm F C     
Whoa, oh, oh, oh, whoa, oh, oh in the dark, dark
 Dm F C     
Whoa, oh, oh, oh, whoa, oh, oh in the dark, dark

 Dm 
The writers keep writing what they write
 F 
Somewhere another pretty vein just dies
 Dm                                    
I've got the scars from tomorrow and I wish you could see
 F                                      
That you're the antidote to everything except for me
 Dm 
A constellation of tears on your lashes
 F                                   
Burn everything you love then burn the ashes
              
In the end everything collides
                                            
My childhood spat back out the monster that you see
 Dm        
My songs know what you did in the dark

Chorus: 

 Dm 
So light 'em up, up, up
 Fm 
Light 'em up, up, up
 F 
Light 'em up, up, up
 C 
I'm on fire

 Dm 
So light 'em up, up, up
 Fm 
Light 'em up, up, up
 F 
Light 'em up, up, up
 C 
I'm on fire

 Dm F C     
Whoa, oh, oh, oh, whoa, oh, oh in the dark, dark
 Dm F C     
Whoa, oh, oh, oh, whoa, oh, oh in the dark, dark

Bridge:

 Dm        
My songs know what you did in the dark
 Dm        
My songs know what you did in the dark

*drum roll*

Chorus: 

 Dm 
So light 'em up, up, up
 Fm 
Light 'em up, up, up
 F 
Light 'em up, up, up
 C 
I'm on fire

 Dm 
So light 'em up, up, up
 Fm 
Light 'em up, up, up
 F 
Light 'em up, up, up
 C 
I'm on fire

 Dm F C     
Whoa, oh, oh, oh, whoa, oh, oh in the dark, dark
 Dm F C     
Whoa, oh, oh, oh, whoa, oh, oh in the dark, dark

 Dm F C     
Whoa, oh, oh, oh, whoa, oh, oh

Fall For You Acoustic chords – Secondhand Serenade V4

 Tuning: Standard
capo: 4

    Em C G D 
e|-0---0---3---2-|
B|-0---1---0---3-|
G|-0---0---0---2-|
D|-2---2---0---0-|
A|-2---3---2---0-|
E|-0---0---3---0-|


*Note*
This is not how John plays the song, he plays it in a different tuning.
This is for people who'd like to be able to play along in standard tuning.



     Em C 
The best thing about tonight's that we're not fighting
             G D 
It couldn't be that we have been this way before
   Em C 
I know you don't think that I am trying
   G D 
I know you're wearing thin down to the core
     C D 
But hold your breath


           G Em 
Because tonight will be the night that I will fall for you
        C 
Over again
                        D 
Don't make me change my mind
         G 
I won't live to see another day
   Em 
I swear its true
           C D 
Because a girl like you is impossible to find
                       Em C G D 
You're impossible to find


         Em C 
 This is not what I intended
            G D 
  I always swore to you that I would never fall apart
              Em C 
 You always thought that I was stronger
              G D 
  I may have failed, But I have loved you from the start
         C D 
Oh, But hold your breath


           G Em 
Because tonight will be the night that I will fall for you
        C 
Over again
                        D 
Don't make me change my mind
         G 
I won't live to see another day
   Em 
I swear its true
           C D 
Because a girl like you is impossible to find
       
You're impossible


    Em C G 
So breathe in so deep
   D Em 
Breathe me in
     C G 
I'm yours to keep
     D Em 
And hold onto your words
        C G 
‘Cause talk is cheap
       D C 
And remember me tonight

When you're asleep


           G Em 
Because tonight will be the night that I will fall for you
        C 
Over again
                        D 
Don't make me change my mind
         G 
I won't live to see another day
   Em 
I swear its true
           C D 
Because a girl like you is impossible to find


           G Em 
Because tonight will be the night that I will fall for you
        C 
Over again
                        D 
Don't make me change my mind
         G 
I won't live to see another day
   Em 
I swear its true
           C D 
Because a girl like you is impossible to find
                      ( G )
You're impossible to find

We Fall Down chords – Praise And Worship V2

 Verse 1:

 D A D G D A 
We fall down, we lay our crown at the feet of Jesus
 D A D G D A 
The greatness of His mercy and love at the feet of Jesus


Chorus:

 D G D A 
We cry Holy, Holy, Holy
 D G D A 
We cry Holy, Holy, Holy
 D G D A G A D 
We cry Holy, Holy, Holy is the Lamb


Verse 2:

 D A D G D A 
No more fears, You've dried our tears at the feet of Jesus
 D A D G D A 
Grace abounds to all who've found the feet of Jesus


Chorus