Tag: falling

Falling Down piano chords by LiL PEEP

[Intro]
 C                    Am                   Em
Come let's watch the rain as it's falling down

(Now let's do this one for Peep)
 C                 Am                Em
Sunlight on your skin when I'm not around
 C                   Am                      Em
Shit don't feel the same when you're out of town
     C                    Am                  Em
So come let's watch the rain as it's falling down, yeah


[Chorus]
  C                    Am                  Em
Come let's watch the rain as it's falling down (falling down)
  C                Am                Em
Sunlight on your skin when I'm not around ( I'm not around)
 C                   Am                      Em
Shit don't feel the same when you're out of town (out of town)

(O-o-oh, o-oh, o-oh)
     C                   Am                   Em
So come let's watch the rain as it's falling down

(O-o-oh, o-oh, o-oh)


[Verse]
 C                   Am                  Em
Rain keeps falling, tears keep falling
 C                   Am                  Em
Rain keeps falling, tears keep falling
              C             A                     Em
Darling, your love is like walking a bed of nails
             C     Am             Em
And I just can't keep on fighting

O-o-oh, o-oh, o-oh


[Chorus]
  C                    Am                  Em
Come let's watch the rain as it's falling down (falling down)

O-o-oh, o-oh, o-oh
 C                 Am                Em
Sunlight on your skin when I'm not around (I'm not around)

O-o-oh, o-oh, o-oh
  C                  Am                      Em
Shit don't feel the same when you're out of town

O-o-oh, o-oh, o-oh
     C                    Am                  Em
So come let's watch the rain as it's falling down

O-o-oh, o-oh, o-oh


[Interlude]

His name will live, bro'
        C                                            Am
No, I gotta, I feel hella shitty because it's like, yo
                                            Em
Like, if I would have known he was so cool

And it's like, yo, if I would have watched interviews sooner, bro, we were so alike
C                                                       Am                               Em
It's unfortunate because it's like, yo, when people die, that's when you're there, you know?

'Cause your remorse kinda makes you check 'em out


[Bridge]
               C            Am                   Em
Darling, your love is like walking a bed of nails
            C     Am      Em
And I just can't keep on fighting


[Chorus]
  C                    Am                  Em
Come let's watch the rain as it's falling down (falling down)

O-o-oh, o-oh, o-oh
 C                 Am                Em
Sunlight on your skin when I'm not around (I'm not around)

O-o-oh, o-oh, o-oh
  C                  Am                      Em
Shit don't feel the same when you're out of town

O-o-oh, o-oh, o-oh
     C                    Am                  Em
So come let's watch the rain as it's falling down

O-o-oh, o-oh, o-oh

I Cant Help Falling In Love chords – Leatherface

 Chords are 
 A E F#maj D A E 
Wise man say only fools rush in
     D E F#maj D A E A 
But I can't help falling in love with you
 A E F#maj D A E 
Shall I stay would it be  a  sin
    D E F#maj D A E A 
If I can't help falling in love with you


Bridge:
 C#m F#m G#m C#m F#m G#m         
Like a river flows, surely to the sea
 C#m F#m G#m C#m                    B-E
Darling so it goes, some things are meant to be

long live SAMCRO.

Falling Into You chords – Matt Willis V2

 -----------------------------------------------------------------------------
                   Falling Into You - Matt Willis
-----------------------------------------------------------------------------
: Fabio BlenderBR
 - Give your rating and help others users to find the best versions of the songs -

() > Lyrics sang by Matt Willis in the background


Verse:
 C C/B 
  I don't want to fight
               Asus2 
Don't want to be afraid
       G F G C 
I'm falling straight into you
 C C/B 
  Are everything 
         Asus2 
That I need right now
    G F G C 
I have fallen for you

 C C/B 
  Turn out the lights
                  Asus2 
Can't take those eyes right know
    G F G C 
I have fallen for you

(Turn off the lights 'cause you're killing me
Can't take the eyes that you're giving me
We've hurt each other before
Can't take the pain anymore)

 C C/B 
  Turn out the lights
           Asus2 
I need to know to right now
     G F G Bb 
If you have fallen for me

(Turn out the lights 'cause I don't wanna hide
I gotta know you are by my side
Don't wanna lose you now
When we're so good together)


Pre Chorus:
 Bb 
'Cause this time it's for real

'Cause this time it's for real


Chorus:
 C G F 
Falling into you, I'm falling into pieces
 C G F 
Just got to tell you but I'm scared you won't believe it
      C G A F 
And one day I'll wake up to find that we broke up
 C G F 
I don't want that for you, I don't want that for me

I just want to stay here


Verse 2:
 C C/B 
I feel that it's time 
               Asus2 
to say those three words to you
  G F G C 
Words are all that I have

 C C/B 
Don't walk away
                Asus2 
don't want to feel no pain
 G F G Bb 
That's okay I got you

(Don't walk away girl I'm begging you
You gotta hear what I'm telling you
Don't want to feel your pain
'Cause I believe in you
And I hope you feel it too)


Chorus:
 C G F 
Falling into you, I'm falling into pieces
 C G F 
Just got to tell you but I'm scared you won't believe it
      C G A F 
And one day I'll wake up to find that we broke up
 C G F 
I don't want that for you, I don't want that for me

I just want to stay here


Bridge: 

C (Hold)
 A C G    2x


Chorus:
 C G F 
Falling into you, I'm falling into pieces
 C G F 
Just got to tell you but I'm scared you won't believe it
      C G A F 
And one day I'll wake up to find that we broke up
 C G F 
I don't want that for you, I don't want that for me
 G 
I just want to stay here

 C G F 
Falling into you, I'm falling into pieces
 C G F 
Just got to tell you but I'm scared you won't believe it
      C G A F 
And one day I'll wake up to find that we broke up
 C G F 
I don't want that for you, I don't want that for m

Falling Into History Fell Out chords – Avril Lavigne V2

 Avril Lavigne
Falling Into History
Let Go B-sides
2001 BMG Records
boxcar_avie

Tuning: EADGBe

Key: Eb

Chords used:
 Eb  -   x68886
 Fm  -   133111
 Eb/G  - 365xxx
 Cm  -   x35543
 Bb/D  - x587xx
 G#  -   466544
 Bb  -   x13331
 F#  -   244322
 G/B  -  x2x003
 G#/C  - x365xx
 C#  -   x46664


Intro: 
 Eb -- Fm - Eb/G - G#/C -- Bb/D - Eb - G# -- Bb -- Eb/G -- G# - Bb -


Verse 1:
 Eb 
  Don't matter 
 Fm Eb/G G#/C 
what people say
   Bb/D Eb 
I never did believe
     G# Bb Eb/G 
them  I know I know
      G# Bb 
they know everything
 Eb Fm 
  I'll be alright
 Eb/G G#/C 
by  myself and
 Bb/D 
no one's gonna
 Eb G# Bb 
tell me I'm defined
    Eb/G G# Bb 
confined by love


Refrain 1:
 F# Fm Eb 
now our days 
        Bb/D 
seems strange
         Cm G/B 
I guess my heart 
     Bb Bb (hold)
was bound to change


Chorus 1:
           G# Bb 
I fell out   out 
            G#/C 
of you and me
        Bb/D Eb 
you're fading from
     G# 
view  and you're
 Bb Eb/G G# 
falling into history
   Bb G# Bb 
I fell out   out 
            G#/C 
of you and me
        Bb/D Eb 
you're fading from
     G# 
view  and you're
 Bb Eb/G G# Bb (hold)
falling into history


Verse 2:
 Eb Fm 
  I never thought 
 Eb/G G#/C 
that I'd say
      Bb/D 
that I   don't 
        Eb 
really miss you
 G# Bb Eb/G 
  I lived I breathed
      G# 
your breath through
 Bb Eb Fm 
me   time has a way 
    Eb/G G#/C 
of passing by
   Bb/D 
until I don't
   Eb G# 
remember why 
    Bb 
or how to
 Eb/G G# Bb 
hurt for you


Refrain 2:
 F# Fm 
love's pain has 
 Eb Bb/D 
gone somewhere
     Cm G/B 
and I'm finally
 Bb Bb (hold)
be there


Chorus 2:
           G# Bb 
I fell out   out 
            G#/C 
of you and me
        Bb/D Eb 
you're fading from
     G# 
view  and you're
 Bb Eb/G G# 
falling into history
   Bb G# Bb 
I fell out   out 
            G#/C 
of you and me
        Bb/D Eb 
you're fading from
     G# 
view  and you're
 Bb Eb/G G# Bb Eb/G 
falling into history


Bridge:
 Fm 
  you're Falling into
 C# 
  you're falling into
 Bb/D 
    you're falling
      C# 
into history yeah
 Fm 
  you're Falling into
 C# 
  you're falling into
 

Falling chords – Jennifer Nettles

 "Falling"
No capo
Intro  D/G / D/G / A D                         
I stood out on the road 
       G D 
and I watched as you were leaving. 
        G D A 
The leaves were dancing oranges and reds
           D G D 
and they circled all around me like confetti on fire. 
             G D A        
They were nothing when compared to the burning in my head.
   Bm G 
I was lost, I was gone, 
         D A G      
I was falling for you.


         D 
That summer came and went. 
         G D 
You were working for my family, 
         G D A 
one more job and then your classes would begin.
             D G D                     
And you promised we'd be quiet, and we hid behind the garden. 
           G D A 
I walked out more than a woman than I walked in.

       Bm G 
And I was lost, I was gone, 
         D A 
I was falling. 
         Bm G 
I was lost, I was gone, 
         D A G D  
I was falling for you.

 A Bm 
I went down to the church, 
( A )  G 
I offered my confession. 
( A )  D 
I swore I'd never do it again, 
( A )  Bm 
I swore I learned my lesson. 

       Bm A 
Oh, but every year when the leaves appear 
        G A 
your memory comes sweet and clear. 
    D                        
I never will forget you 
          A Gm 
and I never did regret you.


         Bm G D A 
I was lost, I was gone, I was falling. 
         Bm G D A 
I was lost, I was gone, I was falling.


  D                         
I stood out on the road 
         G D 
and I watched as you were leaving. 
      G D A 
The leaves were dancing oranges and reds

Falling Slowly Tabs by Glen Hansard And Marketa Irglova V7

 -------------------------------------------------------------------------------
              Falling Slowly - Glen Hansard and Marketa Irglova
-------------------------------------------------------------------------------
: g-evidente
 g.evidente

Tuning: Standard

Well, I just made it in the key of G so that you can transpose it up to Bb (using capo 
on 3rd) if the original key is too high for you.

Intro x1 / Verse x2 :
     G                C                G                C
e|---------------------------------------------------------------------------|
B|-----------0----------------1---0------------0-----------------------------|
G|---0---2-------2----0---2------------0---2-------2----0---0---0---0--------|
D|-----0---0---0---0----2---2---2---2----0---0---0---0----2---2---2----------|
A|---------------------------------------------------------------------------|
E|---3----------------3----------------3----------------3--------------------|
    I don't know you But I want you   All the more for that
    Words fall through me And always fool me And I can't react

Bridge:
     Em   -   D/F#     C/G      D        Em   -   D/F#     C (strum)
e|---------------------------------------------------------------------------|
B|---------------------------------------------------------1-----------------|
G|-------0--------2--------0----2---2--------0--------2----0-----------------|
D|---2--------0--------2----------0---0--2--------0--------2-----------------|
A|-----2---2----0---0----3---3--0----------2---2----0---0--3-----------------|
E|---0--------2--------3-----------------0--------2--------0-----------------|
     And games that never amount
                    To more than they're meant
                                            Will play themselves out

Chorus: (strum)
G                 C                 Em
Take this sinking boat and point it home
                Cadd9--C
We've still got time
G                  C                Em
Raise your hopeful voice you have a choice
               Cadd9--C (slow strum)
You've made it now

Verse II
     G                C                G                C         x2
e|---------------------------------------------------------------------------|
B|-----------0----------------1---0------------0-----------------------------|
G|---0---2-------2----0---2------------0---2-------2----0---0---0---0--------|
D|-----0---0---0---0----2---2---2---2----0---0---0---0----2---2---2----------|
A|---------------------------------------------------------------------------|
E|---3----------------3----------------3----------------3--------------------|
     Falling slowly, eyes that know me  And I can't go back
     Moods that take me and erase me   And I'm painted black

Bridge:
     Em   -   D/F#     C/G      D        Em   -   D/F#     C (strum)
e|---------------------------------------------------------------------------|
B|---------------------------------------------------------1-----------------|
G|-------0--------2--------0----2---2--------0--------2----0-----------------|
D|---2--------0--------2----------0---0--2--------0--------2-----------------|
A|-----2---2----0---0----3---3--0----------2---2----0---0--3-----------------|
E|---0--------2--------3-----------------0--------2--------0-----------------|
    You have suffered enough
                     And warred with yourself
                                        It's time that you won  --- add Cadd9

Chorus: (strum)
G                 C                 Em
Take this sinking boat and point it home
                Cadd9--C
We've still got time
G                  C                Em
Raise your hopeful voice you have a choice
               Cadd9--C
You've made it now

Interlude:
Em   D/F#   C   D
Em   D/F#   C

G                 C                 Em
Take this sinking boat and point it home
                Cadd9--C
We've still got time

Please Help Me Im Falling chords – Everly Brothers

 #-------------------------------PLEASE NOTE-------------------------------------#
# This file is the author's own work and represents their interpretation of the #
# song. You may only use this file for private study, scholarship, or research. #
#-------------------------------------------------------------------------------#
Please Help Me I m Falling chords
The Everly Brothers  (1960 Robertson / Blair first recorded by Hank Locklin)

 E A E E A E 
Please help me I'm falling
    A E 
In love with you
                       A E 
Close the door to temptation
 F# B7 
Don't let me walk through

 E A E 
Turn away from me darling
                 A 
I'm begging you to
                    E 
Please help me I'm falling
 B7 E 
In love with you

 E A E 
I belong to another
       A E 
Whose arms have grown cold
                   A E 
But I promised forever
 F# B7 
To have and to hold

 E A E 
I can never be free dear
               A 
But when I'm with you
                 E 
I know that I'm losing
 B7 E 
The strength to be true

 E A E 
Please help me I'm falling
     A E 
And that would be sin
                       A E 
Close the door to temptation
 F# B7 
Don't let me walk in

 E A E 
For I mustn't want you
               A 
But darling I do
                    E 
Please help me I'm falling
 B7 E 
In love with you


Set8

Falling Into You chords – Kasey Chambers

 CAPO 2

VERSE 1:

                         Bm C D 
 I've been crushed like paper  I've been washed like rain
 G Bm C D 
 I've been scared of sleeping in case I wake up the same
 G Bm C D 
 I've been broken and battered I've been lost in my home
 G Bm C D 
 I've been crying a river  I've been cold as a stone


 C D G D C 
 But falling into you it carries me far enough away 
 C D G D C C D C 
 And everything you do it lightens up my darker side of day
                       D G 
 I just hope that the wind doesn't blow you away

VERSE 2:

 G Bm C D 
 I've been left unattended  I've been thrown like a ball
 G Bm C D 
 I've been rolled with the punches and didn't feel a thing at all
 G Bm C D 
 I've been crossed by the wires  I've been blinded by the light 
 G Bm C D 
I've been burnt by the fire  I've been kept out of sight

CHORUS:

 C D G D C 
 But falling into you it carries me far enough away 
 C D G D C 
 And everything you do it lightens up my darker side of day
 C D G G D C 
 I just hope that the wind doesn't blow you away
 C D G 
 I just hope that the wind doesn't blow you away 

I Feel Like Im Falling chords – Praise And Worship

 Capo on fret no.1
 Intro 

 F#m7 F#m7/E D2    (repeat)

 F#m7 F#m7/E D2       
Standing tall in this wide space

 F#m7 F#m7/E D2         
Getting lost in Your embrace

 Bm7 A/C# Dmaj7 D6 
I see a fire burning brighter

 Bm7 A/C# Esus4 
It’s calling me to catch the flame

 A E/G# F#m7   
I feel like I’m falling

                  D Bm7 
Over and over in love with You

                     A/C# D 
It’s not just a fee  -  ling

          Esus4 
But I know that He is real

 A E/G# F#m7   
I feel like I’m fall  -  ing

                       D Bm7 
Into the arms of the mighty God

                       A/C# D 
It’s not just a feeling

               Esus4   
But I know that He is real

(verse: repeat intro)

 F#m7 F#m7/E D2         
You’re drawing me closer to Your side

 F#m7 F#m7/E D2       
It’s the safest place I know where to hide

 Bm7 A/C# Dmaj7 D6 
With one glance You captured my heart

 Bm7 A/C# Esus4 
You speak Your words and set me apart


 Bridge 

 A E/G# 
I feel like I’m fall   -   ing

 D/F# A/E 
I feel like I’m fall  -  ing

 Bm/D A/C# 
I feel like I’m fall   -   ing

 Bm7 Esus4 
Falling into the arms of love

(end:   A )

Falling chords – Box Of Light

 o i dint actually write this chord chart. it was actually written by Helen 
Anderson, the lead singer from box of light (so you know its correct!)its actually 
really somple and fun to play. enjoy! :)



Intro

 A D A A D A 

Verse

    A D A 

We Watched the sea, for an hour or two,

     D E A D 

But I don’t know when I’m with you.

     A D A 

You touch my hand, and it gets me though,

     D E 

But I wonder if I do the same to you.

Chorus

        A D E D A D E 

`Cause I, I, I can’t help but fall for you

     A D E D A D E A 

And I, I, I can’t help but fall for you, so fall for me too,

 D A D A D 

Fall for me too, fall for me too.

Verse

 A D A 

It’s not, always clear,

          D E A D 

Like the mist in the morning, how you feel.

      A D A 

Your signs are, hard to read,

       D E A 

But I know mine are clear when you’re kissing me.

Chorus

        A D E D A D E 

`Cause I, I, I can’t help but fall for you

     A D E D A D E A 

And I, I, I can’t help but fall for you, so fall for me too,

 D A D A D 

Fall for me too, fall for me too.

Middle Eight

(Ooooohs)

 A D E A D E A D E A D E 



Chorus

        A D E D A D E 

`Cause I, I, I can’t help but fall for you

     A D E D A D E A 

And I, I, I can’t help but fall for you, so fall for me too,

 D A D A 

Fall for me too, fall for me too,

 D A D D D A 

Fall for me too……………………

Game Over chords – Falling In Reverse

 Artist: Falling In Reverse
Song Title: Game Over
 Fashionably Late
Tuning: Standard

You can check out my cover at: http://www.youtube.com/watch?v=D7Xo1jWAvh4
for the strumming pattern if you decide to use it or whatevs. THANK YOU :D

Capo 5

Intro: Muted Strum
 Gm 
My life is like a video game
 Am 
Trying hard to beat the stage
 G Gm 
All while I am still collecting coins
 Gm 
Trying hard to save the girl
 Am 
Obstacles, I'm jumping hurdles
 G Gm 
I'm growing up to be a big boy
 Gm  
I battle with the evil ways
 Am 
I travel far, and try and save
 G Gm 
Sorry but your princess isn't here
 Gm 
I take a rest, I push the pause
 Am 
Level up and move along
 G Gm 
In hopes that the next stage I will clear
 G Am (Palm Mute)
I'm just trying to keep from dying
 Gm Am 
It's just a game that we play and for Heaven's sakes
 Em D 
Looking for a better way to play it
 Gm Am 
Life is for keeping score and forever more
 Em D 
Stop complaining and start changing it
 Gm -- Am -- Em -- D Gm 
Today I went to therapy
 Am G Gm 
Told him my embarrassing issues that I'm having with my life
 Gm 
He told me that I need to change
 Am 
Life is not a video game
 G Gm 
So stop playing and open up your eyes
 G Am (Pam Mute)
I'm just trying to keep from dying
 Gm Am 
It's just a game that we play and for Heaven's sakes
 Em D 
Looking for a better way to play it
 Gm Am 
Life is for keeping score and forever more
 Em D 
Stop complaining and start changing it
 Gm 
Don't talk about it
 Am 
Just be about it
 Em D 
Don't ever doubt it even when your brain is clouding
 Gm 
I may be crazy
 Am 
But life's amazing
 Em D 
And through it all, even with your problems facing
 G Am (Palm Mute)     Gm 
So just know that's it's okay
 Gm -- Am -- Em -- D Gm 
My life is like a video game
 Am 
Trying hard to beat the stage
 G Gm (Mute)
All while I am still collecting coins
(No Chords)
Up, Up, Down, Down, Left, Right, Left, Right, B, A, Select, Start
 Gm Am 
It's just a game that we play and for Heaven's sakes
 Em D 
Looking for  better way to play it
 Gm Am 
Life is for keeping score and forever more
 Em D 
Stop complaining and start changing...
 Gm Am 
It's just a game that we play and for Heaven's sakes
 Em D 
Looking for a better way to play it
 Gm Am 
Life is for keeping score and forever more
 Em D 
Stop complaining and start changing it.
End:  Gm -- Am -- Em -- D  (Fade Out)

Heavens Falling chords – Cheap Trick

 Intro: (  A - E/A - A A - E/A - B/A  ) x4   E   (see tab notes below)

 E 
I will believe, what I want to believe, nobody needs, to do my thinkin' for me
              A - E/A - A A    -  E/A    -  B A - E/A  -    A A  -   E/A   -    B 
I know the score,  I'm always out of line, it's as if I was born in the wrong place in time
      A    -  E/A   -  A A     -  E/A -  B  
And nobody understands just what's in my mind
             D E 
But when I face the light, somehow it all seems right

              A B     / B -/ A -/ G# - F#m B 
You know it feels like heaven's falling,        down on me
            A B     / B -/ A -/ G# - F#m B 
And I can hear the angels calling,        calling me

   E 
Speak your mind, you know you've got the right, you're not afraid, you're goin' with me tonight
             A - E/A - A A    -  E/A  -  B A   -  E/A  -    A A      -     E/A   -    B 
Everybody stops, they whisper and stare, cause we're not afraid to do,the things they wouldn't dare
      A      -    E/A   -  A A    -  E/A  -  B  
But they would never know, the little secrets we share
                 D E 
And when you squeeze my hand, I know you understand

                  A B     / B -/ A -/ G# - F#m B 
And you know it feels like heaven's falling,        down on me
            A B     / B -/ A -/ G# - F#m B 
And I can hear the angels calling,        calling me

 C#m D 
This kinda world ain't for lovers and fools, sceamers and dreamers, who don't follow their rules
 C#m D A 
We gotta run, our legs are still young, we gotta run until our heaven comes

Solo: (  A - E/A - A A - E/A - B/A  ) x6

              D E A 
And when we face the light, somehow it all seems right

                    A B     / B -/ A -/ G# - F#m B 
Don't you know it feels like heaven's falling,        down on me
            A B      / B -/ A -/ G# - F#m B 
And I can hear the angels calling,         calling me
                    A B     / B -/ A -/ G# - F#m B 
Don't You know it feels like heaven's falling,        down on me
            A B      / B -/ A -/ G# - F#m B 
And I can hear the angels calling,         calling me
                    A B     / B -/ A -/ G# - F#m B 
Heaven's falling, down on me, angels calling,        calling me 
               A B     / B -

Falling Into You Tabs by Mae V2

 FALLING INTO YOU
by MAE

Tuning : Tune Down 1/2 Step (Eb Ab Db Gb Bb Eb)

(0:17) PRE-VERSE

  (/ = slide)
|------------------------------------------|
|--12-----12/10-----10/8-----8/7-----7/3~--|
|-----0---------0--------0-------0---------|
|------------------------------------------|
|--10---10----9---9----7---7---5---5---3~--|
|------------------------------------------|
(0:27)                                     'RIFF'
|-------------------------------------------------------------|
|--12-----12/10-----10/8-----8/7-----7/3------3---1--2/3--/6--|
|-----0---------0--------0-------0--------0-----0--0----------|
|-------------------------------------------------------------|
|--10---10----9---9----7---7---5---5---3---3--3---3--3----/5--|
|-------------------------------------------------------------|


(0:41) VERSE

   (h = hammer ; p = pull-off)
|--------------------------0h2-----2h3-----3p2----------------------|
|------------------0h3---3-------3-------3-------3-------3-3p0------| x2
|--0h2---2-2h4---4---------------------------------------------2p0--|
|----------------------------------------------------------0--------|
|----------------------------------3---3---3---3---3---3------------|
|--3---3---3---3---3---3---3---3------------------------------------|


(1:00) POST-VERSE

|--------------------------5-----5p3-----2h3p2-----------------|
|----------------------3-------3---------------3----3-3p0------|
|------0---------0-2/4---4------0----------------2--------2p0--|
|--0h2---2/7-------------------------------------0-------------|
|--------------------------------3---3---3---------------------|
|--0---0---0---0---0-------------------------------------------|


(1:09) repeat VERSE twice
(1:26) repeat POST-VERSE then VERSE again once


(1:45)
|---------------------------------------------0--------------|
|--------0-----2-------0----0---0h3-----3--------------------|
|------0-----0---0---0--------0-------0---0-----2----2--0----|
|----2------------------------------------------0----0-------|
|-------------------------------3---3-------3----------------|
|--0-------2-------3-----------------------------------------|

 ------------------------------------------------------------|
 --------0-----2-------0----0---0h3-----3------------3-------|
 ------0-----0---0---0--------0-------0----0-----0-----0-----|
 ----2-----------------------------------------4---4-----4-0-|
 -------------------------------3---3--------5---------------|
 --0-------2-------3-----------------------------------------|

|---------------------------------------------0--------------|
|--------0-----2-------0----0---0h3-----3--------------------|
|------0-----0---0---0--------0-------0---0-----2----2--0----|
|----2------------------------------------------0----0-------|
|-------------------------------3---3-------3----------------|
|--0-------2-------3-----------------------------------------|


(2:12)
|---------------------------------------------------------------------|
|-----1-------3-------5----5----5-----5-----7-------8-----8-----8-----|
|-------0-------0---------------0-------------0-----------0-----------|
|-0h2-----2/4-----4/5--------------5----5/7-----7/9----9--------------|
|------------------------3----3----3-------------------7-----7----7---|
|---------------------------------------------------------------------|

 ----------------------------------|
 ------10-------12------12-----12--|
 ----------------------------------|
 -9/10----10/12--------------------|
 -------------------10------10-----|
 ----------------------------------|


(2:29)
 --------------------------------------------------------------|
 -0-1p0-1p0------0~-------0------3-------1--------0-------0~---|
 -0-0---0--------0~-------0--------0-------0------0-------0~---|
 -0-2---2--------0~-------0--2/4-----4/2----------0-------0~---|
 -x-x---x--------x~-------x-----------------------x-----

Falling chords – Jonas Brothers

 C G 
 There's nothing more that I can do
 C G  
 There's nothing more that I can say
 C G Am 
 Another drink another plan
         F G 
I should be ok
 C G 
 It only hurts when I'm asleep
 C G 
 I can't control the things you see
 C G Am  
 I know it's only just a dream
        F G  
But its real to me

 C G 
 So push me like you always do
 Am F 
 I know I'm gonna fall for you
 C G                   
 I think it's time to face the truth
          Am F 
 now or not, I don't mind
 C G 
 I don't have a choice at all
 Am F  
 You can make or break the fall
 C G 
 The single time we hit the wall
          Am F  (stop)
I don't mind, I don't mind
        C 
Falling

 C G 
 Left the shadows from the wall
 C G 
 Try to keep them locked away
 C G Am 
 I Know the sun will rise again
           F G F G 
And I'll be ok, and I'll be ok


 C G 
 So push me like you always do
 Am F 
 I know I'm gonna fall for you
 C G                   
 I think it's time to face the truth 
          Am F 
 Now or not, I don't mind
 C G 
 I don't have a choice at all
 Am F  
 You can make or break the fall
 C G 
 The single time we hit the wall
          Am F  
I don't mind, I don't mind
        C 
Falling

Cant Help Falling In Love chords – Elvis Presley

 
Cant Help Falling in Love
Elvis Presley


Capo on 2
FFF = strum down 3 times
Classic song, enjoy:)


   C Em Am F C G                    
Wise   men   say    only    fools     rush    in. 



         F G Am          FFF          C G C 
But     I      cant   help     falling in    love    with   you.



   C Em Am F C G 
Shall    I       stay      would   it    be    a   sin. 



      
         F G Am              FFF        C G C 
If      I        cant      help       falling in    love    with    you.



 Em B7 Em B7  
   Like   a   river   flows          surely   to    the   sea.


  Em B7 
     Darling     so    it    goes.


           A7 Dm G 
Some    things   are   meant   to   b    e.



  C Em Am F C G 
Take   my   hand.   Take   my    whole   life   too.



       F G Am        FFF          C G C 
For   I   cant    help     falling in   love   with   you.



 Em B7 Em B7  
   Like   a   river   flows           surely   to    the   sea.



  Em B7 
     Darling     so    it    goes.



           A7 Dm G 
Some    things   are   meant   to   b    e.



  C Em Am F C G 
Take   my   hand.   Take   my    whole   life   too.



       F G Am        FFF         C G C 
For   I   cant   help   falling in   love   with   you.

For   I   cant   help   falling in   love   with   you.

Falling Away chords – Evermore

 E7m D G6 
---------------------2---2----    -------0------------------|
-----------3---------3---3----    -------0-----0------------|
-----------2---------2---2----    -------0-----0------------|
-----------0----0--0---0----0-    -------0-----0------------|
-2--2-------------------------     -------------0--0---2----|
------------------------------      -3--3----3--------------|

FIRST TAB So please rate and tell why you think about it, 
listen to the song for an easier learning.. ENJOY

Oh Well Thats What You Get Falling In Love With A Cowboy Tabs by Lanie Lane

 Oh Well That’s What You Get Falling In Love With A Cowboy
Lanie Lane

Electric tremolo guitar (R for Rake)

Intro                                          Verse 
   R
e|-2-------------------0-----7----------------|--------|-7----------------|
B|-0-------------------0-----8----------------|--------|-8----------------|
G|-2-------------------0-----9----------------|-4 bars-|-9----------------|
D|-1---2/4-4-4-5-4-2-0-2-----9----------------|-tacet--|-9----0-2-0-------|
A|-2-------------------2-----7-----------2----|--------|-7----------2-0---|
E|---------------------0-----0----0-/3-5---0--|--------|-0--------------3-|


Chorus
     R    R
e|---3-|--0-----------------------------------3---5---7--7----7--|--------|
B|---3-|--0----------------------------------------------7----8--|--------|
G|---0-|--0--------------------------------/4---/5--/7---8----9--|--------|
D|---0-|--2-------------2-2--0-2-0-----------------------7----9--|--0-1-2-|
A|---2-|--2---------2--------------2-0-------------------9----7--|-2------|
E|---3-|--0--0-/3-5---0---------------3------------------7-------|--------|

Oh well… cowboy


  Verse 2                             Verse 3
e|-0----7---------------|------------|--0-----0--|
B|-0----8---------------|-Chorus-----|--0-----0--|
G|-0----9---------------|-as per-----|--0-----0--|
D|-2----9---0-2-0-------|-1st chorus-|--2-----2--|
A|-2----7---------2-0---|------------|--2-----2--|
E|-0------------------3-|------------|--0-----0--|


Final Chorus
     R      
e|---3-----7---7---5---3--0-----------------------------------3—-5---7--7-|
B|---3--------------------0---------------------------------------------7-|
G|---0---/7--/7--\5--\4---0---------------------------------/4-/5--/7---8-|
D|---0--------------------2------------0-h2---0-2-0---------------------7-|
A|---2--------------------2--------0-2--------------2-0-----------------9-|
E|---3--------------------0----0-3----------------------3---------------7-|


e|-0---------|---------|--------|------|
B|-0---------|---------|--------|------|
G|-0---------|---------|--------|------|
D|-2---0-1-2-|---------|--0-1-2-|--2---|
A|-2--2------|-2-0-----|-2------|--2---|
E|-0---------|-----3-0-|--------|--0---|

https://itunes.apple.com/au/album/oh-well-thats-what-you-get/id473587377

Falling In Love Acoustic Tabs by Mcfly

 That's how Danny Jones plays it, I don't know what exactly are these chords, but that's it.

Tuning: DAEF#AE

 Riff intro
E |-------------|
a |-2-3-4-3-0---|
F#|-3-3-3-3-3---|
E |-------------|
A |-------------|
D |-------------|

cHORDS:
       I   II  III IV  V
   E |-0---0---0---0---0---|
   A |-2---0---5---0---0---|
   F#|-3---0---0---2---2---|
   E |-0---0---5---0---0---|
   A |-----4---5-------0---|
   D |-----4---0-------2---|

Song:

Intro
Verse (I, II, III, I) 2x
Chorus (IV V II III V)
Intro
Verse (I, II, III, I) 2x
Chorus (IV V II III V)
Intro
Instrumental (IV V II I IV V II III V)
Bridge (I, II, III, I)

Falling For You chords – The 1975

 I haven't found a tab so I thought I'd post one. 
It's a simple 3 chords song but the timing is key. 
I tried to put the chords in the right places to make it easier.

Capo on the first fret, if you don't have one then the chords are:

 F  -  F# G  -  G# Am  -  Bbm 

INTRO
 F G Am F    

VERSE
                   F 
What time you coming out?
      G 
We started losing light
     Am 
I’ll never make it right
               F 
If you don’t want me round
            G 
I'm so excited for the night
 Am 
All we needs my bike
               F 
And your enormous house
       G 
You said someday we might
             Am 
When I'm closer to your height
                  F 
Till then we'll knock around and see
            G 
If you're all I need
 
CHORUS

 F 
   Don’t you see me now
 G Am 
   I think I’m falling, I’m falling for you
 F 
   Don’t you need me
 G Am 
   I think I’m falling, I’m falling for you
 F 
   On this night and in this light
 G Am 
   I think I’m falling, I’m falling for you
 F 
   Maybe you’ll change your mind
 G 
   I think I’m falling


VERSE
                         F 
I’m caught on your coat again
       G 
You said oh no, it’s fine
   Am 
I read between the lines
                       F 
And touched your leg again
              G 
I’ll take it one day at a time
 Am 
Soon you will be mine
            F 
Oh but I want you now
             G 
When the smoke is in your eyes
 Am 
You look so alive
                 F 
Do you fancy sitting down with me


BRIDGE
                       G Am F 
Maybe ‘cos you’re all I need according to your heart
 G Am 
My place is not deliberate
 F 
Feeling of your arms
 G 
I don’t wanna be your friend, I wanna kiss your neck
 

CHORUS - Same as before

Don’t you see me
I think I’m falling, I’m falling for you
Don’t you need me
I think I’m falling, I’m falling for you
On this night and in this light
I think I’m falling, I’m falling for you
Maybe you’ll change your mind