Tag: fighters

Future Fighters – On My Own Tabs

 -------------------------------------------------------------------------------
                       Future Fighters - Own My Own
-------------------------------------------------------------------------------
:No Fear Matson
BobtheGuitarist97

Tuning: Half-Step Down

Intro:
e|---------------------------------------------------------------------------|
B|---------------------------------------------------------------------------|
G|4-4-4-4-4-4-4-4-4-4-4-4-4-4-4-4--------------------------------------------|
D|--------------------------------5-5-5-5-5-5-5-5-4-4-4-4-4-4-4-4------------|
A|2-2-2-2-2-2-2-2-2-2-2-2-2-2-2-2--------------------------------------------|
E|--------------------------------3-3-3-3-3-3-3-3-2-2-2-2-2-2-2-2------------|

Intro: Continued
e|---------------------------------------------------------------------------|
B|---------------------------------------------------------------------------|
G|4-4-4-4-4-4-4-4-4-4-4-4-4-4-4-4--------------------------------------------|
D|--------------------------------5-5-5-5-5-5-5-5-4--------------------------|
A|2-2-2-2-2-2-2-2-2-2-2-2-2-2-2-2--------------------------------------------|
E|--------------------------------3-3-3-3-3-3-3-3-2--------------------------|

Main Guitar Riff: (Play twice)
e|---------------------------------------------------------------------------|
B|---------------------------------------------------------------------------|
G|4-4-4-4-4-4-4-4-4-4-4-4-4-4-4-4--------------------------------------------|
D|4-4-4-4-4-4-4-4-4-4-4-4-4-4-4-4-5-5-5-5-5-5-5-5-4-4-4-4-4-4-4-4-4----------|
A|2-2-2-2-2-2-2-2-2-2-2-2-2-2-2-2-5-5-5-5-5-5-5-5-4-4-4-4-4-4-4-4-4----------|
E|--------------------------------3-3-3-3-3-3-3-3-2-2-2-2-2-2-2-2-2----------|

Transition to Verse:
e|---------------------------------------------------------------------------|
B|---------------------------------------------------------------------------|
G|4-4-----4-4-----4-4-----4-4-----4-4-4-4-4-4-4-4-4--------------------------|
D|4-4-----4-4-----4-4-----4-4-----4-4-4-4-4-4-4-4-4--------------------------|
A|2-2-----2-2-----2-2-----2-2-----2-2-2-2-2-2-2-2-2--------------------------|
E|---------------------------------------------------------------------------|

Verse: Play Four Times (p stands for palm muted)
  p p   p p p   p p p   p p p       p p   p p p     p p   p p p
e|---------------------------------------------------------------------------|
B|---------------------------------------------------------------------------|
G|---------------------------------------------------------------------------|
D|----4-------4-------4-------4-2-0------------------------------------------|
A|2-2---2-2-2---2-2-2---2-2-2-----------2-------2h4-----2-------5-4-5--------|
E|----------------------------------3-3---3-3-3-----2-2---2-2-2--------------|

Pre-Chorus: Play Twice (p stands for palm muted)
                                    p p    pppp   p p p    pppp   p
e|---------------------------------------------------------------------------|
B|---------------------------------------------------------------------------|
G|7-7-7-7-7-7-7-7-7-6-6-6-6--------------------------------------------------|
D|7-7-7-7-7-7-7-7-7-6-6-6-6-7-7-7-7-----9-------9-------9-------9------------|
A|5-5-5-5-5-5-5-5-5-4-4-4-4-7-7-7-7-9-9-9--9999-9-9-9-9-9--9999-9-9----------|
E|--------------------------5-5-5-5-7-7-7--7777-7-7-7-7-7--7777-7-7----------|

Pre-Chrorus: Continued
e|----------------------------------------------------x-x-x-x-x-x-x-x--------|
B|----------------------------------------------------x-x-x-x-x-x-x-x--------|
G|7-7-7-7-7-7-7-7-7-9-9-9-9-9-9-9-9-------------------x-x-x-x-x-x-x-x--------|
D|7-7-7-7-7-7-7-7-7-9-9-9-9-9-9-9-9-5-5-5-5-5-5-5-5-4-x-x-x-x-x-x-x-x--------|
A|5-5-5-5-5-5-5-5-5-7-7-7-7-7-7-7-7-5-5-5-5-5-5-5-5-4-x-x-x-x-x-x-x-x--------|
E|----------------------------------3-3-3-3-3-3-3-3-2-x-x-x-x-x-x-x-x--------|

Chrous: Part 1
e|------------------------

Mia Tabs – Foo Fighters

 M.I.A. by the Foo Fighters..  @ragingzen
Here's a lesson I made teaching this song for visual learners:

DADGAe tuning.. pay attention to this.. the B string’s tuned down to A in this song.
G5addC# - 5556XX
G5 - 5557XX  or G5 - 555XXX
F5 - 333XXX
A5 - X0220X  or A5 - 777XXX
D5 - 000XXX
Bb5 -X133XX
B5 - 999XXX
B power - X244XX
C power - X355XX
C# power - X466XX
D power - X577XX
E power - X799XX
/ - slide up, (only used when sliding from the D power chord to E during the refrain)
(x2) - simply means play the indicated chord twice

INTRO:
This is the riff that is played continuously throughout: When you see “RIFF” written,
it means play this riff before switching back to the power chords
e|------0-------0---------0------0---|
A|------0-------0---------0------0---|
G|6--7--7---6---7---6--7--7---6--7---|
D|0-----0---0---0---5-----5---5--5---|
A|0-----0---0---0---5-----5---5--5---|
D|0---------0---0---5---------5--5---|
The 5556XX chord above is a G5addC# and the 5557XX is simply a slightly more
complex version of a G5. When you see G5 noted, you can play it like the 5557XX chord,
or just barre the 5th fret like this 555XXX- your choice.

RIFF                     G5addC#     G5       RIFF
Call and I’ll answer, at home in the lost and found

    G5addC#      G5       RIFF
You say that I’m much too proud

G5addC#              F5                   A5
Someone who’s taking pleasure in breaking down

RIFF                       G5addC#        G5     RIFF
Never mind the mannequins, drunk in their hollow town

G5addC#        G5     RIFF      G5                    F5            A5
Drinking their spoils down..    Cheap imitations, the revelation is now

CHORUS- These chords are played:
  D5          G5          Bb5         A5
e|-------------------------------------------------|
A|-------------------------------------------------|
G|------------------------3--3--3--3--2--2--2--2---|
D|0--0--0--0--5--5--5--5--3--3--3--3--2--2--2--2---|
A|0--0--0--0--5--5--5--5--1--1--1--1--0--0--0--0---|
D|0--0--0--0--5--5--5--5---------------------------|   

LIKE THIS:
    D5         G5            Bb5    A5     D5       G5            Bb5     A5  
You won’t find me, I’m going M - I - A, Tonight I’m leaving going M - I - A 

        D5      G5           Bb5           A5  G5
Getting lost in you again is better than being numb..
      
      D5        F5      A5     X2
Ohhhh..

 RIFF                          G5                     RIFF
Counting every minute till the feeling comes crashing down..

G5                   RIFF    G5                        F5                              
Run when it hits the ground, I’m good at escaping, But better at flaking 
A5
out

RIFF                    G5                   RIFF
Calling unanswered, the center becomes blown out

G5                  RIFF
Stuck on the inside now

     G5                    F5                   A5
It’s fear I’m embracing, I never could face you down

CHORUS
          D5      G5           Bb5           A5  G5
..Getting lost in you again is better than being numb..

REFRAIN

G5addC#  D5    B5      A5        G5                
Red..    Red.. laced around your head..

B power(x2)  C power(x2)         C# power(x2)    D power/E power
Cold and     rescued,            cold and        rescued.. 

B power(x2)  C power(x2)         C# power(x2)    D power/E power
Cold and     rescued,            cold and        rescued.. 

B power(x2)  C power(x2)         C# power(x2)    D power/E power
Cold and     rescued,            cold and        rescued.. 

G5
Now..

RIFF                     G5                   RIFF
Call and I’ll answer, at home in the lost and found

    G5                    RIFF
You say that I’m much too proud

G5                        F5                   A5
Someone’s who's taking, a pleasure in breaking down..


CHORUS

          D5      G5           Bb5         A5    G5
..Getting lost in you again is better tha

Pretender chords – Foo Fighters V5

 Am add9:       F#m7-5 (when u sing «keep you ...»):    Fmaj:

e|-7------|    e|------|                               e|--------|
B|-----10-|    B|---10-|                               B|-----10-|
G|---9----|    G|-9----|                               G|---9----|
D|-----10-|    D|---10-|                               D|-----10-|
A|--------|    A|-9----|                               A|-8------|
E|--------|    E|------|                               E|--------|

Am (chorus):   F#m7-5 (chorus):    F5 (chorus):        D (chorus):

e|-----|       e|-----|            e|-----|            e|-2---|
B|-1---|       B|-1---|            B|-----|            B|---3-|
G|---2-|       G|---2-|            G|-----|            G|-2---|
D|---2-|       D|---2-|            D|---3-|            D|-----|
A|-----|       A|-----|            A|---3-|            A|-----|
E|-----|       E|---2-|            E|-1---|            E|-----|



VERSE 1:
 Amadd9 
Keep you in the dark
               F#m7-5 Fmaj 
You know they all        pretend
 Amadd9 
Keep you in the dark
           F#m7-5 Fmaj 
And so it all        began
 Am 
Send in your skeletons
                              F#m7-5 F5 
Sing as their bones go marching in... again
 Am                    
The need you buried deep
                               F#m7-5 
The secrets that you keep are ever ready
 F5 
Are you ready?
 Am 
I'm finished making sense

Done pleading ignorance
         F#m7-5 F5 
That whole       defense
 Am 
Spinning infinity, boy

The wheel is spinning me
      F#m7-5 F5 
It's never-ending, never-ending
 D 
Same old story


CHORUS:
 Amadd9 
What if I say I'm not like the others?
                                    F#m7-5 
What if I say I'm not just another one of your plays?

You're the pretender
 Fmaj 
What if I say that I'll never surrender?

 Amadd9 
What if I say I'm not like the others?
                                    F#m7-5 
What if I say I'm not just another one of your plays?

You're the pretender
 Fmaj D 
What if I say that I'll never surrender? (2x)


VERSE 2:
In time or so i'm told 
I'm just another soul for sale... oh, well
The page is out of print
We are not permanent
We're temporary, temporary
Same old story


CHORUS (2x).


REPEAT:
e|-----------------------|
B|-----------------------|
G|---------2------------2|
D|22-44-55---2--2-44-55- |
A|-----------------------|
E|-----------------------|

AND SING:
I'm the voice inside your head
You refuse to hear
I'm the face that you have to face
Mirrored in your stare
I'm what's left, I'm what's right
I'm the enemy
I'm the hand that will take you down
Bring you to your knees
So who are you?
Yeah, who are you?
Yeah, who are you?
Yeah, who are you?


 Amadd9 
Keep you in the dark
               F#m7-5 Fmaj 
You know they all      pretend


CHORUS.


 Am 
So who are you?
Yeah, who are you?
Yeah, who are you?


https://www.youtube.com/watch?v=wV89Vg6jC4Y

What Did I Do God As My Witness solo Tabs – Foo Fighters

 What Did I Do? Solo:

(Chris Shifflet)


e|-10-10-10---10-10-------10-10---10-10--------------------------------------|
B|-10-10-10---10-10-------10-10---10-10--------------------------------------|
G|------------------12b14---------------12b14--------------------------------|
D|---------------------------------------------------------------------------|
A|---------------------------------------------------------------------------|
E|---------------------------------------------------------------------------|

e|-10-10-12-12-12-12---------------------------------------------------------|
B|-10-10-12-12-12-12----8-7-8-10----10-10-10---------------------------------|
G|----------------------7-6-7-9-----9--9--9----------------------------------|
D|---------------------------------------------------------------------------|
A|---------------------------------------------------------------------------|
E|---------------------------------------------------------------------------|

play twice above

e|---------------------------------------------------------------------------|
B|---------------------------------------------------------------------------|
G|--9b11--9b11---9--7--7-7-----7----7h9-7------------------------------------|
D|-------------------------7s9----9-------9----------------------------------|
A|---------------------------------------------------------------------------|
E|---------------------------------------------------------------------------|

e|---------------------------------------------------------------------------|
B|--8-7-8-10----10-10-10------8-7-8-10----10-10-10---------------------------|
G|--7-6-7-9-----9--9--9-------7-6-7-9-----9--9--9----------------------------|
D|---------------------------------------------------------------------------|
A|---------------------------------------------------------------------------|
E|---------------------------------------------------------------------------|

God As My Witness Solo:

(Gary Clark Jr.)

e|-------------10-----12-----14--14-15-14-15-17--17b19--14--14--14h15p-14-12-|
B|---------------------------------------------------------------------------|
G|------7h9s11----s14----s16-------------------------------------------------|
D|--7h9----------------------------------------------------------------------|
A|---------------------------------------------------------------------------|
E|---------------------------------------------------------------------------|


e|--10-----------10-------------10-----------10------------------------------|
B|-----10-13b15-----10-15b15.5-----10-13b16-----10-13b16.5-------------------|
G|---------------------------------------------------------------------------|
D|---------------------------------------------------------------------------|
A|---------------------------------------------------------------------------|
E|---------------------------------------------------------------------------|


e|--10-----------------10--------------------15b17--14b15--15b17--15h17p15---|
B|-----10-13b15--(x5)-----13b15--15-15-18b19---------------------------------|
G|---------------------------------------------------------------------------|
D|---------------------------------------------------------------------------|
A|---------------------------------------------------------------------------|
E|---------------------------------------------------------------------------|


e|--------------15b17--------------------------------------------------------|
B|--15-15-18b19-------17b19--15---------15-17b19r17-15----15--7h8-7h8--10----|
G|-------------------------------14h16-----------------16-----7---7----------|
D|---------------------------------------------------------------------------|
A|---------------------------------------------------------------------------|
E|---------------------------------------------------------------------------|

No Man chords – Crystal Fighters

 -------------------------------------------------------------------------------
                             NO MAN - Crystal Fighters
-------------------------------------------------------------------------------

This is my first Tab
Hope you enjoy it! n.n


: BlueShark
 bluesharkvideos

Tuning: Standard

Riff:
e|--5--9--5h7-9-9-9-9-7-5-7--5--5h7-9-9-9-9-7-5-7--12--14-14-14-9-9-7-5----|

e|--5-9-9-9-9-7-5----------------------------------------------------------|


Intro:
 A D F#m E D  x2

 A       
Way out, wherever I've gone
               D 
Way in to somethin' more
 F#m E D 
Way out to taste the first dawn of the millenium
 A 
Turn down the sun-lit road
              D 
To my soul down a path of truth
 F#m       
Sing praise to the sky above
 E D 
Become a Halleluiah

 A D 
We are there, forever I'm gone
 F#m E D 
Stayin' here till the mornin come
 A D 
Some things have always been, yeah those are the first to change
 F#m E D 
Those things I'd always feel, I let them slip away
 A D 
Way back whenever that was, I'm feelin' bad again and you
 F#m E D 
You know yourself that it's strong, oh how I dream it could be true

 A D 
We are there, forever We're gone
 F#m E D 
Stayin' here till salvation comes
 A D   
Goin' away till the sun goes dark
 F#m E D 
And we'll feel it real, believe it's gonna be forever

 A D 
No man, No man must go
 F#m E D 
No man must alone
 A D 
All man, all man be free
 A E D 
All man to freedom come

   (Riff)
 A D 
No man, No man with a throne
 F#m E D 
No man with a throne of gold
 A D 
Too late, too late to know
 F#m E D  
Too late to know enough

Out to the stars we gone
That's when it really went wrong
The woman partied till dawn
Like a new millenium
Changed the law and the deed was done
Now I'm back where I started from
And I'm on the run, I'm on the run, I'm back on the goddamn run

We are there, forever We're gone
Stayin' here till salvation comes
Goin' away till the sun goes dark
And we'll feel it real, believe it's gonna be forever

No man, No man must go
No man must alone
All man, all man be free
All man to freedom come
No man, No man with a throne
No man with a throne of gold
Too late, too late to know
Too late to know enough

 Bm D 
Ghosts of my love come and haunt me every day
                  E 
I see you in everything
 Bm D 
Because of love everything is sad today
                  E 
I see you in everything, oh
 Bm D 
Ghosts of our love how you haunt me every day
                 E 
haunt me every day
 Bm D 
Ghosts of our love gonna haunt me night and day
                           E 
Haunt me night and day, woah

No man, No man must go
No man must alone
All man, all man be free
All man to freedom come
No man, No man with a throne
No man with a throne of gold
Too late, too late to know
Too late to know enough
No man, No man must go
No man must alone
All man, all man be free
All man to freedom come


Thanks for rating
Greetings from Córdoba, Argentina!

The Feast And The Famine Tabs – Foo Fighters V2

 -------------------------------------------------------------------------------
                             THE FEAST AND THE FAMINE - Foo Fighters
-------------------------------------------------------------------------------
Tuning: Standard

Video Lesson: http://youtu.be/TyNZLSQHD98

Intro
e|-------0-------0-------0---------------0-------0-------0-------|
B|---7-------7-------7-------7-------3-------3-------3-------3---|
G|-8---8---8---8---8---8---8---8---4---4---4---4---4---4---4---4-|
D|---------------------------------------------------------------|
A|---------------------------------------------------------------|
E|---------------------------------------------------------------|1x

Verse (GTR 1)
e|-------0-------0-------0---------------0-------0-------0-------|
B|---7-------7-------7-------7-------3-------3-------3-------3---|
G|-8---8---8---8---8---8---8---8---4---4---4---4---4---4---4---4-|
D|---------------------------------------------------------------|
A|---------------------------------------------------------------|
E|---------------------------------------------------------------|2x

e|-------0-------0-------0---------------0-------0-------0-------|
B|---3-------3-------3-------3-------3-------3-------3-------3---|
G|-1---1---1---1---1---1---1---1---1---1---1---1---1---1---1---1-|
D|---------------------------------------------------------------|
A|---------------------------------------------------------------|
E|---------------------------------------------------------------|

Verse (GTR 2)
e|-----------------------------------------------------------------|
B|-----------------------------------------------------------------|
G|-----------------------------------------------------------------|
D|-4-4-4-4-4-4-4-4-4-4-4-4-4-4-4---5-5-5-5-5-5-5-5-5-5-5-5-5-5-5---|
A|-6-6-6-6-6-6-6-6-6-6-6-6-6-6-6---7-7-7-7-7-7-7-7-7-7-7-7-7-7-7---|
E|-----------------------------------------------------------------|2x

e|---------------------------------|
B|---------------------------------|
G|---------------------------------|
D|-9-9-9-9-9-9-9-9-9-9-9-9-9-9-9---|
A|-7-7-7-7-7-7-7-7-7-7-7-7-7-7-7---|
E|---------------------------------|

Chorus
e|------------------------------------------------------|
B|------------------------------------------------------|
G|---4--4-4-4-4---4-4-4-2-------------------------------|
D|---4--4-4-4-4---4-4-4-2-5--5-5-5-5-5-5-5-5--12-12-12--|
A|-0h2--2-2-2-2-0h2-2-2-0-5--5-5-5-5-5-5-5-5--12-12-12--|
E|------------------------3--3-3-3-3-3-3-3-3--10-10-10--|

e|------------------------------------------------------|
B|------------------------------------------------------|
G|---4--4-4-4-4---4-4-4-2-------------------------------|
D|---4--4-4-4-4---4-4-4-2-5--5-5-5-5-5-5-5-5/7-7-7-7-7--|
A|-0h2--2-2-2-2-0h2-2-2-0-5--5-5-5-5-5-5-5-5/7-7-7-7-7--|
E|------------------------3--3-3-3-3-3-3-3-3/5-5-5-5-5--|

e|----------------------------------------------|
B|----------------------------------------------|
G|----------------------------------------------|
D|-2--2-2-2-2-2-2-2-2-2-x-2--2-2-2-2-2-2-2-2-2--|
A|-2--2-2-2-2-2-2-2-2-2-x-2--2-2-2-2-2-2-2-2-2--|
E|-0--0-0-0-0-0-0-0-0-0-x-0--0-0-0-0-0-0-0-0-0--|

Verse 2
e|-----------------------------------------------------------|
B|-----------------------------------------------------------|
G|-4-4-4-4-4-4-4-4-4-4-4-4-4-4-------------------------------|
D|-4-4-4-4-4-4-4-4-4-4-4-4-4-4--5-5-5-5-5-5-5-5-5-5-5-5-5-5--|
A|-2-2-2-2-2-2-2-2-2-2-2-2-2-2--5-5-5-5-5-5-5-5-5-5-5-5-5-5--|
E|------------------------------3-3-3-3-3-3-3-3-3-3-3-3-3-3--|

e|-----------------------------------------------------------|
B|-----------------------------------------------------------|
G|-----------------------------------------------------------|
D|-7-7-7--2--2-2-2-2-2-2-2-2-2-2---2--2-2-2-2-2-2-2-2-2-2-2--|
A|-7-7-7--2--2-2-2-2-2-2-2-2-2-2---2--2-2-2-2-2-2-2-2-2-2-2--|
E|-5-5-5--0--0-0-0-0-0-0-0-0-0-0-x-0--0-0-0-0-0-0-0-0-0-0-0--|

Breakdown (GTR 1)
e|-----------------------

Sign Tabs by Foo Fighters V3

 -------------------------------------------------------------------------------
                             THE SIGN - Foo Fighters
-------------------------------------------------------------------------------
: khawk94
1/22/14

Tuning: Drop D - DADGBe

Have fun!!

Intro (Guitar 1):
e|---------------------------|-------------------------|
B|---15-15-15-15-15-15-15-15-|-15-15-15-15-15-15-15-15-|
G|---18-18-18-19-19-19-19-18-|-18-16-16-16-16-16-16-16-|
D|---------------------------|-------------------------|
A|---------------------------|-------------------------|
D|---------------------------|-------------------------|


Intro (Guitar 2):
e|---------------------------|
B|---7~----------------------|
G|---7~----------------------|
D|---7~----------------------|
A|---5~----------------------|
D|---0-----------------------|

e|-------------------|-----------------|-----------------|-----------------|
B|---7-7-7-7-7-7-7-7-|-7-7-7-7-7-7-7-7-|-7-7-7-7-7-7-7-7-|-7---------------|
G|---7-7-7-7-7-7-7-7-|-7-7-7-7-7-7-7-7-|-7-7-7-7-7-7-7-7-|-7---------------|
D|---7-7-7-7-7-7-7-7-|-7-7-7-7-7-7-7-7-|-7-7-7-7-7-7-7-7-|-7---------------|
A|---5-5-5-5-5-5-5-5-|-5-5-5-5-5-5-5-5-|-5-5-5-5-5-5-5-5-|-5---------------|
D|---0-0-0-0-0-0-0-0-|-0-0-0-0-0-0-0-0-|-0-0-0-0-0-0-0-0-|-0--/20\---------|

Verse
Both guitars
e|-------------------|-----------------|-----------------|-----------------|
B|---7---7---7---7---|-7---7---7---7---|-7---7---7---7---|-7---7---7---7---|
G|---7---7---7---7---|-7---7---7---7---|-7---7---7---7---|-7---7---7---7---|
D|---7---7---7---7---|-7---7---7---7---|-7---7---7---7---|-7---7---7---7---|
A|---5---5---5---5---|-5---5---5---5---|-5---5---5---5---|-5---5---5---5---|
D|-----0---0---0---0-|---0---0---0---0-|---0---0---0---0-|---0---0---0---0-|

e|-------------------|-----------------|-----------------|-----------------|
B|---7---7---7---7---|-7---7---7---7---|-7---7---7---7---|-7---7---7-------|
G|---7---7---7---7---|-7---7---7---7---|-7---7---7---7---|-7---7---7-------|
D|---7---7---7---7---|-7---7---7---7---|-7---7---7---7---|-7---7---7-------|
A|---5---5---5---5---|-5---5---5---5---|-5---5---5---5---|-5---5---5-------|
D|-----0---0---0---0-|---0---0---0---0-|---0---0---0---0-|---0---0---0-16\-|


Guitar 1 plays the intro x4

Guitar 2 x2
e|-------------------|-----------------|-----------------|-----------------|
B|-------------------|-----------------|-----------------|-----------------|
G|-------------------|-----------------|-----------------|-----------------|
D|---7-7-7-7-7-7-7-7-|-7-7-7-7-7-7-7-7-|-7-7-7-7-7-7-7-7-|-7-7-7-7-7-7-7-7-|
A|---5-5-5-5-5-5-5-5-|-5-5-5-5-5-5-5-5-|-5-5-5-5-5-5-5-5-|-5-5-5-5-5-5-5-5-|
D|---0-0-0-0-0-0-0-0-|-0-0-0-0-0-0-0-0-|-0-0-0-0-0-0-0-0-|-0-0-0-0-0-0-0-0-|

e|-------------------|-----------------|-----------------|-----------------|
B|-------------------|-----------------|-----------------|-----------------|
G|-------------------|-----------------|-----------------|-----------------|
D|---5-5-5-5-5-5-5-5-|-5-5-5-5-5-5-5-5-|-5-5-5-5-5-5-5-5-|-5-5-5-5-5-5-5-5-|
A|---5-5-5-5-5-5-5-5-|-5-5-5-5-5-5-5-5-|-5-5-5-5-5-5-5-5-|-5-5-5-5-5-5-5-5-|
D|---5-5-5-5-5-5-5-5-|-5-5-5-5-5-5-5-5-|-5-5-5-5-5-5-5-5-|-5-5-5-5-5-5-5-5-|

Pre-Chorus Guitar 1 & 2:
e|---------------------------|
B|---------------------------|
G|---------------------------|
D|---------------------------|
A|---------------------------|
D|-----------------------/15-|

e|---------------------------|-------------------------|-----------------|-----------------|
B|---12-12-12-12-12-12-12-12-|-10-10-10-10-10-10 10-10-|-8-8-8-8-8-8-8-8-|-9-9-9-9-9-9-9-9-|
G|---11-11-11-11-11-11-11-11-|--9--9--9--9--9--9--9--9-|-7-7-7-7-7-7-7-7-|-9-9-9-9-9-9-9-9-|
D|----9--9--9--9--9--9--9--9-|--7--7--7--7--7--7--7--7-|-5-5-5-5-5-5-5-5-|-9-9-9-9-9-9-9-9-|
A|----9--9--9--9--9--9--9--9-|--7--7--7--7--7--7--7--7-|-5-5-5-5-5-5-5-5-|-7-7-7-7-7-7-7-7-|
D|----9--9--9

Learn To Fly Acoustic chords – Foo Fighters V4

 FOO FIGHTERS ACOUSTIC CHORDS

"Learn To Fly"



 Am C 
Run and tell all of the angels
 G D 
This could take all night
 Am C G 
Think I need a devil to help me get things right
 Am C 
Hook me up a new revolution
         G D 
'Cause this one is a lie
    Am C 
We sat around laughing and watched the last one
 G 
die
          D C 
Now I'm looking to the sky to save me
 Em G 
Looking for a sign of life
 D C G 
Looking for something to help me burn out bright
 D C 
I'm looking for a complication
 Em G 
Looking 'cause I'm tired of trying
 D A E 
Make my way back home when I learn to fly high.

 Am C 
I think I'm done nursing the patience
 G D 
It can wait one night
 Am C G 
I'd give it all away if you give me one last try
 B G D C 
We'll live happily ever trapped if you just save my life
 Am C G 
Run and tell the angels that everything's alright...

     D C 
I'm looking to the sky to save me
 Em G 
Looking for a sign of life
 D C G 
Looking for something to help me burn out bright
 D C 
I'm looking for a complication
 Em G 
Looking 'cause I'm tired of trying
 D A E  
Make my way back home when I learn to fly high.
 D A                  
Make my way back home when I learn to...

     E C G D 
...fly along with me, I can't quite make it alone
 E A 
Try to make this life my own
 E C G D 
Fly along with me, I can't quite make it alone
 E A 
Try to make this life my own
     D C 
I'm looking to the sky to save me
 Em G 
Looking for a sign of life
 D C G 
Looking for something to help me burn out bright
     D C 
I'm looking for a complication
 Em G 
Looking 'cause I'm tired of trying
 D A 
Make my way back home when I learn to...
    D C  
...looking to the sky to save me
 Em G 
Looking for a sign of life
 D C G 
Looking for something to help me burn out bright
     D C 
I'm looking for a complication
 Em G 
Looking 'cause I'm tired of trying
 D A E 
Make my way back home when I learn to fly high.
 D A E 
Make my way back home when I learn to fly.
 D A               
Make my way back home when I learn to...

Generator chords – Foo Fighters

 GENERATOR – FOO FIGHTERS                             

Standard Tuning  

 RIFF A                     RIFF B 
E------------------------ |  E------------------------------ |  
B------------------------ |  B------------------------------ |   
G------------------------ |  G------------------------------ |   
D-6--6--4--2--4--2--4--6- |  D-6--6--4--2--4--2--4--6--4--2- |   
A------------------------ |  A------------------------------ |   
E------------------------ |  E------------------------------ |   

 RIFF C                      RIFF D 
E------------------------- |  E------------ |  
B------------------------- |  B------------ |  
G------------------------- |  G--------5--- |  
D-6--6--6--7--9--11--6--7- |  D-----3------ |  
A------------------------- |  A--5--------- |  
E------------------------- |  E------------ |                               

 RIFF E                 RIFF F            
E--------------------- |  E----------------- |  
B--------------------- |  B----------------- |  
G---6--4--6--7--6--4-- |  G-7/--9/--11/--14- |    
D--------------------- |  D----------------- |  
A--------------------- |  A-5/--7/---9/--12- |  
E--------------------- |  E----------------- |  

 RIFF G                              RIFF H 
E---------------------------------- |  E---------------------------- |  
B---------------------------------- |  B---------------------------- |  
G---------------------------------- |  G---------------------------- |  
D---------------------------------- |  D-6--6--4--2--4--2--4--9--7-- |  
A-7--7--5--4-----------------4----- |  A-------------------------7-- |  
E-------------7--5--4--5--7-----0-- |  E-------------------------5-- |  

  
 
INTRO 

RIFF A RIFF B (x2) RIFF C RIFF B RIFF C 

(let chords ring out on every verse)  

 A5 E5     
Lately I'm getting better 
 F#m E5  
Wish I could stay sick with you 
 D5 Dm7 
But there's too many egos left to bruise 

 A5 E5   
Call it a sin you call it what ever 
 F#m E5  
Eating deep inside of you 
 D5  
Well if were me it's all I'd ever do 

RIFF E (x2) 
 A5 E5 F#m E5 D5 A5 E5 F#m E5 D5 
RIFF B RIFF C RIFF B RIFF C 

 A5 E5 E5  
Stealing now and forever 
 F#m E5  
I'll steal something good for you 
 D5                        
But the criminal in me is no-one new 

RIFF E (x2) 

 A5 E5 E5   
Til you find something better  
 F#m E5 
When there's nothing left to use 
 D5  
And everything starts going down on you 

RIFF E (x2) 

 A   
I'm the generator,  
                               F  
Firing whenever you quit, 
                         F#m  
Yeah whatever it is, 
                            G G/A G/B  
You go out and it's on, 
 Em/C D9  
Yeah can't you hear my motor heart, 
 F G  
You're the one that started it. 

 A5 E5 F#m E5 D5 A5 E5 F#m E5 D5 
RIFF B  RIFF C  RIFF B  RIFF C 

 A5 E5 E5   
Standing out on a tether 
 F#m E5 
Swing me around I'll spin your news 
 D5                               
You let it down I'll hang around with you 

RIFF E (x2) 

 A5 E5 E5   
Til you find something better  
 F#m E5 
And there's no-one left

Walk chords – Foo Fighters V7

 A E 
  A million miles away
      Bm 
Your signal in the distance
    Dm 
To whom it may concern
 A E 
  I think I lost my way
         Bm 
Getting good at starting over
       Dm 
Every time that I return

 A E 
  I'm learning to walk again
           Bm 
Can't you see I've waited long enough
          Dm 
Where do I begin?
 A E  
  I'm learning to talk again
     Bm        
I believe I've waited long enough
          Dm 
Where do I begin?

 A E 
  Do you remember the day
    Bm 
We built these paper mountains
     Dm 
And sat and watched them burn

 A E 
 I think I found my place
           Bm 
Can't you feel it growing stronger
        Dm 
Little conqueror

 A E 
  I'm learning to walk again
           Bm 
Can't you see I've waited long enough
          Dm 
Where do I begin?
 A E 
  I'm learning to talk again
     Bm 
I believe I've waited long enough
          Dm 
Where do I begin?

 A 
Now
                    E 
For the very first time
                  F#m 
Don't you pay no mind
        D Dm 
Set me free again

     A 
You keep alive a moment at a time
But still inside a whisper to a riot
    E 
To sacrifice but knowing to survive
The first to climb another state of mind
     F#m              
I'm on my knees, I'm praying for a sign
   D 
Forever, whenever
   Dm 
I never wanna die
   A 
I never wanna die
I never wanna die
I'm on my knees
Never wanna die
 E 
Dancing on my grave
Running through the fire
Forever, whenever
Never wanna die
 F#m 
Never wanna leave
Never say goodbye
   D 
Forever, whenever
   Dm 
Forever, whenever

 A E 
  I'm learning to walk again
     Bm 
I believe I've waited long enough
          Dm 
Where do I begin?
 A E 
  I'm learning to talk again
           Bm 
Can't you see I've waited long enough
          Dm 
Where do I begin?

 A E 
  I'm learning to walk again
     Bm 
I believe I've waited long enough
 Dm A E 
  I'm learning to talk again
           Bm 
Can't you see I've waited long enough 
 Dm Dm

Word Forward Tab by Foo Fighters

Intro

Rhythm
e||---------------------------------------------------------3----------||
B||-----------------------------------------------------3------3---3---||
G||-------0-------0-------0-------0-------0-------0-------0------0-----||
D||---2-2---2-0-0---0-------------------------0-0---0------------------||
A||-------------------3-3---3-2-2---2-3-3---3--------------------------||
E||---------------------------------------------------3----------------||

e||----------------------------------------------------3---||
B||----------------------------------------------------3---||
G||-------0-------0-------0-------0-------0-------0----0---||
D||---2-2---2-0-0---0-------------------------0-0------0---||
A||-------------------3-3---3-2-2---2-3-3---3-------5--2---||
E||----------------------------------------------------3---||

Lead
e||-----------------------------------------------------------------------------||
B||-----------------------------------------------------------------------------||
G||-----------------------------------------------------------------------------||
D||-----------------------------------------------------------------------------||
A||-----------------------------------------------------------------------------||
E||-----------------------------------------------------------------------------||

e||------------------------------------------------------------------------||
B||------------------------------------------------------------------------||
G||---12-12---12-11-11---11-12-12---12-14-14---14-12-12---12-11-11--11-12--||
D||----x--x----x--x--x----x--x--x----x--x--x----x--x--x----x--x--x---x--x--||
A||---10-10---10--9--9----9-10-10---10-12-12---12-10-10---10--9--9---9-10--||
E||------------------------------------------------------------------------||

Verse 1

Rhythm 2x
e||---3--3--3--3--3--3--3--3--3--3--3--3--3--3--3--3---||
B||---3--3--3--3--3--3--3--3--3--3--3--3--3--3--3--3---||
G||---0--0--2--2--0--0--0--0--0--0--0--0--2--2--2--2---||
D||---0--0--0--0--2--2--2--0--2--2--2--2--3--3--3--3---||
A||---2--2--2--2--2--2--2--2--3--3--3--3---------------||
E||---3--3--------0--0--0--0---------------------------||

Lead
e||-------------------------------------------------||
B||-------------------------------------------------||
G||-------------------------------------------------||
D||-------------------------------------------------||
A||---7---7-5-3---8---0--3--5---2---7---7-5-3---8---||
E||-------------------------------------------------||

verse 2

Lead
e||------------------------------------------------------------||
B||------------------------------------------------------------||
G||---9--11--9/11/12--14--11--11--17--16--14--16--15--14--12---||
D||---x---x--x--x--x---x---x---x---x---x---x---x---x---x---x---||
A||---7---9--7/-9/10--12---9---9--15--14--12--14--13--12--10---||
E||------------------------------------------------------------||

Verse 3

Rhythm
e||-------------------------------------------------------------------------||
B||-------------------------------------------------------------------------||
G||-------------------9-9-9-9-9-9-9-7-5-5-5-5-5-5-5-5-10-10-10-10-----5-5---||
D||---5-5-5-5-9-9-9-9-9-9-9-9-9-9-9-7-5-5-5-5-5-5-5-5-10-10-10-10-7-7-5-5---||
A||---5-5-5-5-9-9-9-9-7-7-7-7-7-7-7-5-3-3-3-3-3-3-3-3--8--8--8--8-7-7-3-3---||
E||---3-3-3-3-7-7-7-7---------------------------------------------5-5-------||

e||-----------------------------------------------------------------------------||
B||-----------------------------------------------------------------------------||
G||---7-7-7-7---------9-9-9-9-9-9-9-7-5-5-5-5-5-5-5-5-10-10-10-10-10-10-10-10---||
D||---7-7-7-7-9-9-9-9-9-9-9-9-9-9-9-7-5-5-5-5-5-5-5-5-10-10-10-10-10-10-10-10---||
A||---5-5-5-5-9-9-9-9-7-7-7-7-7-7-7-5-3-3-3-3-3-3-3-3--8--8--8--8--8--8--8--8---||
E||-----------7-7-7-7-----------------------------------------------------------||

Lead
e||-------------------------------------------------------------------------||
B||-------------------------------------------------------------------------||
G||-------------------9-9-9-9-9-9-9-7-5-5-5-5-5-5-5-5-10-10-10-10-----5-5---||
D||---5-5-5-5-9-9-9-9-9-9-9-9-9-9-9-7-5-5-5-5-5-5-5-5-10-10-10-10-7-7-5-5---||
A||---5-5-5-5-9-9-9-9-7-7-7-7-7-7-7-5-3-3-3-3-3-3-3-3--8--8--8--8-7-7-3-3---||
E||---3-3-3-3-7-7-7-7---------------------------------------------5-5-------||

Chorus 

Rhythm
e||---------------------------------------------------------------------||
B||---------------------------------------------------------------------||
G||---9-9-9-9-7-7-7-7-5-5-5-5-4-4-4-4-5-5-5-5-7-7-7-7-------------------||
D||---9-9-9-9-7-7-7-7-5-5-5-5-4-4-4-4-5-5-5-5-7-7-7-7-5-5-5-5-5-5-5-5---||
A||---7-7-7-7-5-5-5-5-3-3-3-3-2-2-2-2-3-3-3-3-5-5-5-5-5-5-5-5-5-5-5-5---||
E||---------------------------------------------------3-3-3-3-3-3-3-3---||

Lead
e||---4-times--4-times--4-times--4-times--4-times--4-times--8-times---||
B||-------------------------------------------------------------------||
G||---12-------11-------12-------14-------12-------11-------12--------||
D||----x--------x--------x--------x--------x--------x--------x--------||
A||---10--------9-------10-------12-------10--------9-------10--------||
E||-------------------------------------------------------------------||

Bridge                          Bridge 2

Rhythm 2x                       
e||---16-times---16-times---||  then e||---16-times---16-times---||
B||-------------------------||       B||-------------------------||
G||---8---------------------||       G||---4----------3----------||
D||---8----------5----------||       D||---4----------3----------||
A||---6----------5----------||       A||---2----------1----------||
E||--------------3----------||       E||-------------------------||

Bridge

Lead 2x
e||----------------------------------------------------------||
B||----------------------------------------------------------||
G||----------------------------------------------------------||
D||---8-8-8-8-10-10-10-12-12-12-12-14-14-14-14-12-12-12-12---||
A||---x-x-x-x--x--x--x--x--x--x--x--x--x--x--x--x--x--x--x---||
E||---6-6-6-6--8-8-8-8-10-10-10-10-12-12-12-12-10-10-10-10---||

Bridge 2

then
e||---16-times---16-times---||
B||-------------------------||
G||---16---------17---------||
D||----x----------x---------||
A||---14---------13---------||
E||-------------------------||
Chorus 

Rhythm Palm muted
e||---------------------------------------------------------------------||
B||---------------------------------------------------------------------||
G||---------------------------------------------------------------------||
D||---9-9-9-9-7-7-7-7-5-5-5-5-4-4-4-4-5-5-5-5-7-7-7-7-------------------||
A||---7-7-7-7-5-5-5-5-3-3-3-3-2-2-2-2-3-3-3-3-5-5-5-5-5-5-5-5-5-5-5-5---||
E||---------------------------------------------------3-3-3-3-3-3-3-3---||

Lead
e||---------------------------------------------------------------------||
B||---------------------------------------------------------------------||
G||---------------------------------------------------------------------||
D||---9-9-9-9-7-7-7-7-5-5-5-5-4-4-4-4-5-5-5-5-7-7-7-7-------------------||
A||---7-7-7-7-5-5-5-5-3-3-3-3-2-2-2-2-3-3-3-3-5-5-5-5-5-5-5-5-5-5-5-5---||
E||---------------------------------------------------3-3-3-3-3-3-3-3---||

Intro: 2x
Verse: 2x
Verse2: 1x
verse3: 2x
verse4(2): 1x
Chorus: 4x
Bridge1: 2x
Bridge2: 1x
Inrto2: 2x
Muted Chorus: 4x
chorus: 4x
end

Word Forward Chords – Foo Fighters

G                        Em
Good bye Jimmy, farewell youth
C                                      F
I must be on my way I've had enough of you
G                           Em
Was a young man, proud and true
C                                      F
Just a simple boy with nothing left to lose

Em              C
Years that I've wasted
D           Em
These I owe you's

                        G
They're just fucking words
                Em
This is life or death
C
It's time to clear the air
F
You better save your breath
G
Say have you heard
             Em
Say have you heard
C
The Poison in my heart
F
And voices in my head

Em              C
Years that I've wasted
D           Em
These I owe you's

              G        Em       C       G
I meant every word for word for word forward
G        Em       C       G
Word for word for word forward
G        Em       C       G
Word for word for word forward
G        Em       C       G
Word for word for word forward

Em            G
But it's only words
Em            G
I meant every word
Em                   G
They're just fucking words

G        Em        C       G    (reapeat)
Word for word for word forward