Tag: fire

I See Fire guitar chords by Ed Sheeran

[Intro]
N.C.
Oh, misty eye of the mountain below
Keep careful watch of my brothers' souls
And should the sky be filled with fire and smoke
                           Em
Keep watching over Durin's sons

[Intro Tab]
e|---------------------------x----------------x---------------x--|
B|-------------0h1-----------x------3---3-----x---0-----------x--|
G|2h4p20---0---0-------------x------0h2-2-----x---0-----------x--|
D|------0h2----2-------------x------0---------x---2-----------x--|  
A|-------------3-------------x----------------x---------------x--|
E|0-------------------------------------------x---0-----------x--|(x2)

[Verse 1]
              Em     G
If this is to end in fire
               D        C
Then we should all burn together
          Em           G    D        Am7
Watch the flames climb high into the night
        Em    G         D            C
Calling out father, oh, stand by and we will
          Am7         Bm            C
Watch the flames burn auburn on the mountain side

[Verse 2]
e|---------------------------x----------------x---------------x--|
B|-------------0h1-----------x------3---3-----x---0-----------x--|
G|2h4p20---0---0-------------x------0h2-2-----x---0-----------x--|
D|------0h2----2-------------x------0---------x---2-----------x--|  
A|-------------3-------------x----------------x---------------x--|
E|0-------------------------------------------x---0-----------x--|

                 Em    G
And if we should die tonight
               D       C
Then we should all die together
        Em       G   D        Am7
Raise a glass of wine for the last time
        Em    G         D          C
Calling out father, oh, prepare as we will
          Am7         Bm            C
Watch the flames burn auburn on the mountain side
    Am7    Bm             C
Desolation comes upon the sky

[Chorus]
          Em  C  D          Em          
Now I see fire,  inside the mountain
      Em  C  D           Em
I see fire,  burning the trees 
          Em  C  D         Em
And I see fire,  hollowing souls
      Em  C  D            Am7
I see fire,  blood in the breeze

And I hope that you'll remember me

[Instrumental]
e|---------------------------x----------------x---------------x--|
B|-------------0h1-----------x------3---3-----x---0-----------x--|
G|2h4p20---0---0-------------x------0h2-2-----x---0-----------x--|
D|------0h2----2-------------x------0---------x---2-----------x--|  
A|-------------3-------------x----------------x---------------x--|
E|0-------------------------------------------x---0-----------x--|(x2)

[Verse 2]
              Em     G
Oh, should my people fall
            D           C
Then surely I'll do the same
            Em       G
Confined in mountain halls
           D            Am7
We got too close to the flame
        Em     G        D             C     
Calling out father, oh, hold fast and we will
          Am7         Bm            C
Watch the flames burn auburn on the mountain side
    Am7    Bm             C
Desolation comes upon the sky

[Chorus]
          Em  C  D          Em          
Now I see fire,  inside the mountain
      Em  C  D           Em
I see fire,  burning the trees 
          Em  C  D         Em
And I see fire,  hollowing souls
      Em  C  D            Am7
I see fire,  blood in the breeze
                                Am7
And I hope that you'll remember me

[Bridge]
           Am7      Em
And if the night is burning
       D        C
I will cover my eyes
           Am7    Em
For if the dark returns then
   D             CMaj7
My brothers will die
           Am7            Em
And as the sky is falling down
           D                C
It crashed into this lonely town
              Am7                   
And with that shadow upon the ground
  Bm      C                D
I hear my people screaming out

[Chorus/Outro]
          Em  C  D          Em          
Now I see fire,  inside the mountain
      Em  C  D           Em
I see fire,  burning the trees 
          Em  C  D         Em
And I see fire,  hollowing souls
      Em  C  D            Em
I see fire,  blood in the breeze
      Em           C                 D        Em 
I see fire, oh you know I saw a city burning (fire)
      Em         C                D     Em
I see fire, feel the heat upon my skin (fire)
          Em   C       D  Em 
And I see fire, oooooo (fire)
          Em        C             D        Em
And I see fire burn auburn on the mountain side


************************************

| x  Dead note
| h  Hammer-on
| p  Pull-off

************************************

Everything Now chords by Arcade Fire ver 2

[Video Intro]
C

C          Gm
I'm in the black again
              C
Can't make it back again
       Gm
We can just pretend
               F
We'll make it home again
               C
From everything now

[Instrumental]
F C G
F C G

[Verse 1]
              F
Every inch of sky's got a star
              C
Every inch of skin's got a scar
                        G
I guess that you've got everything now
              F
Every inch of space in your head
                      C
Is filled up with the things that you read
                   G
I guess you've got everything now
                    F
And every film that you've ever seen
                 C
Fills the spaces up in your dreams

That reminds me

G
(Everything now)
G
(Everything now)

[Verse 2]
              F
Every inch of road's got a sign
              C
And every boy uses the same line
                       G
I pledge allegiance to everything now
                F
Every song that I've ever heard
                       C
Is playing at the same time, it's absurd
                             G
And it reminds me, we've got everything now
                     F
We turn the speakers up till they break
                      C
'Cause every time you smile it's a fake!

Stop pretending, you've got…

[Chorus]
 G
(Everything now!) I need it
 G
(Everything now!) I want it
 F
(Everything now!) I can't live without
 F
(Everything now!) I can't live without
 C
(Everything now!)
 C
(Everything now!)
 C
Everything now

[Instrumental]
G

F C G
F C G

[Verse 3]
              F
Every ancient road's got a town
                 C
Daddy, how come you're never around?
                 G
I miss you, like everything now
                F
Mama, leave the food on the stove
                      C
Leave your car in the middle of the road
                       G
This happy family with everything now
                     F
We turn the speakers up till they break
                      C
'Cause every time you smile it's a fake!

Stop pretending, you've got...

[Chorus]
 G
(Everything now!) I need it
 G
(Everything now!) I want it
 F
(Everything now!) I can't live without
 F
(Everything now!) I can't live without
 C
(Everything now!)
 C
(Everything now!)

           G                                                    F
'Til every room in my house is filled with shit I couldn't live without

[Chorus]
 F
(Everything now!) I need it
 F
(Everything now!) I can't live without
 C
(Everything now!)
 C
(Everything now!)
 C
 Everything now

[La La La section]

G

F
La La La La La La La
C
La La La La La La La
G
La La La La La La La

[Instrumental]
F C G

G
Stop pretending, you've got...

[Chorus]
 F
(Everything now!) I need it
 F
(Everything now!) I want it
 C
(Everything now!) I can't live without
 C
(Everything now!) I can't live without
 G
(Everything now!) I can't live
 G
(Everything now!)

          F                                                    C
And every room in my house is filled with shit I couldn't live without
 C
(Everything now!) I need it
 C
(Everything now!) I can't live without

 G
(Everything now!) I can't live
 G
(Everything now!)
              F                                          C
Every inch of space in my heart is filled with something I'll never start

[Outro]
             G
The ashes of everything now
                F
And then you're black again
              C
Can't make it back again
                G
From everything now

Kisses Of Fire Chords version 2 by ABBA

B/F#  22444x
C#    x1333x
C#m   x46654
G#m   466444
Bsus4 x24400
Am/C  X32210

   [Verse 1]
N.C.
                    F#m          B/F#       F#m        B/F#
Lay your head on my chest so you hear every beat of my heart
                       F#m          B/F#    C#
Now there's nothing at all that can keep us apart
C#m      A                F#m      B             G#m   C#m
Touch my lips, close your eyes and see with your fingertips
F#m             G#m         A                    B   Bsus4
Things that you do, and you know I'm crazy 'bout you


   [Chorus]
E               C#m
Kisses of fire, burning, burning
A                   B
I'm at the point of no returning
E               C#m
Kisses of fire, sweet devotions
A                      B     G#m
Caught in a land-slide of emotions
C#m                       A                                E
I've had my share of love affairs but they were nothing compared to this
B   E                          A                        B
Oh, I'm riding higher than the sky and there is fire in every kiss
C#m       B
Kisses of fire
Am/C
Kisses of fire

   [Link]
F#m    B/F#   F#m7


   [Verse 2]
B/F#                 F#m         B/F#       F#m7
When you sleep by my side I feel safe and I know I belong
B/F#                 F#m            B/F#        F#m7
Still it's making me scared that my love is so strong
G#m    C#m      A         B              G#m   C#m
Losing you is a nightmare fate and to me it's new
F#m      G#m         A                  B    Bsus4
Never before did you see me begging for more


   [Chorus]
E               C#m
Kisses of fire, burning, burning
A                   B
I'm at the point of no returning
E               C#m
Kisses of fire, sweet devotions
A                      B     G#m
Caught in a land-slide of emotions
C#m                       A                                E
I've had my share of love affairs but they were nothing compared to this
B   E                          A                        B
Oh, I'm riding higher than the sky and there is fire in every kiss
C#m       B
Kisses of fire
C#m       C7
Kisses of fire


   [Chorus]
F               Dm
Kisses of fire, burning, burning
Bb                  C
I'm at the point of no returning
F               Dm
Kisses of fire, sweet devotions
Bb                      C
Caught in a land-slide of emotions


   [Outro]
F               Dm
Kisses of fire, burning, burning
Bb                   C
(I'm at the point of no returning)
F               Dm
Kisses of fire, sweet devotions
Bb                      C
(Caught in a land-slide of emotions)
F               Dm
Kisses of fire, burning, burning
Bb                  C
I'm at the point of no returning
F               Dm
Kisses of fire, sweet devotions
Bb                     C
Caught in a land-slide of emotions

Sprawl Ii Mountains Beyond Mountains Acoustic chords – Arcade Fire

 Standard Tuning EADGBe 


Intro:  D# 

Verse 1: 

 D# Cm G# D# 
They heard me singin and they told me to stop, quit these pretentious things and just punch the clock
 D# Cm G# D# 
These days my life, I feel it has no purpose, but late at night the feelings swim to the surface
 D# Cm G# D# 
Cause on the surface the city lights shine, they're calling at me, come and find your kind
 D# Cm G# D# 
Sometimes I wonder if the world's so small, that we can never get away from the sprawl


Chorus 1:

 G# D# G# D# G# D# 
Living in the sprawl, dead shopping malls rise like mountains beyond mountains
                Cm G# D# 
And there's no end in sight....I need the darkness, someone please cut the lights!


Verse 2:

 D# Cm G# D# 
We rode our bikes to the nearest park, sat under the swings and kissed in the dark
 D# Cm G# D# 
We shield our eyes from the police lights, we run away, but we don't know why
 D# Cm G# D# 
On the black river, the city lights shine, they're screaming at us, we don't need your kind
 D# Cm G# D# 
Sometimes I wonder if the world's so small, that we can never get away from the sprawl


Chorus 2:

 G# D# G# D# G# D# 
Living in the sprawl, dead shopping malls rise like mountains beyond mountains
                Cm G# D# 
And there's no end in sight....I need the darkness, someone please cut the lights!


Verse 3: 

 D# Cm G# D# 
They heard me singin and they told me to stop, quit these pretentious things and just punch the clock
 D# Cm G# D# 
Sometimes I wonder if the world's so small, can we ever get away from the sprawl?


Chorus 3:

 G# D# G# D# G# D# 
Living in the sprawl, dead shopping malls rise like mountains beyond mountains
                Cm G# D# 
And there's no end in sight....I need the darkness, someone please cut the lights!






(end)

Rebellion Lies Acoustic chords – Arcade Fire V2

 Standard Tuning EADGBe 


Intro:  A# D# A# Gm 


Verse 1: 

 A# D# A# Gm 
Sleeping is giving in, no matter what the time is 
 A# D# A# Gm 
Sleeping is giving in, so lift those heavy eyelids. 
 A# D# A# Gm 
People say that you'll die, faster than without water. 
 A# D# A# Gm 
But we know it's just a lie, scare your son, scare your daughter.  

 A# D# A# Gm 
People say that your dreams, are the only things that save ya. 
 A# D# A# Gm 
Come on baby in our dreams, we can live our misbehavior. 


Chorus 1: 

 A# D# 
Every time you close your eyes    (Lies, Lies)
 A# D# 
Every time you close your eyes    (Lies, Lies)
 A# D# 
Every time you close your eyes    (Lies, Lies)
 A# D# 
Every time you close your eyes    (Lies, Lies)
 A#m F# 
Every time you close your eyes     (Lies, Lies)
 C# G# 
Every time you close your eyes     (Lies, Lies)


Verse 2: 

 A# D# A# Gm 
People try and hide the night, underneath the covers. 
 A# D# A# Gm 
People try and hide the light, underneath the covers. 

 A# D# A# Gm                   
Come on hide your lovers, underneath the covers, 
 A# D# A# Gm 
come on hide your lovers, underneath the covers. 
 A# D# A# Gm 
Hidin' from your brothers, underneath the covers, 
 A# D# A# Gm 
come on hide your lovers, underneath the covers. 


Verse 3:

 A# D# A# Gm 
People say that you'll die, faster than without water. 
 A# D# A# Gm 
But we know it's just a lie, scare your son, scare your daughter.  
 A# D# A# Gm 
Scare your son, scare your daughter, scare your son, scare your daughter. 


Chorus 2: 

     A# D#       
Now here's the sun, it's alright! (Lies!) 
     A# D# 
Now here's the moon, it's alright! (Lies!)
     A# D#  
Now here's the sun, it's alright! (Lies!)
     A# D#  
Now here's the moon it's alright (Lies!) 
     A#m F# 
But every time you close your eyes. (Lies!) 
 C# G# 
Every time you close your eyes.





(fade out till end)

Neighborhood 1 Tunnels Acoustic chords – Arcade Fire

 Standard Tuning EADGBe 

Intro:  F 

|-1----------1-----------------------|
|-1----------1--------------1--------|
|-2----------2----------0h2---2p0----|
|-3----3-2---3----3-2--------------3-|
|-3--3-------3--3--------------------|
|-1----------1-----------------------| (x2)


Verse 1: 

     F E/F F A Bb F 
And if the snow buries my, my neighborhood.
     F E/F F Am Dm A Bb F  
And if my parents are crying, then I'll dig a tunnel, from my window to yours, 
                                         Am Dm A Bb F 
                               Yeah a tunnel from my window to yours


Verse 2: 

     F E/F F Am Dm A Bb F  
You climb out the chimney, and meet me in the middle, the middle of the town.
     F E/F F Am Dm A Bb F        
And since there's no one else around, we let our hair grow long and forget all we used to know,
                                                  Am Dm A Bb F  
                                       Then our skin gets thicker from living out in the snow


Chorus 1:  

 F Am F Am 
You change all the lead, sleepin' in my head,
 Dm Am Dm C C7 
As the day grows dim, I hear you sing a golden hymn


[play intro] 


Verse 3: 

 F E/F F Am Dm A Bb F  
Then we tried to name our babies, but we forgot all the names that, the names we used to know. 
      F E/F F Am Dm A Bb F  
But sometimes, we remember our bedrooms, and our parent's bedrooms, and the bedrooms of our friends. 
                                               Am Dm A Bb F  
                                     Then we think of our parents, well what ever happened to them?! 


Chorus 2:  

 F Am F Am 
You change all the lead, sleepin' in my head,
 Dm Am Dm C C7 
As the day grows dim, I hear you sing a golden hymn, the song I've been trying to say!
 

Chorus 3: 

 F Am F Am 
Purify the colors, purify my mind purify the colors, purify my mind, 
 Dm Dm C C7 
And spread the ashes of the colors over this heart of mine! 


[jam on the intro]





(end)

I Am The Fire Tabs – Halestorm

 -------------------------------------------------------------------------------
                          I AM THE FIRE - Halestorm
-------------------------------------------------------------------------------
:bgmermkn1



Tuning: Standard E (EADGBe)

So this is just intro verse and chorus because i couldn't make out solo and bridge parts. sorry :(

INTRO

e|---------------------------------------------------------------------------|
B|------------3--------------------------------------------------------------|
G|----5-7----5-----2-4---4-5-------------------------------------------------|
D|---7------4-----3-----5----------------------------------------------------|
A|---------------------------------------------------------------------------|
E|---------------------------------------------------------------------------|

VERSE

e|---------------------------------------------------------------------------|
B|------------3--------------------------------------------------------------|
G|----5-7----5-----2-4---4-5-------------------------------------------------|
D|---7------4-----3-----5----------------------------------------------------|
A|---------------------------------------------------------------------------|
E|---------------------------------------------------------------------------|

PRE-CHORUS

e|---------------------------------------------------------------------------|
B|-------------3-5-----------------------------------------------------------|
G|----5-7-9---5-----2-4-5---4-5-7--------------------------------------------|
D|---7-------4-----3-------5-------------------------------------------------|
A|---------------------------------------------------------------------------|
E|---------------------------------------------------------------------------|

CHORUS

e|---------------------------------------------------------------------------|
B|---------------------------------------------------------------------------|
G|---------------------------------------------------------------------------|
D|-------7-----------------------------------------3--3--3--3--3--3--3--3----|
A|-------7-(let ring)------------------------------3--3--3--3--3--3--3--3----|
E|-------5-----------------------------------------1--1--1--1--1--1--1--1----|
I AM THE FIRE I AM BURNING BRIGHTER ROARING LIKE A STORM AND I AM THE ONE

e|---------------------------------------------------------------------------|
B|---------------------------------------------------------------------------|
G|---------------------------------7-7-7-7-----------------------------------|
D|-5-5-5-5-5-5-5-5-7-7-7-7-7-7-7-7-7-7-7-7-----------------------------------|
A|-5-5-5-5-5-5-5-5-7-7-7-7-7-7-7-7-5-5-5-5-----------------------------------|
E|-3-3-3-3-3-3-3-3-5-5-5-5-5-5-5-5-------------------------------------------|
         I'VE BEEN WAITING FOR SCREAMING LIKE A SIREN 

e|---------------------------------------------------------------------------|
B|---------------------------------------------------------------------------|
G|-7-7-7-7---------------------5---------------------------------------------|
D|-7-7-7-7-3--3--3--3----------5--5------------------------------------------|
A|-5-5-5-5-3--3--3--3----------3--5------------------------------------------|
E|---------1--1--1--1-------------3------------------------------------------|
  I'VE BEEN BURNING BRIGHTER   I AM THE FIRE
e|---------------------------------------------------------------------------|
B|---------------------------------------------------------------------------|
G|---------------------------------------------------------------------------|
D|---------------------------------------------------------------------------|
A|-----------------3-3----------------3-3------------------------------------|
E|--3-5-3-5-3-5-3-5----3-5-3-5-3-5-3-5---------------------------------------|

I Am The Fire chords – Halestorm

 "I Am the Fire" by Halestorm. 
 Lance Justice

I hope you enjoy. Please rate this, comment, and check out some of my other tabs. 

These riffs are very approximate. I'm not good at tabbing  riffs. Additionally, I know this song has two 
guitarists (Lzzy and Joe) on the album, and furthermore, Lzzy's sporting a custom double-neck SG with one 
neck set as a baritone. So, I did the best I could to make it accessible for one guitarist. 

Riff 1:
----==----|--------|--------|--------|
----==1---|----1---|----1---|----1---|
----2-----|--2-----|--1-----|--2-----|
--2-------|2-------|2-------|3-------|
----------|--------|--------|--------|
----------|--------|--------|--------|

Riff 2 
----==----|--------|--------|--------|
----==1---|----1---|----0---|----1---|
----2=----|--2-----|--2-----|--2-----|
--2-==----|3-------|2-------|3-------|
----==----|--------|--------|--------|
----==----|--------|--------|--------|

[Intro:] 

Riff 1

[Verse 1:]

Riff 2
Am I brave enough?
Am I strong enough? 
To follow the desire
That burns from within
To push away my fear
To stand where I'm afraid
I am through with this
                    Am 
Cuz I am more than this
                C 
I promise to myself
                  F 
Alone and no one else
                    G 
My flame is rising higher

[Chorus:]
 G Am 
I am the fire
              F 
I am burning brighter
                C 
Roaring like a storm
             G 
And I am the one 
                   Am 
I've been waiting for
                  F 
Screaming like a siren
                   G 
Alive and burning brighter
          Am 
I am the fire

[Weird transition with no discernible chords] 

[Verse 2:]
Riff 2/Am
I've been sacrificed
My Heart's been cauterized
Hanging on to hope
                 Am 
Shackled by the ghost
                  C 
Of what I once believed
                    F 
That I could never be
                         G 
What’s right in front of me?



[Chorus:]

 G Am 
I am the fire
              F 
I am burning brighter
                C 
Roaring like a storm
             G 
And I am the one 
                   Am 
I've been waiting for
                  F 
Screaming like a siren
                   G Gm 
Alive and burning brighter
          Am 
I am the fire

[Bridge:]

  Am C F E 
I don't believe I'll fall from grace
       Am C Gm F E     
Won't let the past decide my fate
 Am C F E 
Leave forgiveness in my wake
 Am C F Gm F E  
Take the love that I've embraced

 Am 
I promise to myself, 
        C F 
me and no one else
                G 
I am more than this
 Am F G C D 
I am the fire... 

[Chorus/Outro:]

 G Am 
I am the fire
              F 
I am burning brighter
                C 
Roaring like a storm
             G 
And I am the one 
                   Am 
I've been waiting for
                  F 
Screaming like a siren
                   G 
Alive and burning brighter
 Gm Am 
I am the fire!
 C Am 
I am the fire!
 F Gm 
I am the fire!
 G Am 
I am the fire!

Youre On Fire chords – Mxpx V2

 MXPX
You're On Fire
Secret Weapon
2007 Tooth And Nail Records
Submitted by: jeremyunderground41

Key: B

Tuning: Standard EADGBe

Chords used:
 B  -   x24442
 F#  -  244322
 G#m  - 466444
 E  -   022100
 C#m  - x46654


Intro: B-- x2 <-- Riff

then

B--C#m--E---F#- x2


Verse 1:
        B 
You're old enough
    C#m 
to know it's not
      E 
your fault You're
  B 
strong enough to
 C#m 
face your darkest
 E B 
conflict and Now
              C#m 
you've woken from
your nightmare and
 E 
now you're fighting
      B 
back Nothing will
    C#m E 
survive when you attack


Refrain:
 F# 
  This road to
 E F# 
healing  hurts
           E 
more than anything


Chorus 1:
Now that you're
    B 
on fire you're
 C#m 
voice is like
     E 
the wind Now
that you're on
 B C#m 
fire let life
        E 
begin again Now
that you're on
 G#m F# 
fire a new day
       E 
has begun Now
                B 
that you're on fire
 C#m E B C#m E F# 
you are like the sun


Verse 2:
         B 
You've spent some
       C#m 
time along this
          E 
lonesome road With
 B 
no one waiting
 C#m 
for you back at
 E B 
home Just breaking
            C#m 
hearts and living
          E 
free and easy
     B 
The times have
             C#m 
changed and now
             E 
you're not alone


(Repeat Refrain)


Chorus 2:
Now that you're
    B 
on fire you're
 C#m 
voice is like
     E 
the wind Now
that you're on
 B C#m 
fire let life
        E 
begin again Now
that you're on
 G#m F# 
fire a new day
       E 
has begun Now
                B 
that you're on fire
 C#m E 
you are like the sun


Interlude: G#m-F#-E-- x2


Bridge:
 G#m F# 
   More than anything
     E 
I'd like to see
 G#m F# 
   Better brighter
          E 
days for you
             F# 
for you and me


Chorus 3:
Now that you're
    B 
on fire you're
 C#m 
voice is like
     E 
the wind Now
that you're on
 B C#m 
fire let life
        E 
begin again Now
that you're on
 G#m F# 
fire a new day
       E 
has begun Now
                B 
that you're on fire
 C#m E 
you are like the sun
                    B C#m E 
now that you're on fire
                 F# B C#m E F#  B(hold)
now that you're on fire

Fire Tabs – Delirious

 -------------------------------------------------------------------------------
                             FIRE - Delirious?
-------------------------------------------------------------------------------

Tuning: Standard

Intro
e|--------------------------------------------|
B|--------------------------------------------|
G|--------------------------------------------|
D|0h2-2-2-2-2-----------0h2-2-2-2-2-----------|
A|------------0-0-0-0-0-----------------------|
E|----------------------------------3-3-3-3-3-|

e|--------------------------------------------|
B|--------------------------------------------|
G|--------------------------------------------|
D|0h2-2-2-2-2-----------0h2-2-2-2-2-----------|
A|------------0-0-0-0-0-----------------------|
E|----------------------------------3-3-3-3-3-|

e|------------------------|
B|------------------------|
G|------------------------|
D|-------0h2------0h2-----|
A|--------------------0h2-|
E|-0-0-0----0-0-0---------|

e|------------------------|
B|------------------------|
G|------------------------|
D|-------0h2------0h2-----|
A|--------------------0h2-|
E|-0-0-0----0-0-0---------|

Verse
e|------------------------|
B|------------------------|
G|------------------------|
D|-------0h2------0h2-----|  Repeat 4 Times
A|--------------------0h2-|
E|-0-0-0----0-0-0---------|

e|------------------------------|
B|------------------------------|
G|------------------------------|
D|------------------------------|
A|------------------------------|
E|-3---3---3---3---1---1---1---1|

e|------------------------|
B|------------------------|
G|------------------------|
D|-------0h2------0h2-----|  Repeat 6 Times
A|--------------------0h2-|
E|-0-0-0----0-0-0---------|

e|------------------------------|
B|------------------------------|
G|------------------------------|
D|------------------------------|
A|------------------------------|
E|-3---3---3---3---1---1---1---1|

e|------------------------|
B|------------------------|
G|------------------------|
D|-------0h2------0h2-----|  Repeat 2 Times
A|--------------------0h2-|
E|-0-0-0----0-0-0---------|

Prechorus
e|---------------------------------------------------------------------------|
B|---------------------------------------------------------------------------|
G|---------------------------------------------------------------------------|
D|---------------------------------------------0-1------0h2-2-0--------------|
A|-------------------------------------------------------------2-0-----------|
E|-5-5-------------3-3-------------1-1-------------0-0-0-----------3-0-3b-5-5|

e|---------------------------------------------------------------------------|
B|---------------------------------------------------------------------------|
G|---------------------------------------------------------------------------|
D|---------------------------------------------------------------------------|
A|---------------------------------------------------------------------------|
E|-------------3-3-------------1-1-----------/-------------------------------|

Chorus
e|--------------------------------------------|
B|--------------------------------------------|
G|--------------------------------------------|
D|0h2-2-2-2-2-----------0h2-2-2-2-2-----------|
A|------------0-0-0-0-0-----------------------|
E|----------------------------------3-3-3-3-3-|

e|--------------------------------------------|
B|--------------------------------------------|
G|--------------------------------------------|
D|0h2-2-2-2-2-----------0h2-2-2-2-2-----------|
A|------------0-0-0-0-0-----------------------|
E|--------------------------------------------|

That's about it.  Once you get the hang of it, fairly easy.


************************************

| /   slide up
| \   slide down
| h   hammer-on
| p   pull-off
| ~   vibrato
| +   harmonic
| x   Mute note
| b   Bend
| pb  Pre-bend
| br  Bend release
| pbr Pre-bend release
| brb Bend release bend

***************************

Fire Aim Your Arrows High chords Vsaemerge V2

 VersaEmerge - Fire (Aim Your Arrows High)

Intro :  Em C#m C Em C 
Take a look around
           C#m 
Our time's almost running out
 Em C 
Give back what you get,
            C#m 
Uproot questions in your head

       Em C C#m 
The looking-glass is clear...
  Em C C#m 
What you want is near... nearly gone

 Em     
Shoot out all the lights, hold your ground, we'll hit the sky
      C#m C 
It's time you aim your arrows high
 Em 
Take down all the doubt, cast it out, let's do it now
      C#m C 
It's time we aim our arrows high

 Em C 
Sewn into your soul,
          C#m 
This is out of our control
     Em C 
Be who you need to be
            C#m 
There's no other you or me

       Em C C#m 
The looking-glass is clear...
  Em C C#m 
What you want is near... nearly gone

 Em     
Shoot out all the lights, hold your ground, we'll hit the sky
      C#m C 
It's time you aim your arrows high
 Em 
Take down all the doubt, cast it out, let's do it now
      C#m C 
It's time we aim our arrows high

 C Dadd9 Em 
The angst you hold, you got to let it go, let it go!
                                                       G Am 
Said to myself "I'm so alone", but I'm never alone...
                      
I'll walk in war to find the impossible

 B  (799800)
Yes, we're hexed

Stuck in a mess
                    B (799877)
We're all such a wreck!


 Em     
Shoot out all the lights, hold your ground, we'll hit the sky
      C#m C 
It's time you aim your arrows high
 Em 
Take down all the doubt, cast it out, let's do it now
      C#m C 
It's time we aim our arrows high


 Em C#m C 
Shoot out all the lights, shoot out all the lights
 Em C#m C  
Aim your arrows high, aim your arrows high...

Pokemon – Fire Red Theme Tabs by Misc Computer Games

 -------------------------------------------------------------------------------
                             Fire Red Title Screen- Gamefreak
-------------------------------------------------------------------------------
: Cruz.Cruz.71404
 Cruz.Clues

Tuning: Standard tuning


First tab, couldn't find any decent ones here so i decided to tab it myself

e|-----------------------------------------------------------------------------|
B|-----------------------------------------------------------------------------|
G|-----------------------------------------------------------------------------|
D|-----------------------------------------------------------------------------|
A|-0-0-7--0-0-8--0-0-7--0-0-4--0-0-7--0-0-11-12--10--0-0-7--0-0-8--0-0-7-------|
E|-----------------------------------------------------------------------------|

e|---------------------------------------------------------------------------------|
B|---------------------------------------------------------------------------------|
G|--------------------------14-----------------------------------------------------|
D|---------------------------------------------------------------------------------|
A|-0-0-4--0-0-7--0-0-11-12------14--14--14.14.14--14o--14o--11-12-11-12-11-12------|
E|---------------------------------------------------------------------------------|

e|-----------------------------------------------------------------------------|
B|-----------------------------------------------------------------------------|
G|----------9-9p8p7---------------------999999--11-14-11--11.11.11.11.11.11----|
D|----6-9-6---------9999-6-9-----6-9-6-----------------------------------------|
A|-7----------------------------7----------------------------------------------|
E|-----------------------------------------------------------------------------|

e|-----------------------------------------------------------------------------|
B|-----------------------------------------------------------------------------|
G|-14-11-9-989898--------------------------------------------------------------|
D|-----------------------------------------------------------------------------|
A|-----------------14--14--14.14.14--14o--14o----------------------------------|
E|-----------------------------------------------------------------------------|


************************************

| /   slide up
| \   slide down
| h   hammer-on
| p   pull-off
| ~   vibrato
| +   harmonic
| x   Mute note
| b   Bend
| pb  Pre-bend
| br  Bend release
| pbr Pre-bend release
| brb Bend release bend

************************************

The Misery Index chords – Boy Sets Fire

 DROP D TUNING :STANDARD PITCH

   Intro:4thfret :  F# ,  E , (open( D ),  C#  (Astring power chord)
 String picking melodey dstring
 (4 6 7 2slide to 4) repeat
 F# 
My life
                                          E 
Charred remains of a flame that's burned out
                                    D 
My lips move but they won't make a sound
                              C# 
I stand motionless, eyes to the ground
              F# 
Back for more
                       E 
With reopened scars i remain
                                 D 
Battered savagely, knees start to shake
                                 C# 
I just stand there, I take it, I wait
(chorus)
 C#  struming    (pause)   D E   
I'm just waiting for time to erase
 E F# G# A D    
And the world to change
            E F# 
Until then I will strive for nothing more
                       D E 
I'll just wait for my heart to break
     F# G# A D E F# E D C# 
And arise from ash, reborn   reborn
 *String melody on dstring*
 F# 
Look at me
                            E 
Cut my eye and allow me to see
                               D 
What my life has become on my knees
                                  [C# build up]
oh I hear the screams, I watch myself bleed

But ? can't feel a thing
          F# 
What am I
                           E 
But a victim unwilling to rise
                                 D 
Wretched shell of a man and his pride
                                      C# 
Why stop living, I'm just waiting to die (back to chorus)
*intermission slow part*A barr 7th fret with picking {7,7,9} {0,0,9-7} 
A      Asus(7th fret n 9th fret 3rd finger) open D while(7 to 9) on d string
My life it's so                              familiar
     Asus D 
Why lie when everything's the same
        3x( B )(9fret)3xB 3xD            3xC#
But who am I, and what am I waiting for anyway....(chorus)
 F# E D E F# 
And I will die waiting to be reborn....reborn         tabed by 

marshallcrowner

Fire chords – Augustana V3

 Augustana
Fire
Can't Love Can't Hurt
2008 Vagrant Records
Submitted by: jeremyunderground41

Key:  F 

Tuning: Standard EADGBe

Chords used:
 F  -   133211
 C/E  - 032xx
 Dm  -  xx0231
 Bb  -  x13331
 Am  -  x02210
 C  -   x32010


Intro: F-C/E-Dm-B-- x2


Verse 1:
 F C/E Dm Bb 
  No it don't  come easy
 F C/E Dm Bb 
  No it don't  come fast
 F C/E 
  Lock me up
   Dm Bb 
inside your garden
 F C/E 
  Take me to
     Dm Bb 
the riverside


Chorus 1:
 Am Bb (hold)
Fire burning me up
   Am Bb (hold)
Desire  take me so much
 Am Bb (hold)            F C/E Dm Bb F C/E Dm Bb 
higher and leaving me whole


Verse 2:
 F C/E 
  There you were in
 Dm Bb 
  in your black dress
 F C/E 
  Moving slow
 Dm Bb 
  to the sadness
 F C/E 
  I could watch you
 Dm Bb 
dance for hours
 F C/E 
  I could take
     Dm Bb 
you by my side


Chorus 2:
 Am Bb (hold)
Fire burning me up
   Am Bb (hold)
Desire  take me so much
 Am Bb (hold)
higher and leaving me


Interlude: Am-Dm-Bb-F- x3, C--


Chorus 3:
 Am Bb 
Fire turning me on
   Am Bb 
Desire  take me so much
 Am Bb (hold)
higher and leaving me
 F C/E Dm Bb  x4  F (hold)
whole

Fire On The Mountain chords – Grateful Dead

 B A 
Long distance runner, what you standin there for?
 B A 
Get up, get out,          get out of the door
 B A 
Your playin cold music on the barroom floor
 B A 
Drowned in your laughter and dead to the core.
 B A 
There's a dragon with matches that's loose on the town
 B A 
Takes a whole pail of water just to cool him down.

 B A 
Fire! fire on the mountain!

 B A 
Almost ablaze still you don't feel the heat
 B A 
It takes all you got just to stay on the beat.
 B A 
You say it's a livin, we all gotta eat
 B A 
But you're here alone, there's no one to compete.
 B A 
If mercys a busness, I wish it for you
 B A 
More than just ashes when your dreams come true.

 B A 
Fire! fire on the mountain!

 B A 
Long distance runner, what you holdin out for?
 B A 
Caught in slow motion in a dash for the door.
 B A 
The flame from your stage has now spread to the floor
 B A 
You gave all you had. why you wanna give more?
 B A 
The more that you give, the more it will take
 B A 
To the thin line beyond which you really can't fake.

 B A 
Fire! fire on the mountain!

Im On Fire Tabs by Dwight Twilley Band

 -------------------------------------------------------------------------------
                        I'M ON FIRE - Dwight Twilley Band
-------------------------------------------------------------------------------

Tuning: Standard E-A-D-G-B-E

There are a couple of riffs missing near the end that I may add later, 
but this tab provides a good playing version.


e|---------------------------------------------------------------------------|
B|--/8--/8--7--5-------------------------------------------------------------|
G|--/9--/9--9--7--7--5-------------------------------------------------------|
D|----------------9--7--7------------------------------------2---------------|
A|----------------------9------7--7--5-----------------2--4-----4--2---------|
E|--------------------------------------7--5--2--0--0------------------------|


           E
e|---------------------------------------------------------------------------|
B|---------------------------------------------------------------------------|
G|---------------------------------------------------------------------------|
D|--------------------------------------------2--2---------------------------|
A|---------------------2--4--------------2--4-------4--3--2------------------|
E|---------0--0--3--4---------0--0--3--4---------------------4---------------|
  Got your lady on the line


e|---------------------------------------------------------------------------|
B|---------------------------------------------------------------------------|
B|---------------------------------------------------------------------------|
G|---------------------------------------------------------------------------|
D|--------------------------------------------2--2---------------------------|
A|---------------------2--4--------------2--4-------4--3--2------------------|
E|---------0--0--3--4---------0--0--3--4---------------------4---------------|
  Got your name on the cover

              
e|---------------------------------------------------------------------------|
B|---------------------------------------------------------------------------|
G|---------------------------------------------------------------------------|
D|----------------------------2---4-----------------2--4---------------------|
A|------------0---0---3---4-------------0--0--3--4---------------------------|
E|---------------------------------------------------------------------------|
  Though your friends are ninety-nine

        E
e|---------------------------------------------------------------------------|
B|---------------------------------------------------------------------------|
G|---------------------------------------------------------------------------|
D|---------------------------------------------------------------------------|
A|--------------------------2---4--------------------------------------------|
E|----------0---0---3---4----------------------------------------------------|
  Honey you ain't got not lover

      A                                   E
e|---------------------------------------------------------------------------|
B|---------------------------------------------------------------------------|
G|---------------------------------------------------------------------------|
D|-----------------------------------------------------------2--2------------|
A|-----------------------------------------------------2--4--------4--3--2---|
E|-----------------------------------------0--0--3--4-----------------------4|
  And you ain't you ain't you ain't got no lover

      A                                   E
e|-----------------------------------------/10--/10---9--7--5--3-------------|
B|-----------------------------------------/12--/12--10--8--7--5-------------|
G|---------------------------------------------------------------------------|
D|---------------------------------------------------------------------------|
A|---

Hearts On Fire chords – Eddie Rabbitt

 Intro:  D  -  A  -  D D Em 
We should't be here tonight,  But here we are
              A D 
I shouldn't taste the thrill of your kiss,  here in the dark
                 D                                 G (STOP) / /
Cause we're not free to be,  this free or go this far


[Chorus]
            D G 
Hearts on fire, Burnin' for each other
         D A 
Going down in flames,  Somewhere in the night
           D G 
Stealin' love again,  when we're together
 G D A Bm  -  A  -  G ,  G  -  E  -  D 
It's too late now,  we can't pull out,  hearts on fire


Lead Ride:  D  -  A  -  D D Em 
You shouldn't feel this good in my arms,  but you do
                A D 
I shouldn't whisper these things in your ear,  but there true
                          D                 G  (STOP) / / 
So wrong or right,  I'll stay tonight with you


Repeat Chorus:

Outro:  D  -  A  -  D

I See Fire Tabs by Ed Sheeran V2

 Tab of Ed Sheeran's song, music theme from Hobbit: The Desolation of Smaug. Great great song.
This tab contain all the solos of the song transcribed for acoustic guitar: the bass, 
the real guitar, the cello and the violin part. (Ear-transcribed)

The real guitar and the violin part can be played with the capo on the 6th fret. But the 
cello and bass part will be play without capo.

Andante = 76
4/4

Solo Guitar:
Capo: 6
(Played in intro, after the verse and the 1st chorus)
e|-------------------------x----|----------x--------------x-----|
B|--5----------------0h1---x----|--3-------x--------------x-----|
G|--2h4p2-p0-----0---0-----x-- -|--0p2--2--x-----0--------x-----|
D|-------------2-----0h2---x----|--0----0--x-----2--------x-----|
A|-------------------3-----x----|--0-------x-----2--------x-----|
E|--0----------------------x----|----------x-----0----0---x-----|

Verses and chorus guitar pattern: (just change the chords)
Capo: 6
e|------x-----------x---|------x--------x---| (You can strum in the chorus
B|------x-----------x---|--3---x---1----x---|   and add a D note on the e
G|--0---x----0------x---|--2---x---0----x---|   string in all the chords.
D|--2---x----0------x---|--0---x---2----x---|
A|--2---x----2------x---|--0---x---3----x---|
E|--0---x----3------x---|------x--------x---|

Solo Violin:
Capo: 6
(Played after the 1st chorus)
e|-------------|------------------------|-------------|---------------------|
B|-0--3--1~--0-|------------------------|-0--3--1~--0-|---------------------|
G|-------------|-2--2p0--0---0--\2-\5~--|-------------|-2--2p0--0--0--\2--0-|
D|-------------|--------2---------------|-------------|-------2-------------|
A|-------------|------------------------|-------------|---------------------|
E|-------------|------------------------|-------------|---------------------|

Solo Cello:
Without capo
(Played after the 1st chorus with the violin)
e|-------------|-------------------------|-----------|----------------------|
B|-------------|-------------------------|-----------|----------------------|
G|-------------|-------------------------|-----------|----------------------|
D|-------------|-------------------------|-----------|----------------------|
A|-----8-------|---------------------4~--|-----8-----|-----------------4----|
E|--9-----6~---|-9-9p6--4--6---4--6------|--9----6~--|-9-9p6--4--6---4---6~-|

Bass
Without capo
(Verses)

OBS: the D# note (11th freth) may be played one octave lower than notated.
But you can't do it with a guitar, only with a bass.
So I put the note higher than the correct.
e|--------------|--------------|--------------|-----------------------------| (The last
B|--------------|--------------|--------------|-----------------------------| verse before
G|--------------|--------------|--------------|-----------------------------| the chorus
D|--------------|--------------|--------------|-----------------------------| you play the
A|--1--4--------|-1--4---------|-1--4---------|--------------| bar 2 times--|
E|--------4--2--|-------4--11--|-------4--11--|--11---0--2------------------|

(Chorus)

e|-------------------|--------|           |------------------|----------|
B|-------------------|--------|   3x,     |------------------|----------|
G|-------------------|--------|   Then:   |------------------|----------|
D|----------------x--|--------|           |---------------x--|----------|
A|--1--3--4-------x--|----1~--|           |--1--3--4------x--|----------|
E|------------2~--x--|-4~-----|           |-----------2~--x--|-4~--11~--|




Tab Legend
----------------
h  - hammer-on
p  - pull-off
\  - slide up
/  - slide down
~  - vibrato
x  - muted

----------------
Lyrics
(Capo: 6)

Oh misty eye of the mountain below
Keep careful watch of my brothers' souls
And should the sky be filled with fire and smoke
Keep watching over Durin's sons

(Solo guitar)

             Em        G
If this is to

Shes On Fire solo Tabs by Train

 -------------------------------------------------------------------------------
                             SHE'S ON FIRE - Train
-------------------------------------------------------------------------------
: firebowl99

Tuning: Standard

Solo

e|-----------------------------------------|
B|--9---7-------7--------------------------|
G|---------9-------9--------9--------------|
D|--9---9--9----9--9---9h11---11p9---------|
A|-----------------------------------------|
E|-----------------------------------------|

e|-----------------------------------------|
B|--9---7-------7--------------------------|
G|---------9---------9---------------------|
D|--9---9--9----9----9---------------------|
A|-----------------------------------------|
E|-----------------------------------------|

e|-----------------------------------------|
B|-9h10p9---------------10p9h10p12b--------|
G|--------11p9--------9--------------------|
D|---------------9h11----------------------|
A|-----------------------------------------|
E|-----------------------------------------|

e|-0-0--0----------------------------------------|
B|-7-9--7------------------------10-9-10/12~ ----|
G|--------9--------9-----------------------------|
D|------------9h11----------11p9-----------------|
A|-----------------------------------------------|
E|-----------------------------------------------|




************************************

| /   slide up
| \   slide down
| h   hammer-on
| p   pull-off
| ~   vibrato
| +   harmonic
| x   Mute note
| b   Bend
| pb  Pre-bend
| br  Bend release
| pbr Pre-bend release
| brb Bend release bend

************************************

Shes On Fire chords – Train

 -------------------------------------------------------------------------------
                             SHE'S ON FIRE - Train
-------------------------------------------------------------------------------


Intro:
 E  -  Asus2  -  E  -  Asus2 E Asus2 E Asus2 
Well this is just between us but between us let's get high
 E Asus2 E Asus2 
In pictures I have seen her and to see her is truly fine
       E Asus2 
She's on fire
       E Asus2 
She's on fire 

Interlude:
 E  -  Asus2  -  E  -  Asus2 E Asus2 E Asus2 
Flowers in her evening set I get the feeling she won't forget
 E Asus2 E Asus2 
And there's times you'd long to be her but to be her is surely blinding

       E Asus2 
She's on fire
       E Asus2 
She's on fire
       C#m 
She's on to me
         F# 
And I'm over me
       E Asus2 
She's on fire 

 Bsus2 Asus2 Bsus2 Asus2 
And if I could be inside her light
 D Dsus2/C D C 
I would steal enough to make my way into the night
 Bsus2 Asus2 G#m Asus2 
And if I could be inside her light I might just find I'd be alright

Solo:
 E  -  Asus2  -  E  -  Asus2  -  E  -  Asus2  -  C#m  -  Asus2 E E6 E E6 
Well it's not just a daydream if you decide to make it your life, your life
 E Asus2 C#m Asus2 
And this is not between us but between us let's keep getting back to where it's from

       E Asus2 
She's on fire
       E Asus2 
She's on fire
       C#m 
She's on to me
         F# 
And I'm over me
       E Asus2 
She's on fire
       C#m 
She's on to me
         F# 
And I'm over me
       A 
She's over me
         F# 
And I'm on to her
       E Asus2 
She's on fire
       E Asus2 
She's on fire
       E Asus2 
She's on fire