Tag: first

For The First Time Chords by Mac DeMarco

Artist:Mac DeMarco
Song  :For the First Time 

Chords arranged for guitar from synths. The suggested chord shapes below sound good on guitar. 
Also the Eb6 can also be played as a Ebmaj7. 

e|---------|---------|----3----|---(6)---|----3----|----3----|
B|----9----|---(4)---|----5----|----6----|----3----|----5----|
G|----8----|----5----|----3----|----8----|----3----|----3----|
D|----10---|----5----|----5----|----8----|----3----|----5----|
A|----8----|----6----|----x----|----x----|----5----|----3----|
E|---------|---------|----3----|----6----|----3----|---------|
     Fm7       Eb6       C7/G     Bbsus4      Gm7       C7        


[Verse 1]
Fm7             
While she's been away
                            Eb6   
Living day-to-day has been tough
Fm7
I found her at my side
                            Eb6   
Simply being alive's been rough
             Fm7
You know she won't be gone forever
                                Eb6    
There are many times I find it feels that way
             Fm7
And I'm not trying to forget her
                                  C7/G
Just understand how I'll be feeling on that day

[Chorus]
                      Fm7           Bbsus4     Gm7   C7
It's just like seeing her for the first time again
                      Fm7           Bbsus4     Eb6
It's just like seeing her for the first time again

[Verse 2]
Fm7
The time she's not around
                               Eb6   
Somewhere out-of-town has been hard
     Fm7                                                  Eb6   
But somehow this old heart found time to work it out this far
       Fm7                        
No, I know she's coming home soon
                                  Eb6   
There are times I find it hard to feel that way
          Fm7                       
It's not inside me to forget her
                                  C7/G
Just understand how I'll be feeling on that day

[Chorus]
                      Fm7           Bbsus4     Gm7   C7
It's just like seeing her for the first time again
                      Fm7           Bbsus4     Eb6   C7
It's just like seeing her for the first time again
                      Fm7           Bbsus4     Gm7   C7
It's just like seeing her for the first time again
                      Fm7           Bbsus4     Eb6
It's just like seeing her for the first time again


Tabbed by Trystan H

My Silver Lining chords – First Aid Kit V3

 First Aid Kit - My Silver Lining

Tuning: Standard

! CAPO on 2nd fret ! 

That is what they actually play live :)

! CAPO on 2nd fret !

[Intro:]
 Em 

[Verse:]
 Em G 
I don't want to wait anymore I'm tired of looking for answers
 D Em 
   Take me some place where there's music and there's laughter
 Em G 
   I don't know if I'm scared of dying but I'm scared of living too fast, too slow
   D Em 
Regret, remorse, hold on, oh no I've got to go

 Em G 
   There?s no starting over, no new beginnings, time races on
 D Em 
   And you've just gotta keep on keeping on
 Em G 
   Gotta keep on going, looking straight out on the road - can't worry 'bout
 D Em 
   what's behind you or what's coming for you further up the road
 Em G 
   I try not to hold on to what is gone,   I try to do right what is wrong
 D Em         
   I try to keep on keeping on    
 G D Em 
   Yeah I just keep on keeping on


[Chorus:]
 C G D Em  
  I hear a voice calling,   calling out for me
 C G D Em 
  These shackles I've made in an attempt to be free
 C G D Em  
  Be it for reason,   be it for love
 C G D C G Em    
  I won't take   the easy road

 Em G D Em Em G D Em 

[Verse:]
 Em G 
  I've woken up in a hotel room,   my worries as big as the moon
 D Em 
  Having no idea who or what or where I am
 Em G 
  Something good comes with the bad,   a song's never just sad
 D Em 
  There's hope, there's a silver lining

 G D Em 
  Show me my   silver lining
 G D Em 
  Show me my   silver lining


[Chorus:]
 C G D Em  
  I hear a voice calling,   calling out for me
 C G D Em 
  These shackles I've made in an attempt to be free
 C G D Em  
  Be it for reason,   be it for love
 C G D C G Em    
  I won't take   the easy road

   Em G D Em               
I won't take the easy road the easy road, the easy road      oh oh
   Em G D Em                
I won't take the easy road the easy road, the easy road      oh oh

 Em G D Em Em G D Em G D Em 
  Show me my   silver lining, I try to keep on keeping on
 G D Em 
  Show me my   silver lining, I try to keep on keeping on
 G D Em 
  Show me my   silver lining, I try to keep on keeping on
 G D Em 
  Show me my   silver lining, I try to keep on keeping on

Dairybeat – First Of May – Bee Gees – Cover chords

 DAIRYBEAT: FIRST OF MAY (B., M. & R. Gibb) 4/4 - 66

|     |: Measure with Chord(s) of 4-Counts
/      : Breaks


INTRO: | D     | G     | D     | A 

VERSE 1:

    | D                          | F#m 
When I was small, and Christmas trees were tall.

  | G D              | A 
We used to love  while others used to play.

     | D                        | F#m          |
Don't ask me why, but time has passed us by.

 G D             | A 
Someone else moved in from far a-way.

CHORUS:

   | G                          | D 
Now we are tall, and Christmas trees are small.

   | Em                         | D D7 
And you don't ask  the time of day.

   | G                        | D 
But you and I, our love will never die.

   | Em G            | D A   |
But guess who'll cry,  come first of May.

VERSE 2:

 D                           | F#m            |
  The apple tree, that grew for you and me.

 | G D              | A 
I watched the apples falling one by one.

   | D                    | F#m 
And I recall, the moment of them all.

   | G D                  | A     |
The day I kissed your cheek and you were gone.

CHORUS:

   | G                          | D 
Now we are tall, and Christmas trees are small.

   | Em                         | D D7 
And you don't ask  the time of day.

   | G                        | D 
But you and I, our love will never die.

   | Em G               | D A   |
But guess who'll cry,  come first of May.

OUTRO:

      D                          | F#m             |
When I was small, and Christmas trees were tall.
 
                              /
 G D               | A 
Do do do,  do do,  do do,  do do.

      /                        /
     | D                        | F#m          |
Don't ask me why, but time has passed us by.

                                 /
 G D             | A 
Someone else moved in from far a-way.


Tab by: DAIRYBEAT (André H. Hofman, Purmerend, Netherlands).
FREE* Dairybeat ORIGINALS, COVERS and BACKING TRACKS on:
http://www.soundclick.com/bands/default.cfm?bandID=137360&content=music

https://www.youtube.com/user/Dairybeat

The First Noel chords – Melanie

 Melanie - The First Noel


## NOTE: ~ ~ = walk down from  C  to  G  ##


INTRO:  G Em7 C G C G C   ~  ~   G Em7 C G 
The First Noel, the angel did say
        C G C       ~  ~     G 
Was to certain poor shepherds, in fields as they lay
    G Em7 C G 
In fields where they lay, keeping their sheep
      C G C  ~ ~   G  
On a cold winter's night that was so deep


CHORUS:
   Em7 G C G 
Noel, Noel, Noel, Noel
 C G C  ~  ~  G Em7 
Born is the king of I-is-rael


    G Em7 C G 
As they looked up and saw a star
         C G C  ~  ~     G  
Shining in the East beyond them far
     G Em7 C G 
And to the earth it gave great light
     C G C  ~ ~    G 
And so it continued both day and night


CHORUS:
   Em7 G C G 
Noel, Noel, Noel, Noel
 C G C  ~  ~  G Em7 
Born is the king of I-is-rael


     G Em7 C G 
And by the light of that same star
       C G C  ~ ~   G  
Three wise men came from planet far
        G Em7 C G 
And to seek for a king was their intent
        C G C  ~  ~   G 
And to follow the star wherever it went


CHORUS:
   Em7 G C G 
Noel, Noel, Noel, Noel
 C G C  ~  ~  G  
Born is the king of I-is-rael


CHORUS:
   Em7 G C G 
Noel, Noel, Noel, Noel
 C G C  ~  ~  G  
Born is the king of I-is-rael

The First Time Ever I Saw Your Face chords – The Moon Loungers

 The First Time Ever I Saw Your Face by Roberta Flak - Acoustic cover by the Moon Loungers

YouTube video - https://www.youtube.com/watch?v=e-OI6PZI4PM


CHORDS

    G Am7 D7 G/F# Bm7 Cadd9 F Em7 
 ______      x_____       x_____       _x____       x_____       x_____       ______       ______
 ||||||      ||||♦|       ||||||       ||||||       ||||||       ||||||       ╪╪╪╪╪╪       ||||||
 |♦||||      ||♦|||     3 ||||♦|       ♦|||||       |♦|♦||       ||♦|||       |||♦||       |♦♦|||
 ♦|||♦♦      ||||||       ||♦|||       ||||♦♦       ||||♦|       |♦||♦♦       |♦♦|||       ||||♦♦
 ||||||      ||||||       |♦|♦||       ||||||       ||||||       ||||||       ||||||       ||||||
 ||||||      ||||||       ||||||       ||||||       ||||||       ||||||       ||||||       ||||||



INTRO

 G Am7 D7   (x 2)


VERSE 1

 Am7 D7 G G/F# Em7 Bm7 Cadd9 
The first time ever I saw your face          I thought the sun rose in your eyeeeees
         D7 G F G 
And the moon and stars were the gifts you gave to the dark and the empty skies


VERSE 2

 Am7 D7 G G/F# Em7 Bm7 Cadd9 
The first time ever I kissed your mouth          and felt your heart beat close to miiiine
           D7 G F G 
Like the trembling heart of a captive bird that was there at my command


VERSE 3

 Am7 D7 G G/F# Em7 Bm7 Cadd9 
And the first time ever I lay with you          I felt your heart beat close to miiiine 
        D7 G F G 
And I knew our joy would fill the earth and last till the end of time
 

ENDING

 Am7 D7 G F G F G 
The first time ever I saw your faaaaace, your faaaaace, your faaaaace

Heaven Knows chords – First Aid Kit V2

 Heaven knows

Capo 3

 G *                                       C *
You've spent a year staring into a mirror
         G *                                 D *
Another one trying to figure out what you saw
 G *                          C *            G *
Paid so much attention to what you're not
         G *     D *           G *
You had   no idea who you  a re


(Chorus)
            G 
But heaven knows, knows
 C G 
  That you're lying
           G 
As far as heaven goes, heaven goes
 C D 
  I just stopped trying


(Interlude)
 G G G G 


(Verse)
           G C 
Now I can hear every word you're saying
              G D 
I'm just not sure I want to know
         G C G 
You can play the fool and still follow the rules
        G D G 
If you seem like you care or you're good


(Chorus)
            G 
But heaven knows, knows
 C G 
  That you're lying
           G 
As far as heaven goes, heaven goes
 C D 
  I just stopped trying



(Interlude)
 G G 


(Solo)
 G C G C G C D G 


(Middle Eight)
 Em C 
  You've lost yourself in others' 
 D G 
  Expectations of you
 Em C 
  Now you prefer this cari-
   D G 
cature before being true
                                         Em C 
  But you're better than that,   you're so much better than that
 D G 
  I know you better than that

(Verse)
           G *                    C *
Now baby, tell me, what's your story?
        G *                D *
Do you think it'll ever sell?
     G C G 
And what'll you do if it comes down to it?
       G D G 
If it all goes STRAIGHT TO HELL?


(Chorus)
            G 
But heaven knows, knows
 C G 
  That you're lying
           G 
As far as heaven goes, heaven goes
 C D 
  I just stopped trying
  

 G 
Heaven knows (heaven knows)
        C 
Heaven knows
 G 
Heaven knows (heaven knows)
        C G 
Heaven knows,  that you're
 C C C D  
Ly---Ly---ly--ing

OUTRO: (slowly)
 G C G D G C G D G 

* - one strum

For The First Time In Forever chords – Frozen V3

 I used a piano to figure out the chords- not sure how it sounds on guitar



{Verse: }
           F Bb 
Anna: The window is open, so's that door
   Fadd9 C 
I didn't know they did that anymore
     F Bb C 
Who knew we owned a thousand salad plates?
     F Bb 
For years I've roamed these empty halls
 Fadd9 C         
Why have a ballroom with no balls?
 Dm C Bm7       
Finally they're opening up the gates

             C F 
There'll be actual real live people
 C Am 
It'll be totally strange
 Eb C 
Wow, am I so ready for this change

{Chorus: }
                F Bb 
Cause for the first time in forever
                 C F Em 
There'll be music, there'll be light
         Dm Am 
For the first time in forever
         Eb C 
I'll be dancing through the night

       Dm C 
Don't know if I'm elated or gassy
         Bm7 Bb 
But I'm somewhere in that zone
               Fm Bb   
Cause for the first time in forever
 C                     
   I won't be alone

Bbsus  F  x3

I can't wait to meet everyone! (gasp)
What if I meet... the one?

{Key change: }

   F# B 
Tonight imagine me gown and all
 F#add9 C# 
Fetchingly draped against the wall
     F# B C# 
The picture of sophisticated grace
        F# B 
Oof! I suddenly see him standing there
   F#add9 C# 
A beautiful stranger, tall and fair
   Ebm C# Cm 

I wanna stuff some chocolate in my face

             C# F# 
But then we laugh and talk all evening,
           C# Bbm 
Which is totally bizarre
 E C# 
Nothing like the life I've lead so far

          F# B 
For the first time in forever

                 C# F# F#6 
There'll be magic, there'll be fun
         Ebm Bbm 
For the first time in forever
            E C# 
I could be noticed by someone

       Ebm C# 
And I know it is totally crazy
    Cm7 B 
To dream I'd find romance
             F# B 
But for the first time in forever
 C# F# F#6 
    At least I've got a chance

       Eb Bbm 
Elsa: Don't let them in, don't let them see
 C# G# G#m 
Be the good girl you always have to be
 Eb Bbm C# 
Conceal, don't feel, put on a show
       G# G#m Eb             
Make one wrong move and everyone will know

       F#                  
Elsa: But it's only for today 
                          
Anna: It's only for today
        G#              
Elsa: It's agony to wait
                    
Anna: It's agony to wait
        
      Am C D                              
Elsa: Tell the guards to open up the gate

Anna: The gate
               G C 
Anna For the first time in forever
Elsa: Don't let them in, don't let them see

                       D G G6 
Anna: I'm getting what I'm dreaming of
Elsa: Be the

First Time intro Tabs by Jonas Brothers

 hey guys i checked and there's no one at the moment that uploaded the intro to first 
time so i tabbed it in a few minutes by ear and its very easy and catchy! i recommend 
playing it on electric guitar with distortion.
this intro is for the live version of this song in album "V" and i hope you'll like it! :)

Guitar 2:

e|----------------|----------------|----------------|----------------|
B|-/8--7-5-3------|-/8--7-5-3------|----------------|----------------|
G|----------------|------------4---|----------------|----------------|
D|----------------|----------------|----------------|----------------|
A|----------------|----------------|----------------|----------------|
E|----------------|----------------|----------------|----------------|

Guitar 1: (i think that maybe this part is played by keyboard)

e|----------------|----------------|----------------|----------------|
B|----------------|----------------|----------------|----------------|
G|----------------|----------------|----------------|----------------|
D|-88-6-88--------|-88-6-88--------|----------------|----------------|
A|----------------|----------------|----------------|----------------|
E|----------------|----------------|----------------|----------------|

guitar 3:

e|----------------|----------------|----------------|----------------|
B|----------------|----------------|----------------|----------------|
G|----------------|----------------|----------------|----------------|
D|----------------|----------------|----------------|----------------|
A|----------------|----------------|----------------|----------------|
E|-8888-8h10------|-10-10-10-10----|-000000000------|----------------|

for the verses and chorus i saw here a fine tab so just look around its easy

just listen to the song for the rhytm and you'll be fine i believe this tab is 
correct... and please rate 5 stars!!!

Sifu Mungu chords – First Call

 D G9 
Oh Sifuni Mungu
 D G9 
Oh Sinfuni Mungu
 D           G0
Oh Sinfuni Mungu
 G9 D 
Sinfuni Mungu


 C Dm F     
Viumbe vyote vya mungu wetu
 C F 
Na mfalme wetu
 C Dm F  
Viumbe vyote vya mungu wetu
 C F 
Na mfalme wetu


 F C D G  
Paseni sauti ili nasi Mwimbe
 F C D G  
Paseni sauti ili nasi Mwimbe

 D G9 
Oh Sifuni Mungu
 D G9 
Oh Sinfuni Mungu
 D G9 
Oh Sinfuni Mungu
 G9 D 
Sinfuni Mungu

One Of These Things First Tabs by Nick Drake

 Nick Drake - Milk and Honey

TUNING: BEBEBE  - highest two strings remain while the bottom 4 are tuned down.

Intro:

E:------------------------------------|
B:------------------------------------|
E:---4-4-----5-5-----7-7-----6--5-----|  x4
B:--0-0-0---2-2-2---4-4-4---3--2------|
E:-0-------0-------0-------0--0-------|
B:------------------------------------|


Verse:

E:------------------------------------|
B:------------------------------------|
E:---4-4-----5-5-----7-7-----6--5-----|  x4
B:--0-0-0---2-2-2---4-4-4---3--2------|
E:-0-------0-------0-------0--0-------|
B:------------------------------------|

E:------------------------------------------------------------------------|
B:------------------------------------------------------------------------|
E:---0-0-----0-0-----0-0-----0-0---------3-3-----3-3-----3-3-----3-3------|
B:--5-5-5---5-5-5---5-5-5---5-5-5-------3-3-3---3-3-3---3-3-3---3-3-3-----|
E:-5-------5-------5-------5-----------3-------3-------3-------3----------|
B:------------------------------------------------------------------------|

E:------------------------------------|
B:------------------------------------|
E:---4-4-----5-5-----7-7-----6--5-----|  x2
B:--0-0-0---2-2-2---4-4-4---3--2------|
E:-0-------0-------0-------0--0-------|
B:------------------------------------|

E:------------------------------------|
B:------------------------------------|
E:---3-3-----3-3-----0-0-----0-0------|
B:--3-3-3---3-3-3---2-2-2---2-2-2-----|
E:-3-------3-------2-------2----------|
B:------------------------------------|

E:------------------------------------|
B:------------------------------------|
E:---4-4-----5-5-----7-7-----6--5-----|  x1
B:--0-0-0---2-2-2---4-4-4---3--2------|
E:-0-------0-------0-------0--0-------|
B:------------------------------------|

E:------------------------------------|
B:------------------------------------|
E:---3-3-----3-3-----0-0-----0-0------|
B:--3-3-3---3-3-3---2-2-2---2-2-2-----|
E:-3-------3-------2-------2----------|
B:------------------------------------|

E:------------------------------------|
B:------------------------------------|
E:---4-4-----5-5-----7-7-----6--5-----|  x1
B:--0-0-0---2-2-2---4-4-4---3--2------|
E:-0-------0-------0-------0--0-------|
B:------------------------------------|

Chorus:

E:--------------------------------------------------------------------------------|
B:--------------------------------------------------------------------------------|
E:---0-0-----0-0-----0-0-----0-0---------0----0----0----0----0----0----0----0-----|
B:--5-5-5---5-5-5---5-5-5---5-5-5-------2----2----2----2----2----2----2----2------|
E:-5-------5-------5-------5-----------2----5----2---------2----5----2------------|
B:----------------------------------------------------2-------------------2-------|

E:------------------------------------|
B:------------------------------------|
E:---4-4-----5-5-----7-7-----6--5-----|  x1
B:--0-0-0---2-2-2---4-4-4---3--2------|
E:-0-------0-------0-------0--0-------|
B:------------------------------------|

E:--------------------------------------------------------------------------------|
B:--------------------------------------------------------------------------------|
E:---0-0-----0-0-----0-0-----0-0---------0----0----0----0----0----0----0----0-----|
B:--5-5-5---5-5-5---5-5-5---5-5-5-------2----2----2----2----2----2----2----2------|
E:-5-------5-------5-------5-----------2----5----2---------2----5----2------------|
B:----------------------------------------------------2-------------------2-------|

E:------------------------------------|
B:------------------------------------|
E:---4-4-----5-5-----7-7-----6--5-----|  x2
B:--0-0-0---2-2-2---4-4-4---3--2------|
E:-0-------0-------0-------0--0-------|
B:------------------------------------|

Verse:

Chorus:

Interlude:

E:------------------------------------|
B:-------------------

Private First Class Tabs by Kevin Devine

 : Brandon Chastain brandonchastain
Private First Class by Kevin Devine & The Goddamn Band [Bubblegum]
Drop D tuning, no capo

Corrections/parts I didn't tab are absolutely welcomed.

This is a "simple" version of the song. If you play this with a band you might
want to change a lot of it match the studio version more closely.

(Intro)
e |---------------------------------------------------------------|
B |---------------------------------------------------------------|
G |---------------------------------------------------------------|
D |----------33------------------------------33-------------------|
A |------3366--6633-4-44---4-44----------3366--6633-4-44---4-44/66|
D |-3-366----------6----------------3-366----------6--------------|

(Verse)
Private Manning standing in a court room,
pleading guilty, she shouldn't have to
Truth be told, should be floating down routes
The truth was told, and what good did that do?
e |---------------------------------------------------|
B |---------------------------------------------------|
G |-----5-----6---5----------5-----6---5--------------|
D |-6---5---6-6---5-1--5/6---5---6-6---5-1------------|
A |-6---3---6-4---3-1--5/6---3---6-4---3-1------------|
D |-6-------6-------1--5/6-------6-------1------------|

(Chorus)
But if it was you, you might wish you'd been born a liar
e |-------------------------------------------------------------------------|
B |-------------------------------------------------------------------------|
G |-3--------------6-------------6--------------6---------6--------6--------|
e |-3--------------6-------------6--------------6---------6--------6--------|
A |-1--111/3333----4--6--3333----4--6--3333-----4--6------4--6-----4-6-1----|
D |----111/3333-------6--3333-------6--3333--------6---------6-------6-1----|
                                              (li-ar)   (li-ar)  (co-o-ward)

(Verse 2)
His conscience barked as he watched our Apache
Cowboy-kill civilian Iraqis
The laughter rolled like tanks over bodies
She thought, what if everyone could see what I see?
e |---------------------------------------------------|
B |---------------------------------------------------|
G |-----5-----6---5----------5-----6---5--------------|
D |-6---5---6-6---5-1--5/6---5---6-6---5-1------------|
A |-6---3---6-4---3-1--5/6---3---6-4---3-1------------|
D |-6-------6-------1--5/6-------6-------1------------|

(Chorus)

(Bridge)
Nine months in a hole
Three years in a cage
For having a soul
The American way
e |---------------------------------------------------|
B |---------------------------------------------------|
G |-3-------5---6-------------------------------------|
D |-3---3---5---6-------------------------------------|
A |-1---3---3---4-------------------------------------|
D |-----3---------------------------------------------|

(Intro/Solo)

(Chorus)

And not a hero!
e |---------------------------------------------|
B |---------------------------------------------|
G |---------------------------------------------|
D |----------33---------------------------------|
A |------3366--6633-4-44---4-44-----------------|
D |-3-366----------6------------------3-3333333-|

For The First Time In Forever chords – Frozen V2

 --------------------------------------------------------------

FOR THE FIRST TIME IN FOREVER - Frozen

--------------------------------------------------------------
 : Attract


Chords:

Bbsus  (x13311)
Fadd9  (135211) or (133213)
 Fsus4   (133311)
 Bm7     (x24232)
 F6      (132211) or (x33210)
 F#add9  (246322)
 F#sus4  (244422)
 Cm7     (x35343)
 F#6     (243322)
 G6      (354433)
 C#m7    (x46454)


{Intro: }
Bbsus  F  x3

{Verse: }
           F Bb 
Anna: The window is open, so's that door
   Fadd9 C 
I didn't know they did that anymore
     F Fsus4 F C 
Who knew we owned a thousand salad plates?
     F Bb 
For years I've roamed these empty halls
 Fadd9 C         
Why have a ballroom with no balls?
 Dm F Bm7 Bb 
Finally they're opening up the gates

             C F 
There'll be actual real live people
 C Am 
It'll be totally strange
 Eb C 
Wow, am I so ready for this change

{Chorus: }
                F Bb 
Cause for the first time in forever
             F C F F6 
There'll be music, there'll be light
         Dm Am 
For the first time in forever
         Eb C 
I'll be dancing through the night

       Dm C 
Don't know if I'm elated or gassy
         Bm7 Bb 
But I'm somewhere in that zone
               Fm Bb   
Cause for the first time in forever
 C                     
   I won't be alone

Bbsus  F  x3

I can't wait to meet everyone! (gasp)
What if I meet... the one?

{Key change: }

   F# B 
Tonight imagine me gown and all
 F#add9 C# 
Fetchingly draped against the wall
     F# F#sus4 F# C# 
The picture of sophisticated grace
        F# B 
Oof! I suddenly see him standing there
   F#add9 C# 
A beautiful stranger, tall and fair
   Ebm F# Cm7 B 
I wanna stuff some chocolate in my face

             C# F# 
But then we laugh and talk all evening,
           C# Bbm 
Which is totally bizarre
 E C# 
Nothing like the life I've lead so far

          F# B 
For the first time in forever
             F# C# F# F#6 
There'll be magic, there'll be fun
         Ebm Bbm 
For the first time in forever
            E C# 
I could be noticed by someone

       Ebm C# 
And I know it is totally crazy
    Cm7 B 
To dream I'd find romance
             F#m B 
But for the first time in forever
 C# F# F#6 
    At least I've got a chance

       Eb Bbm 
Elsa: Don't let them in, don't let them see
 C# G# G#m 
Be the good girl you always have to be
 Eb Bbm C# 
Conceal, don't feel, put on a show
       G# G#m Eb F 
Make one wrong move and everyone will know

       F# C# 
Els

Seek Ye First chords – Praise And Worship

 Verse 1:
  C G Am Em 
Seek ye first the Kingdom of God
 Dm7 C G G7 
And his righteousness,
  C G Am Em 
And all these things will be added unto you.
         Dm7 C G C 
Singing Allelu, Alleluia.


Chorus:
 C Em F C F C G G7 
Al - le - lu - ia,  Al - le - lu - ia
 C Em F C F C G C 
Al - le - lu - ia,  Alle - lu - Alle - lu - ia


Verse 2:
Ask and it shall be given unto you,
Seek and ye shall find,
Knock and the door shall be opened unto you.
Singing Allelu, Alleluia.


Verse 3:
Man shall not live by bread alone,
But by every word
That proceeds from the mouth of God.
Singing Allelu, Alleluia.

Our First Goodnight chords – Matchstickmen

 Our First Goodnight

Chords:
Verse -  Fsus2 ,  Am7 ,  Am ,  G 
Chorus -  C ,  G ,  Am ,  F 

Lyrics:
I see myself running out of time as the hours pass.
Each moment wasted is a moment wasted away from her.
I didn't mean to wake you, for one last time goodbye.
I'll carry your burdens, be your shoulder to cry on, be your life.

I won't let you fall, I won't bring you flowers, just to prove your right.
I won't let you down, I needed you, needed you from our first goodnight.

I tell myself over and over again in my head.
I can give you my world, not the wonderland you desire.
I look for the brightest star, that sparkle and shines in your confetti sky.
I'll carry your burdens, be your shoulder to cry on, be your life.

From our first goodnight.

First Rabbit chords – Jkt48

 [intro]  A E/G# F#m E A D E C#m F#m Bm E A A E/G#  
Suatu hari di dalam hutan ditemukan 
        G D/F#  
Lubang yang berlanjut terus entah kemana 
      Dm C#m F#m  
Di depan kegelapan teman di sekitarku 
       Bm E A  
Hanya terdiam mengintip tanpa bergerak 

    C#m F#m C#m F#m  
Entah mengapa dada ini berdebar 
        D C#m Bm E G  
Ku kan menjadi yang pertama berlari 

[chorus] 
           C G/B  
Aku tidak takut pada luka dan sakit 
          Am Gm C  
Apa yang terjadi ku takkan gentar 
         F G Em Am  
Pergi untuk mencari impian milikku 
     Dm G C  
Ayo jadi kelinci yang pertama 

[int]  A E/G# F#m E A D E C#m F#m Bm E A A G#m  
Daripada hanya bicara sok tahu tentang 
          G D/F#      
Hal yang asing bagimu ayo mandi di lumpur 
      Dm C#m F#m  
Di malam sendirian bintang kan jadi teman 
       Bm E A  
Tingalkanlah jejak langkah diri sendiri 

   C#m F#m C#m F#m  
Walaupun jadi sekhawatir apapun 
       D C#m Bm E G  
Ku berlari lebih dari siapapun 

[chorus] 
           C G/B  
Setiap terluka jadi makin dewasa 
       Am Gm C  
Air mata mengalir dada terasa sakit 
         F G Em Am  
Meski begitu ku tetap takkan menyerah 
     Dm G C  
Ayo jadi kelinci yang pertama 

[int]  Am E/G# G D/F# Dm Em F G E D C#m F#m  
Siapapun pastilah dapat merasakan 
    Bm C#m D  
Bahwa dirinya hidup saat darahnya mengalir 
                   E  
Jangan sia-siakan nyawamu 

[chorus] 
           C G/B  
Aku tidak takut pada luka dan sakit 
          Am Gm C  
Apa yang terjadi ku takkan gentar 
         F G Em Am  
Pergi untuk mencari impian milikku 
      Dm          
Meskipun ada yang menghalangi  
                  G  
untuk sampai ketujuan 

           C G/B  
Setiap terluka jadi makin dewasa 
       Am Gm C  
Air mata mengalir dada terasa sakit 
         F G Em Am  
Meski begitu ku tetap takkan menyerah 
     Dm G C  
Ayo jadi kelinci yang pertama 

[outro]  C G/B Am G F Em Dm G F G A

The First Noel chords – Misc Christmas V7

 "The First Noel"

gmills

Chorus:
   G Bm C G 
Noel, Noel, Noel, Noel
 C Bm Am G 
Born is the King of Israel 

Verse  1:
   G Bm C G 
The first Noel, the angel did say
 C Bm Am G 
Was to certain poor shepherds, In fields as they lay 

   G Bm C G 
In fields where they, Lay keeping their sheep

 C Bm Am G 
On a cold winter's night, that was so deep 


Chorus:
   G Bm C G 
Noel, Noel, Noel, Noel
 C Bm Am G 
Born is the King of Israel 
 

Verse 2:
   G Bm C G 
They looked up, And saw a star
 C Bm Am G 
Shining in the the East, Beyond them far
   G Bm C G 
And to the earth, It gave great light
 C Bm Am G 
And so it continued, Both day and night 
 

Chorus :
   G Bm C G 
Noel, Noel, Noel, Noel
 C Bm Am G 
Born is the King of Israel 

Verse 3:
   G Bm C G 
And by the light of that same star,
 C Bm Am G 
Three wise men came, From country far;
   G Bm C G 
To seek for a King, Was their intent,
 C Bm Am G 
And to follow the star wherever it went. 

Chorus/Outro:
   G Bm C B7 
Noel, Noel, Noel, Noel
 C Bm Am G 
Born is the King of Israel 
 C Bm Am G 
Born is the King of Israel

The First Noel chords – Misc Christmas V6

  so I hope you like it.
Chords Used:  G , D , C 
No capo


     G D   
The first Noel 
     C G 
the angel did say 
        C 
Was to certain poor 
 D C G 
Shepards in fields as they lay: 
    G D 
In fields where they lay
   C G  
a keeping their sheep
      C D C G   
On a cold winter's night that was so deep.


   G D C G 
Noel Noel Noel Noel
 C D C G 
Born is the King of Israel.
 

      G D    
They looked up 
     C G 
and saw a star 
         C D C G 
Shining in the east beyond them far:
     G D        
And to the earth 
    C G 
it gave great light
     C D C G   
And so it continued both day and night. 


   G D C G 
Noel Noel Noel Noel
 C D C G 
Born is the King of Israel


     G D   
And by the light
     C G 
of that same star 
       C D C G 
Three wise men came from the country far; 
    G D 
To seek for a King
     C G  
was their intent, 
        C D C G   
And to follow the star wherever it went. 


   G D C G 
Noel Noel Noel Noel
 C D C G 
Born is the King of Israel



      G D   
This star drew 
      C G 
nigh to the north-west; 
      C D C G 
O'er Bethlehem it took it's rest, 
     G D 
And there it did
      C G  
both stop and stay, 
       C D C G   
Right over the place where Jesus lay. 


   G D C G 
Noel Noel Noel Noel
 C D C G 
Born is the King of Israel



      G D   
Then entered in
       C G 
those wise men three, 
      C D C G 
Fell reverently upon their knee, 
     G D 
And offered there 
        C G  
in his presence 
       C D C G   
Their gold and myrrh and frankincense. 


   G D C G 
Noel Noel Noel Noel
 C D C G 
Born is the King of Israel


      G D   
Then let us all
      C G 
with one accord  
      C D C G 
Sing praises to our heavenly Lord, 
      G D 
That hath made
            C G  
heaven and earth of nought,
     C D C G   
And with his blood mankind has bought. 



   G D C G 
Noel Noel Noel Noel
 C D C G 
Born is the King of Israel

The First Noel chords – Misc Christmas V5

 Intro
 C FM7/C CM7 FM7/C C FM7/C CM7 FM7/C 
The First Noel, the Angels did say
        CM7 FM7/C CM7 FM7/C 
Was to certain poor shepherds in fields as they lay
 Em/B Am Em/G FM7 G/F 
In   fields where they lay keeping their sheep
      C/E Em Dm7 Gsus 
On a cold winter's night that was so deep.
   C FM7/C Am G 
Noel, Noel,   Noel, Noel
 FM7 FM7/G C/E Dm7  
Born is the King of Israel!


 Gsus C FM7/C CM7 FM7/C 
They looked up and saw a star
         CM7 FM7/C CM7 FM7/C 
Shining in the East beyond them far
 Em/B Am Em/G FM7 G/F 
And  to the earth it gave great light
     C/E Em Dm7 Gsus 
And so it continued both day and night.


     C G F G 
And by the light of that same star
       F G F C 
Three Wise men came from country far
    C G Am C/E 
To seek for a King was their intent
        F C/E F C 
And to follow the star wherever it went.


      C G F G 
This star drew nigh to the northwest
      F G F C 
O'er Bethlehem it took it's rest
     C G Am C/E 
And there it did both Pause and stay
       F C/E F Gsus 
Right o'er the place where Jesus lay.


      C CM7 FM7/C 
Then let us all with one  accord
      C CM7 FM7/C 
Sing praises to our heavenly Lord
 Em/B Am C/G F G/F 
That hath made Heaven and earth of nought
     C/E Em Dm7 Gsus 
And with his blood mankind hath bought.


   Am C/G F G/F 
Noel, Noel, Noel,  Noel, 
 C/E Em Dm7 Gsus 
Born is the King of Isra-el!

 C FM7/C CM7 C7 F/C Dm7/C C 
Noel, Noel  ///  No  -  el

 C , 
e|---|---|---|---|---| o
B|-1-|---|---|---|---| o
G|---|---|---|---|---| o
D|---|-2-|---|---|---| o
A|---|---|-3-|---|---| o
E|---|---|---|---|---| x

 FM7/C , 
e|---|---|---|---|---| o
B|-1-|---|---|---|---| o
G|---|-2-|---|---|---| o
D|---|---|-4-|---|---| o
A|---|---|-3-|---|---| o
E|---|---|---|---|---| x

 CM7 , 
e|---|---|---|---|---| o
B|---|---|---|---|---| o
G|---|---|---|---|---| o
D|---|-2-|---|---|---| o
A|---|---|-3-|---|---| o
E|---|---|---|---|---| x

 Em/B , 
e|---|---|---|---|---| o
B|---|---|---|---|---| o
G|---|---|---|---|---| o
D|---|-2-|---|---|---| o
A|---|-1-|---|---|---| o
E|---|---|---|---|---| x

 Am , 
e|---|---|---|---|---| o
B|-1-|---|---|---|---| o
G|---|-3-|---|---|---| o
D|---|-2-|---|---|---| o
A|---|---|---|---|---| o
E|---|---|---|---|---| x

 Em/G , 
e|---|---|---|---|---| o
B|---|---|---|---|---| o
G|---|---|---|---|---| o
D|---|-1-|---|---|---| o
A|---|-2-|---|---|---| o
E|---|---|-3-|

First Love Tabs by Adele V2

 Alrighty so this is my first tab.. But it's a combination of the other tabs out
there and how I play it along with the song. I hope its up to standard :)


This part is repeated throughout the song, including the intro. There are a few
extra details that can be added, this is just the general feel of it :)
Enjoy!

E|-------------------------------------------------------------------------------------------------|
B|---1-1---1-1---1-1---1-1---1-1---1-1---1-1---1-1---0-0---0-0---0-0---0-0---1-1---1-1---1-1---1-1-|
G|---2-2---2-2---2-2---2-2---0-0---0-0---0-0---0-0---0-0---0-0---0-0---0-0---2-2---2-2---2-2---2-2-|
D|-3-----3-----3-----3-----2-----2-----2-----2-----2-----2-----2-----2-----2-----2-----2-----2-----|
A|-------------------------------------------------------------------------------------------------|
E|-------------------------------------------------------------------------------------------------|

So little to say but so much time,
Despite my empty mouth the words are in my mind.
Please wear the face, the one where you smile,
Because you lighten up my heart when I start to cry.

Forgive me first love, but I'm tired.
I need to get away to feel again.
Try to understand why,
don't get so close to change my mind.
Please wipe that look out of your eyes,
it's bribing me to doubt myself;
Simply, it's tiring.

This love has dried up and stayed behind,
And if I stay I'll be a lie
Then choke on words I'd always hide.
Excuse me first love, but we're through.
I need to taste a kiss from someone new.

Forgive me first love, but I'm too tired.
I'm bored to say the least and I, I lack desire.
Forgive me first love,
Forgive me first love,
Forgive me first love,
Forgive me first love,
Forgive me,
Forgive me first love,
Forgive me first love

The First Snow chords – Hey Rosetta

 Standard Tuning

Chord Variation:  C * X32013
                  G * 32003X

Intro -  F ,  F ,  Em ,  F 

Verse
 F                   
Things are dying
      Em F 
The summer's gone
             F 
You spend half your night off
 Em F 
On the phone
       
   Am 
Pacing around
               C F 
You're gonna wear a rut
                          Am 
Trying to make her understand
       C F 
What you do not

   F 
Then you hang up
          Em ,  G *,  F 
And it's so quiet
        F 
And you look out
           Em ,  G *,   F 
Into the cold night

                  Am 
You're getting older
                 C F 
But you still never learn
                     Am 
It's like you're frozen
        C F      
In a frozen world

    F 
But then you feel it
       Em F 
The stillness moves
            F 
It's like a tiny voice
       Em F 
In a silent room

Chorus
             Am C *
The first snow
      G F 
The first snow
      Am C *
So slow
      G F 
The first snow

Verse
NC --------------
Then you know it
                    Em F 
The thing you've never known
           F 
That you won't outgrow it
             Em F 
But she'll move along

            Am 
Into your bed
      C F 
You lie alone
                F 
But you'll be fine dreaming
         Em F 
Of the first snow

Chorus
             Am C *
The first snow 
       G F 
The first snow
            Am C *
Feel it flow
          G F 
Like the first snow