Tag: five

Four Out Of Five piano chords by Arctic Monkeys

Am Am7 Am Am Am7 Am F
Am Am7 Am Am Am7 Am F

[Verse 1]
Am
Advertise in imaginative ways
                 Am
Start your free trial today
        F              Am
Come on in the waters, lovely
                                                 Am
Look you could meet someone you like during the meteor strike
      F
It is that easy


[Pre-Chorus]
Am
Lunar surface on a saturday day night
               Am
Dressed up in silver and white with
         F
Coloured old grey whistle test lights


[Chorus]
Em                   Am
 Take it easy for a little while
          F
Come and stay with us
     G
It's such an easy flight
Em                      Am
Cute new places keep on popping up
          F              G
Since the exodus it's all getting gentrified
Em               Am                 Fmaj7
I put a taqueria on the roof it was well reviewed
G                 Em F          Am          Am7 Am Am7 Am F
Four stars out of fiveee and thats unheard of


[Verse 2]
Am
Bridge and tunnel on the starlight express
             Am                    F
The hero of special effects in my mind's eye
Am
Hokey cokey with the opposite sex
                Am
The things you try to forget
            F
Doesn't time fly
Am                                    Am
I'm in no position to give advice, I don't want to be nice
         F
And you know that, 


[Chorus 2]
Em                   Am
 Take it easy for a little while
          F
Come and stay with us
     G
It's such an easy flight
Em                      Am
Cute new places keep on popping up
          F               G
Around Clavius it's all getting gentrified
Em                        Am          F
 The information action ratio is the place to go
         G           Em Am     F            G
And you will not recognise the old headquarters


[Bridge]
Cm                                          Cdim7
 All the nights that never happened and the days that don't exist
       G           Ddim7         Cm Cm7
At the information action ratio
C#m                                        C#dim7
The only time that we stop laughing is to breathe or steal a kiss
      B               Cdim7                C#m C#madd6
I can get you on the list for all the clubs
       B           Cdim7          C#m C#madd6
I can lift you up another semitone

[Chorus]
Dm                   
 Take it easy for a little while
C           
 Come and stay with us
     F             Dm
It's such an easy flight
C                      
Cute new places keep on popping up 
          C               F             Dm
Since the exodus it's all getting gentrified
Dm                              C
 The information action ratio is the place to go
F                  Dm
Four stars out of five
Dm                   
 Take it easy for a little while
C
Come and stay with us
      F                Dm
Now, it’s such an easy flight
Dm
Cute new places keep on popping up
C                       F              Dm
Around Clavius, it’s all getting gentrified
Dm
I put a taqueria on the moon
C
It got rave reviews
F                  Dm
Four stars out of five

[Outro]
Dm
Take it easy for a little while
C                  Cmaj7
Come and stay with us
F                 Dm
Four stars out of five
Dm
Take it easy for a little while
C                  Cmaj7
Come and stay with us
F                 Dm
Four stars out of five
Dm
Take it easy for a little while
C                  Cmaj7
Come and stay with us
F                 Dm
Four stars out of five

Dm C 
F
Four stars out of five

Am

Philosophy chords – Ben Folds Five Vsion 2

 INTRO  
 C Cmaj7 C7 C6 Dm7 G Dm7 G C Cmaj7 C7 C6 Dm7 G Dm7 G C F 
Won't you look up at the skyline
        C Em 
At the mortar, block, and glass
     F D/F# G 
And check out the reflections in my eyes
          C F 
See they always used to be there
      C Em 
Even when this was all was grass
       F D/F# G 
And I sang and danced about a high-rise

(Pre-Chrous)
              F G 
And you were laughing at my helmet hat
 F Dm7 G  
Laughing at my torch

(Chorus)
 C Cmaj7 C7 
Go ahead and laugh all you want
   C6 Dm7 G Dm7 G    
I got my philosophy
               C 
And I trust it like the ground
  C6 Dm7 G   
That's why my philosophy
          Dm7 G C/G G7    
Keeps me walking when I'm falling down

(Verse2)
    C F 
I see that there is evil
       C Em 
And I know that there is good
           F D/F# G   
And the in-betweens I never understood
           C F 
Would you look at me I'm crazy
       C Em 
But I get the job done
    F D/F# G 
I'm crazy but I get the job done


(Chorus)
 C Cmaj7 C7 
Go ahead and laugh all you want
   C6 Dm7 G Dm7 G    
I got my philosophy
               C Cmaj7 C7 
And I trust it like the ground
  C6 Dm7 G    
That's why my philosophy
          Dm7 G C/G G7    
Keeps me walking when I'm falling down

(Bridge)
 Am Eaug/G# 
I pushed you cause I loved you guys
 Am7/G Am6/E 
I didn't realize
                  Gm C Bb C Bb C Bb   
That you weren't having fun
       F                  
And I dragged you up the stairs
       G 
And I told you to fly
          F 
You were flapping your arms
          G Am 
Then you started to cry, you were too high
     Bb 
Too highhhhhh


 C Cmaj7 C7 C6 Dm7 G Dm7 G  

(Verse 3)
         C F 
Now you take this all for granted
              C Em 
You take the mortar, block, and glass
          F D/F# G 
And you forget the speech that moved the stone
          C F     
And it's really not that you can't see
     C Em 
The forest from the trees
  F D/F# G 
You just never been out in the woods alone


(Chorus)
 C Cmaj7 C7 
So you can laugh all you want to
     C6 Dm7 G Dm7 G   
But I've got my philosophy
                C Cmaj7 C6 
And I love you you're my friend
                  Dm7 G      
But you got no philosophy
         Dm7 <span

Someone Elses Problem chords – Five Iron Frenzy

 I'm not going to lie, this was really difficult to figure out (Sonny played a lot of chords not in the song's 
key, Bb Major). This is my best attempt that I checked multiple times agains the song itself--enjoy track #5 
of EOMP!

Intro:

 Cm F Ab Cm F  (slide out)

Verse 1:
        Cm 
You're cutting some corners, 

Leave nothing for mourners, 
       F 
Leave nothing for the people,
         Ab Cm       
Oh, oh, oh, oh, oh.

In all those other places.

Just don't look at their faces,
 F          
 And you can believe, 
      Bb Eb 
That they don't bleed, 
      Cm 
Like you.

Chorus:

You want to close your eyes, 
                    F 
You want to make believe-
              Ab Eb 
This tangled web you weave, 
    Cm 
Is nowhere near the place you sleep,
                        F 
While other people's lives are cheap, 
                 Ab Eb Cm F Ab Cm F Ab Cm 
And all of this someone else's problem.

Verse 2:

And here lies the problem, 

It's not that you rob them-
      F 
Just look the other way.
         Ab Cm 
Oh, oh, oh, oh, oh. 

Just make some more excuses.

Your life stems from abuses, 
 F 
Of other people's lives
        Bb Eb Cm 
You'll never have to see.

Chorus:

You want to close your eyes, 
                    F 
You want to make believe-
              Ab Eb 
This tangled web you weave, 
    Cm 
Is nowhere near the place you sleep,
                        F 
While other people's lives are cheap, 
                 Ab Eb Cm    
And all of this someone else's problem.

Outro: 

 F Ab Eb Gb  

end on Eb


Please comment/rate! God bless!

-Romans 10:9-10;13

On Distant Shores chords – Five Iron Frenzy V2

 Intro:
 Em D G A C D G B Em D G A C D G B 

Verse 1:
 Em D G A C D G B 
  I have been scarred so deep by life and cold despair,
 Em D G A C D G 
  and brittle bones were broken far beyond repair.

Prechorus 1:
 Em D G A C D G B 
I have leveled lies so deep, the truth may never find.
 Em D G A C D 
And inside my faithless heart, I stole things never mine.

Chorus:
 Em D G A C D G B 
 If mercy falls upon the broken and the poor,
 Em D G A C D G 
 Dear Father, I will see you, there on distant shores.

Intro:
 Em D G A C D G B Em D G A C D G B 

Verse 2:
 Em D G A C D G B   
  I have toiled for countless years and ever felt the cost,
 Em D G A     
and I've been burned by this world's cold, 
      C D G 
like leaves beneath the frost.

Prechorus 2:
 Em D G A C D G B 
On my knees I've crawled to You, bleeding myself dry.
 Em D G A C D 
But the price of life is more, than I could ever buy.

Chorus:
 Em D G A C D G B 
 If mercy falls upon the broken and the poor,
 Em D G A C D G 
 Dear Father, I will see you, there on distant shores.

     Em 
And off of the blocks,
       D  
I was headstrong and proud,
        C B 
at the front of the line for the card-carrying, highbrowed.
      Em 
With both eyes fastened tight,
      D 
yet unscarred from the fight.
  C B 
Running at full tilt, my sword pulled from its hilt.

 Em D 
It's funny how these things can slip away,
           C B 
our frail deeds, the last will wave good-bye.
       Em D 
It's funny how the hope will bleed away,
          C B 
the citadels we build and fortify. Good-Bye.

 Em 
Night came and I broke my stride,
    D 
I swallowed hard, but never cried.
      Em 
When grace was easy to forget,
  D 
I'd denounce the hypocrites,
  C D 
casting first stones, killing my own.
 Em 
You would unscale my blind eyes,
     D 
and I stood battered, but more wise,
 Em 
fighting to accelerate,
 D 
shaking free from crippling weight.
 Em 
With resilience unsurpassed,
    D 
I clawed my way to You at last.
  C D 
And on my knees, I wept at Your feet,
   C</spa

Take Five Tabs – Dave Brubeck V6

 Take 5:

Original played in 6th fret

5/4 timing

Intro/Background: 

      Am     Am     Em 
e-|-------------------------|
B-|-----1-----1------0------|
G-|-----2-----2------0------|
D-|-----2-----2------2------|
A-|--0-----0----------------|
E-|---------------0---------|


   Am        Em            Am               Em          Am            Em   Am     Em
e-|---------|---0----------------|--------------------|-------------------|-----------|
B-|-----1-3-|4-----4-3-1---------|--------------0-----|-------------------|-----------|
G-|---2-----|------------------0-|-2--------------2-0-|-2-----------0-----|-----------|
D-|-2-------|---------------2----|--------------------|---------------2-0-|-0h2-------|
A-|---------|--------------------|--------------------|-------------------|-----------|
E-|---------|--------------------|--------------------|-------------------|-----------|


   Am        Em            Am               Em          Am            Em   Am     Em
e-|---------|---0----------------|--------------------|-------------------|-----------|
B-|-----1-3-|4-----4-3-1---------|--------------------|-------------0-----|-----------|
G-|---2-----|------------------0-|-2------------0-----|---------------2-0-|--2--------|
D-|-2-------|---------------2----|----------------2-0-|-0h2---------------|-----------|
A-|---------|--------------------|--------------------|-------------------|-----------|
E-|---------|--------------------|--------------------|-------------------|-----------|

        Am       F                G        E7
e-|-5--8--5-----------------|----7--------------------|
B-|----------6-----5--6--7--|-8-----8--5-----------5--|
G-|-------------7-----------|-------------5--7--8-----|
D-|-------------------------|-------------------------|
A-|-------------------------|-------------------------|
E-|-------------------------|-------------------------|

   F            G              E7
e-|----5---------------------|-----------------------------|
B-|-6-----6--------------4---|-5---4--5--6--8--8--7--8--9--|
G-|----------7--4--5--7------|-----------------------------|
D-|--------------------------|-----------------------------|
A-|--------------------------|-----------------------------|
E-|--------------------------|-----------------------------|

   Am        F                G        E7
e-|-5--8--5-----------------|----7--------------------|
B-|----------6-----5--6--7--|-8-----8--5--------4--5--|
G-|-------------7-----------|-------------5--7--------|
D-|-------------------------|-------------------------|
A-|-------------------------|-------------------------|
E-|-------------------------|-------------------------|

    F        G                 E7
e-|----5--------------3---1--|-0--|
B-|-6-----6--------3---------|----|
G-|----------7--4------------|----|
D-|--------------------------|----|
A-|--------------------------|----|
E-|--------------------------|----|

Atom Bomb Baby Fallout 4 Gameplay Trailer chords – The Five Stars

 ============================================================================
  The Five Stars were an Indiana rock/doo wop group signed with KY Labels,
             this particular song was recorded in 1957.
            
============================================================================

Song: Atom Bomb Baby
Artist: The Five Stars
Tuning: Standard (EADGBe)
Source: Fallout 4 Gameplay Trailer

--

Intro

 G D G D G D 
Got a doll baby, I love her so,
 G D 
Nothing else like her anywhere you go
 G C 
Man, she's anything but calm,
   D G 
A regular pint-sized atom bomb!


 C G 
Atom bomb baby, little atom bomb,
 D G 
I want her in my wigwam!
 C G 
She's just the way I want her to be,
   D G 
A million times hotter than TNT!

 G D G D G D 
Atom bomb baby, loaded with power,
 G D 
Radioactive as a TV tower
   G C 
A nuclear fission in her soul,
 D G 
Loves with electronic control!

 C G 
Atom bomb baby, little atom bomb,
 D G 
I want her in my wigwam!
 C G 
She's just the way I want her to be,
 D G 
A million times hotter than TNT!

 G D G D G D 
Atom bomb baby, boy, she can start,
 G D 
One of those chain reactions in my heart
   G C 
A big explosion, big and loud,
 D G 
Mushrooms me right up on a cloud!

-Chorus-

 G D G D G D 
Atom bomb baby, sweet as a plum,
 G D 
Carries more wallop than uranium
 G C 
When she kisses, there's no hitch,
 D G 
Zero power, she turns on the switch!

-Chorus x2-

============================================================================
I would've provided more info about the band but unfortunately, there isn't
much to go on. The existing wiki page speaks of another, slightly younger
group under the same name.

Should you find any mistakes, feel free to contact me at 
iudicium.invocat

Cheers.

Three Cheers For Five Years chords – Mayday Parade V4

 Since I've yet to find a tab for this in the right key, let alone with the right words or all the chords where
they should be - here y'all go. I love this song so I thought it'd be nice to share a more accurate version...
I hope I've done it justice. This is only my second tab... please rate and comment, it would be helpful! 
- Charlie :)

Key: B

Tuning: Standard EADGBe

~ hold chord
/ repeat chord (strum down)

Chords:

B    [799877] or [223332]
 F#    [244322]
 G#m   [466444]
 E     [022100]

Intro: (the 4th section isn't quite right because it's hard to hear, but this is how I play it)

          B F# G#m F# 
e|---------2-------|---------2-------|---------2-------|---------2-------|
B|---0---0---0---0-|---0---0---0---0-|---0---0---0---0-|---0---0---0---0-|
G|-4---4-------4---|-3---3-------3---|-1---1-------1---|-----------------|
D|-----------------|-----------------|-----------------|-4---4-------4---|
A|-----------------|-----------------|-----------------|-----------------|
E|-----------------|-----------------|-----------------|-----------------|
         x2                x2                x2                x2

Verse 1: (you can repeat the intro or play the chords below)

                                B 
I swear that you don't have to go
                                 F# 
I thought we could wait for the fireworks
                                  E  
I thought we could wait for the snow
                          F# 
To wash over Georgia and kill the hurt
                                 B 
I thought I could live in your arms
                          F# 
And spend every moment I had with you
                             E  
Stay up all night with the stars
                              F# 
Confess all the faith that I had in you (I had in you)


Refrain:

 G#m F# E 
  To late, I'm sure and lonely
               E 
Another night, another dream wasted on you
 G#m F# E 
  Just be here now against me
                   E  ~
You know the words so sing along for me baby


Chorus:

 B E G#m 
For heaven's sake I know you're sorry
                    E 
But you won't stop crying
           F# B 
This anniversary may never be the same
          E G#m 
Inside I hope you know I'm dying
                 E 
With my heart beside me
              F# E 
In shattered pieces that may never be replaced
          F#          //        /
And if I died right now you'd never be the same


Interlude 1: 

          B F# G#m              
e|---------2-------|---------2-------|-2~~-222222222222|
B|---0---0---0---0-|---0---0---0---0-|-0~~-000000000000|
G|-4---4-------4---|-3---3-------3---|-1~~-111111111111|
D|-----------------|-----------------|-----222222222222|
A|-----------------|-----------------|-----222222222222|
E|-----------------|-----------------|-----------------|
         x2                x2                               

Verse 2:

                            G#m 
I thought with a month of apart
                           F# 
Together would find us an opening
                                  E 
And moonlight would provide the spark
                          E 
And that I would stumble across the key
                               G#m 
Or break down the door to your heart
                          F# 
Forever could see us not you and me
                              E 
And you'd help me out of the dark
                             E 

Selamat Tinggal chords by Five Minutes

 [Intro]  Bm G D A  (4x)

 Bm F#m G D      
Kututup Hatiku Untuk Namamu
 Em F# Bm 
Walaupun Tangismu Untukku
 Bm F#m G D      
Biarku Sendiri Tanpamu Lagi
 Em F# G A D 
Walaupun Sepi Kurasakan Tanpa Kau Disini

 Bm F#m G D 
Kuingin Kau Jauh Dari Mataku
 Em F# Bm 
Agar Tiada Rasa Benci
 Bm F#m G D 
Kau Pergi Dariku Tak Usah Kembali
 Em F# G A D 
Mungkin Aku Telah Berdua Untuk Selamanya

[Chorus]
   G A F#m Bm 
Selamat Tinggal Masa Lalu
 G A D 
Aku Kan Melangkah
 G A F#m Bm 
Maafkanlah Segala Yang
        G A D 
Pernah Kulakukan Padamu

 Bm F#m G D 
Dengarlah Dengarlah Kau Disana
 Em F# Bm 
Ku Kan Melupakan Tentangmu
 Bm F#m G D 
Lihatlah Lihatlah Aku Disini
 Em F# G A D 
Kini Aku Telah Berdua Untuk Selamanya

[Chorus]
   G A F#m Bm 
Selamat Tinggal Masa Lalu
 G A D 
Aku Kan Melangkah
 G A F#m Bm 
Maafkanlah Segala Yang
        G A D 
Pernah Kulakukan Padamu

[Interlude]  Bm G D A  (2x)  Bm 

[Chorus]
   G A F#m Bm 
Selamat Tinggal Masa Lalu
 G A D 
Aku Kan Melangkah
 G A F#m Bm 
Maafkanlah Segala Yang
        G A D 
Pernah Kulakukan Padamu

   G A F#m Bm 
Selamat Tinggal Masa Lalu
 G A D 
Aku Kan Melangkah
 G A F#m Bm 
Maafkanlah Segala Yang
        G A D 
Pernah Kulakukan Padamu

[Coda]  Bm G D A  (2x)

Signs chords – Five Man Electrical Band V4

 Intro:
 D Dsus2 D D Dsus4 D 

Verse-1:
         Am G 
And the sign said long haired
              D G 
Freaky people need not apply.
      D A 
So I tucked my hair up under my
         G A 
Hat and went in to ask him why.

 Bm 
  He said you look like a fine
   Bm/A G 
Upstanding young man, I think
                 D 
You'll do. So I took my hat
           A G 
And said imagine that, me
             A 
Working for you.


Chorus:
 D 
Sign. Sign.
 Cadd9 G 
Everywhere a sign.
 D 
Blocking out scenery,
 G 
Breaking my mind.
 D A 
Do this, don't do that
                    Cadd9 
Can't you read the sign.


.Intro
.Verse-2
.Chorus


Bridge:
 D G A 
Now, hey there mister can't
               G 
You read! You gotta have a
           D 
Shirt and tie to get a seat.
 D 
You can't watch here,
 A G 
You can't even, you ain't
             D 
Supposed to be here.


.Vamp(no guitar)
.Guitar Solo(chorus chords)
.Intro
.Verse-3
.Chorus

Repeat chorus til fade....

Under And Over It Tabs – Five Finger Death Punch V2

 -----------------------------------------------------------------------------------------
|                      FIVE FINGER DEATH PUNCH - UNDER AND OVER IT                      |
|                            American Capitalist (2011)                           |
-----------------------------------------------------------------------------------------
           If you have questions or corrections feel free to send me a message:
                        http://profile.ultimate-guitar.com/godspeedy/
                           https://www.facebook.com/Godspeedy14
                           
        Also, check out my Youtube channel: http://www.youtube.com/user/Godspeedy14

                                  Tuning: 6 string BEADF#B 
                                                        
**************************************GUITAR NOTATIONS***********************************
*                                                                                       *
*                                | *   palm mute         |                              *
*                                | s   slide             |                              *
*                                | h   hammer-on         |                              *
*                                | p   pull-off          |                              *
*                                | ~   vibrato           |                              *
*                                | x   Mute note         |                              *
*                                | b   bend              |                              *
*                                | ..  let ring          |                              *
*                                                                                       *
*****************************************************************************************

-----------------------------------------------------------------------------------------
|                                    INTRO (00:00-00:25)                                |
-----------------------------------------------------------------------------------------

I. Guitars 1 and 2 (w/ dist)

 B|------------------------------|----------------------------|
F#|------------------------------|----------------------------|
 D|------------------------------|----------------------------| x4
 A|------------------------------|----------------------------|
 E|---------2--2--------------3--|---2------------------------|
 B|-3b--p0--0--0--0-3-5-3-0-0-1--|---0--0--0--0-1-3-0-1-3-1-0-|
            *  *  * * * * * *           *  *  * * * * * * * *

II. Guitars 1 and 2 (w/ dist)

 B|-------------------------|-------------------------|
F#|-------------------------|-------------------------|
 D|-------------------------|-------------------------|
 A|-------------------------|-------------------------|
 E|-2-----2-----2--3--2-----|----2-----2--2--3--2-----|
 B|-0--0--0--0--0--1--0--0--|-0--0--0--0--0--1--0--0--|\
       *     *           *    *     *              *    x2
 B|-------------------------|---------------------|    /
F#|-------------------------|---------------------|   /
 D|-------------------------|---------------------|  /
 A|-------------------------|---------------------| /
 E|-2-----2-----2--3--2--2--|--2--2--2---3--3--2--|/
 B|-0--0--0--0--0--1--0--0--|--0--0--0---1--1--0--|
       *     * 

    Guitar 3 (w/ dist)
   .......................                  ............
 B|-----7------7------|--7---7--7--8--7---|-----7------7---7--|--7--7--7--7--8--8--7--|
F#|-5-------5------5--|------5--5--6--5---|-5-------5------5--|--5--5--5--5--6--6--5--|
 D|-------------------|-------------------|-------------------|-----------------------| x2
 A|-------------------|-------------------|-------------------|-----------------------|
 E|-------------------|-------------------|-------------------|-----------------------|
 B|-------------------|-------------------|-------------------

Five Of Everything Tabs by 311

 Intro
----

e|------------------------------------------------------------|
B|--------------------------------------------9-9-------------|
G|--------------------------8---------------------8-8---------|
D|-6-6--6--6-6-----6-6-9-9-----9-9--9--9-9-----------9--------|
A|------------------------------------------------------------|
E|------------------------------------------------------------|

e|------------------------------------------------------------------------|
B|----------------------10-10---------------------------------------------|
G|----------------------------9-9------------11--8------------------------|
D|-11-11--11--11-11--------------11----6-9--------9--11-9-----------------|
A|-------------------------------------------------------------9--7-6-----|
E|------------------------------------------------------------------------|

e|------------------------------------------------------------|
B|--------------------------------------------9-9-------------|
G|--------------------------8---------------------8-8---------|
D|-6-6--6--6-6-----6-6-9-9-----9-9--9--9-9-----------9--------|
A|------------------------------------------------------------|
E|------------------------------------------------------------|

e|---------------------------------------------------------------|
B|----------------------10-10------------------------------------|
G|----------------------------9-9-------------11--8----8~--------|
D|-11-11--11--11-11--------------11-----6-9--------9-------------|
A|---------------------------------------------------------------|
E|---------------------------------------------------------------|

Verse/Pre-Chorus Chords
----------------------

e|--------------------------------------------------|
B|--------------------------------------------------|
G|-----------------------------------------4--------|
D|-2-----------6----------7----------2-----4--------|
A|-2-----------6----------7----------2-----2--------|
E|-0-----------4----------5----------0-----2--------|

Chorus Chords
------------

e|--------------------------------------------------|
B|--------------------------------------------------|
G|-6---------------------------------------5--------|
D|-6-----------6----------7----------2-----5--------|
A|-4-----------6----------7----------2-----3--------|
E|-------------4----------5----------0--------------|

e|--------------------------------------------------|
B|--------------------------------------------------|
G|-6---------------------------------------4--------|
D|-6-----------6----------7----------2-----4--------|
A|-4-----------6----------7----------2-----2--------|
E|-------------4----------5----------0-----2--------|

Post Chorus Riff
--------------

e|----------------------------------------------------------|
B|----------------------------------------------------------|
G|----------------------------------------------------------|
D|----------------------------------------------------------|
A|-4---2-4-2-4---2---4-------4--2-4-------4---2-4-2-4-------|
E|------------------------4----------4--4-------------------|

e|----------------------------------------------------------|
B|----------------------------------------------------------|
G|----------------------------------------------------------|
D|----------------------------------------------------------|
A|-2---0-2-0-2---0---2-------2--0-2-------2---0-2-0-2-------|
E|------------------------2----------2--2-------------------|

e|----------------------------------------------------------|
B|----------------------------------------------------------|
G|----------------------------------------------------------|
D|----------------------------------------------------------|
A|-4---2-4-2-4---2---4-------4--2-4-------4---2-4-2-4-------|
E|------------------------4----------4--4-------------------|

e|----------------------------------------------------------|
B|

Black Anthem chords – Gemini Five

 *First time making a tab. Dunno how to put chords on the lyrics though, please bear with me.



Intro:  Em ,  D ,  G ,  Em ,  D Em D 
Love like blood, Never let me down again

 Em D 
Love's like a gun, My wild-hearted son

 Em D 
Shoot you through the heart,The bullet in my side

 C D 
Here's an ode for you, An ode for you

 G Em D 
Like a song for the broken heart, seduce me again

 C D 
Dying just to thorn the deepest scars

 G Em D 
Songs of faith and devotion, all the pain you will know

 C D 
Reveals the darkest secret of your heart
              
                         Em 
You're a slave to black love


Please let it bleed painted scars that run so deep
Come with me only when I lose myself
I won't get through, Without the air, you leave me breathless
Stripped to the bone, just what we've become

Like a song for the broken heart, seduce me again
Dying just to thorn the deepest scars
Songs of faith and devotion, all the pain you will know
Reveals the darkest secret of your heart

                   G C 
You're a slave to black love

            D Em       
A slave to black love


Bridge:  Em ,  D ,  Em ,  D ,  C ,  D ,  Em ,  G ,  C ,  D 


Like a song for the broken heart, seduce me again
Dying just to thorn the deepest scars
Songs of faith and devotion, all the pain you will know
Reveals the darkest secret of your heart

 G D Em 
You're a slave to black love

                  D 
A slave to black love

 G D Em 
You're a slave to black love

                  D 
A slave to black love

 G D C 
You're a slave to black love

Signs chords – Five Man Electrical Band V3

 D C Bm A G 
And the sign said long haired, freaky people, need not apply.

         D A G A 
So I tucked my hair up under my hat and I went in and asked him why?

 Bm G  
He said, you look like a fine, upstanding young man, I think you`ll do.

         D A G A 
So, I took off my hat, said, imagine that..huh, me, workin' for you.

- - -

 D C G                                   
Signs, signs, everywhere signs, 

 D G 
Blocking out the scenery, breaking my mind.

 D A                    
Do this, don't do that..

                              C 
Can’t you read the signs?

- - -

 D C Bm A G 
And the sign said anybody caught trespassing will be shot on sight.

         D A 
So I jumped on the fence and yelled at the house

           G A 
“Hey, what gives you the right?”

 Bm G 
You put up a fence to keep me out or to keep mother nature in.
 
 D A G A 
If God were here, He’d tell you to your face, Man, you’re some kind a sinner.

- - -

 D C G                                   
Signs, signs, everywhere signs, 

 D G 
Blocking out the scenery, breaking my mind.

 D A                    
Do this, don`t do that..

                               C 
Can’t you read the signs?

- - -

OH
      A 
I said now mister, can’t you read,

          G D 
You got to have a shirt and tie to get a seat.

  D A                               
You can’t even watch, no, you can’t eat, 

  G D 
you ain’t supposed to be here  . . here.

                                                                                             D 
And the sign says you got to have a membership card to get inside..unnh!

 D C G D G D A C 

- - -

 D C Bm A G 
And the sign said, everybody welcome, come in, kneel down and pray.

       D A          
And they passed around a plate at the end of it all,

      G A  
And I didn`t have a penny to pay.

 Bm G    
So I got me a pen and a paper and I made up my own little sign.

     D A G A  
It said, thank you Lord for thinkin’ ‘bout me, I’m alive and doing fine.
- - -


 D C G                                   
Signs, signs, everywhere signs, 

 D G 
Blocking out the scenery, breaking my mind.

 D A                    
Do this, don't do that..

                              C 
Can’t you read the signs?

- - -


 D C G                                   
Signs, signs, everywhere signs, 

 D G 
Blocking out the scenery, breaking my mind.

 D A                    
Do this, don't do that..

                              C 
Can’t you read the signs?


 D C D G D A C

Remember Everything Acoustic Tabs by Five Finger Death Punch

 Author/Artist: Five Finger Death Punch
Title: Remember Everything
       Live Acoustic
: Robert Brown
Email: bahburt

Tuning: (from low to high)  A E A D F# B

This is the acoustic version they play live.
Transcribed to the best of my abilities. Hope you enjoy it!

    Intro

-|--------------------|---------------------|-----------------|--------------|
-|--------------------|---------------------|-----------------|--------------|
-|--------------------|---------------------|-----------------|--------------|
-|--------11-9--------|--------11-9---------|-----4-7-6-----4-|--------------|
-|---9-12------11---9-|---9-12------11-12-9-|---4-------7-----|--------------|
-|-0--------------0---|-0-------------------|-4-----------4---|--------------|


-|-------------------|--------------------|---------------------|------------|
-|-------------------|--------------------|---------------------|------------|
-|-------------------|--------------------|---------------------|------------|
-|-----4-7-6-------7-|--------11-9--------|--------11-9---------|------------|
-|---4-------7-------|---9-12------11---9-|---9-12------11-12-9-|------------|
-|-4-----------4\7---|-0--------------0---|-0-------------------|------------|


-|-------------------0------------------|------------------------------------|
-|-------------------0------------------|------------------------------------|
-|-------------------4------------------|------------------------------------|
-|-----4-7-6---4-----4------------------|------------------------------------|
-|---4-------7------------4/------------|------------------------------------|
-|-4-------------4--------4/------------|------------------------------------|
    Verse

-|--------------------|---------------------|-----------------|--------------|
-|--------------------|---------------------|-----------------|--------------|
-|--------------------|---------------------|-----------------|--------------|
-|--------11-9--------|--------11-9---------|-----4-7-6-----4-|--------------|
-|---9-12------11---9-|---9-12------11-12-9-|---4-------7-----|--------------|
-|-0--------------0---|-0-------------------|-4-----------4---|--------------|


-|-------------------|--------------------|---------------------|------------|
-|-------------------|--------------------|---------------------|------------|
-|-------------------|--------------------|---------------------|------------|
-|-----4-7-6-------7-|--------11-9--------|--------11-9---------|------------|
-|---4-------7-------|---9-12------11---9-|---9-12------11-12-9-|------------|
-|-4-----------4\7---|-0--------------0---|-0-------------------|------------|


-|-----------------|----------------------|--------------------|-------------|
-|-----------------|----------------------|--------------------|-------------|
-|-----------------|----------------------|--------------------|-------------|
-|-----4-7-6-----4-|-------7-11-9---------|-12---11---9--------|-------------|
-|---4-------7-----|-----7--------11-12-9-|---------------12---|-------------|
-|-4-----------4---|-4\7------------------|----9----9---9----9-|-------------|


-|-----------------|-----------------|-----------------|---------------------|
-|-----------------|-------0---------|-------5-------9-|---------------------|
-|-6---6---4-------|-----2---2---2---|-----6-------9---|---------------------|
-|-------------7---|---2-----------2-|---6-------9-----|---------------------|
-|-----------------|-0---------0-----|-4-------7-------|---------------------|
-|---4---4---4---4-|-----------------|-----------------|---------------------|
    Chorus

-|---------------|---------------|-------------------------------|-----------|
-|-------0-------|---------------|-------3-------------7-------9-|-----------|
-|-----2---2-----|-------1-------|-----4---4---------7-------9---|-----------|
-|---2---------2-|-----2---2---

Three Cheers For Five Years Acoustic chords – Mayday Parade V3

 Song: Three Cheers For Five Years (Acoustic Version)
Artist: Mayday Parade

Standard Tuning
Capo 4th fret        



                                 G 
I swear that you dont have to go
                                 Gsus2 
I thought we could wait for the fireworks
                                 Em7 
I thought we could wait for the snow
                          Cadd9 
To wash over Georgia and kill the hurt
                                G 
I thought I could live in your arms
                         Gsus2 
And spend every moment I had with you
                            Em7 
Stay up all night with the stars
                              Cadd9 
Confess all the faith that I had in you


PRE-CHOURS:


 Em7 Gsus2 G 
Too late, Im sure and lonely

Another night, another dream wasted on you
 Em7 Gsus2 G 
Just be here now against me

You know the words so sing along for me baby


CHORUS:

 G Gsus2 Em7 
For heaven's sake I know you're sorry
                    Cadd9 
But you won't stop crying
           Gsus2 G 
This anniversary may never be the same
          Gsus2 Em7 
Inside I hope you know I'm dying
                 Cadd9 
With my heart beside me
              Gsus2 Em7 
In shattered pieces that may never be replaced
          Gsus2 
And if I died right now you'd never be the same

INTERLUDE/VERSE 2:
  ( G )                                ( Gsus2 )
e|----------------------------------|----------------------------------|
B|---------3---------------3--------|---------3---------------3--------|
G|-5-0-5-0---0-5-0-5-0-5-0---0-5-0--|---0---0---0---0---0---0---0---0--|
D|----------------------------------|-4---4-------4---4---4-------4----|
A|----------------------------------|----------------------------------|
E|----------------------------------|----------------------------------|

                                      Em7 
  (Cadd9)      I thought with a month of apart
e|----------------------------------|
B|---------3---------------3--------|
G|---0---0---0---0---0---0---0---0--|
D|-2---2-------2---2---2-------2----|
A|----------------------------------|
E|----------------------------------|

                           Gsus2 
Together would find us an opening
                                 G 
And moonlight would provide the spark

And that I would stumble across the key
                                Em7 
Or break down the door to your heart
                          Gsus2 
Forever could see us not you and me
                             G 
And youd help me out of the dark

And Id give my heart as an offering


PRE-CHORUS


CHORUS

OUTRO:

     Em7 Gsus2 Cadd9 G 
And I will always remember you as you are right now to me
     Em7 Gsus2 G Cadd9 
And I will always remember you now, remember you now

    Cadd9 Gsus2 Em7 
So sleep alone tonight with no one here just by your side
             G 
Sleep alone tonight

 Em7 
How does he feel, how does he kiss?
 Gsus2 
How does he taste while he's on your lips?
 Em7 
How does he feel, how does he kiss?
 Gsus2 
How does he taste while he's on your lips?
 Em7 
How does he feel, how does he kiss?
 Gsus2 
How does he taste while he's on your lips?

 Em7 
I can't forget you
   G

Satisfied With You chords – Dave Clark Five

 Satisfied With You:Dave Clark Five.
#50 on CASH BOX and #51 on BB Hot 100
on EPIC Records in 1966.

INTRO:  C F G .. C F G 

#1.
 C G 
I can see no reason but you're acting so strange.
 G C 
Now, put your trust in me, you should try for a 
 C7 
change.

CHORUS:
             F 
And I'll be satisfied with you, girl..I'll be 
 C A 
satisfied with you.
           D G C G 
You'll be satisfied with me, wait and see.

#2.
      C G 
Now, don't be too concerned about what your friends 

might say.
 G C 
Cause you're with me tonight and I'm gonna make you 
 C7 
stay.

CHORUS:
             F 
And I'll be satisfied with you, girl..I'll be 
 C A 
satisfied with you.
           D G C G 
You'll be satisfied with me, wait and see.


INTERLUDE:  C G C C7 

OUTRO:
              F 
Yes, I'll be satisfied with you, girl..I'll be 
 C A 
satisfied with you.
           D G C F C 
You'll be satisfied with me, wait and see....(Fade.)


A sixties smash from Kraziekhat.

Please Tell Me Why chords – Dave Clark Five

 Please Tell Me Why:Dave Clark Five.
#18 CASH BOX and # 28 on BB Hot 100 on
EPIC Records in 1966.

INTRO:  C D C .. G C G 

#1.
 C G C F C G 
I don't know why she won't love me, Lord, please tell 
    C G 
me why.
 C G C F C G C 
Maybe it's that she don't love me..could it be she's shy.

#2.
 Dm7 G D 
If she's shy then I'll understand, I'll make the first 
          G 
move and hold her hand.
 C G C F C G C 
But if I'm wrong then I'll be mad..la-da-da-da-da.

BRIDGE:
 Bb Eb F C G 
I've been trying, oh, so hard, but she don't seem to 
 C 
notice.
 Bb Eb F C G C 
I sit next to her in class, but she can't see my motive.


INTERLUDE:  D C G .. C G C 

#3.
 C G C F C G C    
Do you think she has a boy..if she has, then I'm done.
 G C G C F C G C 
Cause if he catches me with her, I think I'll have to run.
 Dm7 G D 
If she's passive, she'll understand..I'll value my love,
                G 
but not in her hands.

OUTRO:
 C G C F C G C 
But if I'm wrong then I'll be mad..la-da-da-da-da.
 C G C C G C 
La-da-da-da-da..la-da-da-da-da..(Fade.)


A sixties smash from Kraziekhat.

Five Minutes chords – Scattered Trees

 Intro:  A E6 F#m D/A A/E F#m A E6 F#m 
I'm right here

                 D/A E6 A 
Five minutes at a time, I'm gone

 A F#m C#m Bm A 
I can't breathe, I'm in too deep

            F#m Dm A 
So take me up to the sur-face

         F#m D A 
Take me up to the sur-face

 A F#m C#m Bm F#m (hold)
I won't dream for fear of sleep


Take me up to the surface (x2)


Break:  A E6 F#m D/A E6 A/E F#m A F#m C#m Bm A 
Could you see be-yond the leaves

             F#m Dm A 
When it was me who was search-ing

             F#m D A 
To take you up to the sur-face?

     A F#m C#m Bm F#m (hold)
And I was lost, but I was free

It took the pain to remind me


Break:  F#m Ab7 A B7 C# D A F# D C#7 E D C# E7 
       We loved you everytime

        F#m7 Ab A B7 C#7 D E7 F#m D C# E D C# E7 
       We loved you every time


 A E F#m 
I'm right here

                 D E6 F#m7 Bm7 
Five minutes at a time, I'm gone


Break:  A D6 A Dmaj7 F#m D6 A Dmaj7 A Dmaj7 A A D Em7 Bm7 A 
I can't relate to what I say

 D F#m Bm A 
Cause I'm not my-self

 D Em7 Bm7 A 
I can't relate to what I say

 Dmaj7 Bm A 
Cause I'm not my-self

 A D/A Bm7 A 
I can't relate to what I say

           D C#m7 
Cause I'm not myself, I'm not

 F#7 E Bm7 
I'm right here

                 D A E Bm7 
Five minutes at a time, I'm gone

 A E B7 
I'm right here

                 D E A Bm7 
Five minutes at a time, I'm gone

Outro:  A Amaj F#m D/A A/E F#m

The Agony Of Regret Cold Tabs by Five Finger Death Punch

 The Agony of Regret
Five Finger Death Punch

Tuning: Standard B

This a beautiful and strong piece of guitar. So make sure your guitar is tuned in 
standerd B (B E A D F# B). Listen to the song for the rythm.

For the most beautiful sound I suggest to pick everything but the hammer-on part. You 
can play that part like bass players.

NOTE: When tuning your guitar this low it will easily get out of tune. If you play for a 
long time it will stay in tune. So the first 10 minutes you'll need to re-tune pretty much.


B|-----------------------------------|-----------------------------------|
F#---------------0-------------------|---------------0-------------------|
D|-----------2----------2-------2----|-----------2----------2------2-----|
A|-------5------------------3--------|-------5------------------3--------|
E|-----------------------------------|-----------------------------------|
B|---0-------------------------------|---0-------------------------------|

B|---------------------------------|----------------0--------------------------------------|
F#---------------0-----------------|------------1-------1----1-----------------------------|
D|-----------2----------2----------|--------4--------------4-------------------------------|
A|-------5------------------3------|-------------------------------------------------------|
E|---------------------------------|---0------------------------------------5--------------|
B|---3-----------------------------|---------------------------------0h3h5-----5--3--------|

Play twice

B|-------------------------------------|----------------------------------|
F#-----------0----------------0--------|----------0-------------0---------|
D|-------------------------------------|----------------------------------|
A|-------5------5---------5-------5----|------7-------7------7------7-----|
E|----3--------------3-----------------|---5-------------5-------------5--|
B|-------------------------------------|----------------------------------|

B|-------------------------------------|----------------------------------|
F#-----------0----------------0--------|----------0-----------------------|
D|-------------------------------------|----------------------------------|
A|-------5------5---------5-------5----|------7-------7------9------9-----|
E|----3--------------3-----------------|---5-------------/7------7--------|
B|-------------------------------------|----------------------------------|

B|-------------------------------------|----------------------------------|
F#-----------0----------------0--------|----------0-------------0---------|
D|-------------------------------------|----------------------------------|
A|-------5------5---------5-------5----|------7-------7------7------7-----|
E|----3--------------3-----------------|---5-------------5-------------5--|
B|-------------------------------------|----------------------------------|

B|------------------------------------------|
F#------------------------------------------|
D|------------------------------------------|
A|------------------------------------------|
E|-----7--7-----7--7------7-7------7--7-----|
B|--5--------5---------5--------5-----------|

Enjoy!

Ive Got To Have A Reason chords – Dave Clark Five

 I've Got To Have A Reason:Dave Clark Five.
#44 on BB Hot 100 on EPIC Records in 1967.

#1.
 G C G D C F E 
I've got to have a reason....I got to have a reason..
 E A D G D G D 
I got to have a reason why you're walking out on me.
 D Am Em C G 
There's something on your mind but you won't tell me.
 D Em C D 
Mmm, tell me why you're crying and I will help you,

help you, help you.

#2.
 G C G D C F E 
But I gotta have a reason....I got to have a reason..
 E Am C G 
I got to have a reason why you're walking out on me.

BRIDGE:
 D Em C G 
If there is someone else, then I would like to know.
 Em C D C D  
Gonna find out if you won't tell me, tell me, tell me.

#2.
 D G D F E 
But I gotta have a reason....I got to have a reason..
 E Am C G 
I got to have a reason why, you're walking out on me.
        A D A 
If you tell me what you're thinking everything will be 
   D 
alright. (everything will be all right.) 
 A D 
Love will never leave your side (love will never leave your side) 
        C D 
if you place your trust in me.

OUTRO:
   G D F E 
I got to have a reason....I got to have a reason..
 E Am C G D 
I got to have a reason why you're walking out on me.

OUTRO:
 D G D C F D G 
I got to have a reason...I got to have a reasoooon.


A sixties smash from Kraziekhat.