Tag: Flames

Old Flames chords – Frank Turner

 Old Flames by Frank Turner
 Ten for Ten

Notes!
-Slide up to the open A chords to be all bluesy like Frank (Listen to the track)
-The (*) mark means skip the chords and just walking down an open C to F like so
-0------1-
-1------1-
-0------2-
-2-0----3-
-3---3--3-
-0------1--
^The chords work, but it sounds clunky with full chords changes.
Plus thats how he does it in that one youtube video! You know the one!


This is the key for the youtube video I watched---> https://www.youtube.com/watch?v=Lkv6TsnmirU
So for the album recording you would capo on the 2nd fret.

Intro:

Slide up to A all bluesy like for beats 1-3 and then play D on beat 4
Repeat 4 times, and on the 5th measure ring G for two beats and then D for two beats.
Verse 1 starts on beat 1 of measure 6. Hope thats detailed enough.

Bluesy A Slide

     A A D 
e-0-0----0-0---0
B-1/2----1/2---3
G-1/2----1/2---2
D-1/2----1/2---0
A-0-0----0-0---0
E-0-0----0-0---x


 A A D A A D A A D A A D G D 

Frank Turner:
 A 
I went down to London Town to stay for the weekend
     D A 
I'd been to long out on the road I needed to catch up with my friends
       G A G A 
But I didn't expect to see you there and I didn't expect to care
             F#m E A Bm 
And I said, oh honey if I had known,
 F#m E A Bm 
How the weekend would go,
 F#m E A Bm 
Just how low I could go,
 D E A 
I would've stayed away



(Same chords as ^)
Billy the Kid:
 A 
I went back to town
Pack my things to say goodbye
     D A 
But I got talked in to going for a drink and one drink became a night
 G A G A 
If I'd know that you were 'round, I wouldn't have gone down
             F#m E A Bm 
And I said, oh honey if I could had seen,
 F#m E A Bm 
Where this weekend would lead,
 F#m E A Bm 
And seen the wreckage I'd leave,
 D E A 
I would've stayed away



Frank Turner:
 D 
And I always knew it was a bad idea
 A E 
And I always knew that I should just stay clear 

                             F#m E D 
I slipped up on a couple of months and a couple of beers

I'd like to fall in love again
 A E 
But we're no good at being friends
                                   F#m E         
It's just sex with the ex and the morning regrets 


     A D F 
But do you remember
      G C C/B F D 
Back when we were young and unformed
        A D F G C/G G F D 
It was all so much easier to give of yourself to fall in love, yeah





     A D F G C 
But as we get older and set in our ways
    C/B F 
We hide in our hearts 
 D 
But on nights like these 
        A D F 
It can seem so much simpler
    G C C/B Am G F G 
To simply forget why we ever grew apart



Billy the Kid:
 F</s

Tell Me Its Okay chords – Paramore

 [Capo 2]

 D Bm 
Maybe it's been years since I've genuinely smiled
 D Bm A 
And maybe it's been years since I've wanted to be a part of anything
 D Bm 
But lately I've been good, you know, I've actually been great
 D    
Man, I even laughed a little today
 Bm A 
It's so strange, it's so strange

 D Bm 
Tell me it's okay to be happy now
 A 
Because I'm happy now
 D Bm 
Tell me it's okay to be happy now
 A 
Because I'm happy now

 D Bm A 
Tell me it's okay, tell me it's okay, tell me it's okay, tell me it's okay

 D Bm 
I thought it was my right to be as sorry as I wanted to be
 D Bm A 
I wasted all my teenage years being a misery factory
 D Bm 
But something had to give, I had to finally see the light
 D Bm A 
I think at twenty-three It's time to practice what I preach, and what I'm preaching

 D Bm 
Tell me it's okay to be happy now
 A 
Because I'm happy now
 D Bm 
Tell me it's okay to be happy now
 A 
Because I'm happy now

 D Bm A 
Tell me it's okay, tell me it's okay, tell me it's okay, tell me it's okay

 G D 
All my wasted hope
      Bm A 
I let go when I shoulda held tighter
 G D 
And now when it flames out
 Bm 
I let it burn
A                                      D (let ring)
I'm not afraid to feel it shine on me


Tell me it's okay, tell me it's okay, tell me it's okay, tell me it's okay

Tell me it's okay, tell me it's okay, tell me it's okay, tell me it's okay

 D Bm 
Tell me it's okay to be happy now
 A 
Because I'm happy now
 D Bm 
Tell me it's okay to be happy now
                      A 
My life is finally leveling out so

 D Bm A 
Tell me it's okay, tell me it's okay, tell me it's okay, tell me it's okay

 D Bm 
Tell me it's okay to be happy now
 A 
Because I'm happy now
 D Bm 
Tell me it's okay to be happy now
                      A 
My life is finally leveling out so

 D Bm A 
Tell me it's okay, tell me it's okay, tell me it's okay, tell me it's okay
 D Bm A 
Tell me it's okay, tell me it's okay, tell me it's okay, tell me it's okay

You Put The Hurt On Me chords – The Steeldrivers

 G                                                                
Theres a light on in the kitchen, and I've been losing sleep
 C G    
It seems to me, since you've been gone the dark is twice as deep
 G C        
My mind trys to forget you, but my heart comes back for more
 C D G C G D G 
Cause you put the   hurt on   me   like  I   never   felt    before


 G                                                                
Don't need a guilty conscience to follow me around 
 C G        
Don't need no one to tell me why the rain keeps pouring down
 G C        
Don't need another dark cloud hanging round outside my door
 C D G C G D G 
Cause you put the    hurt on  me    like I never   felt before


 D G                            
The flames turned to ashes, there's still some embers left
 D C D          
Missing you is hard than this whiskey on my breath
 G C        
I never had a memory cut, a path as wide as yours
 C D G C G D G 
Cause you put the    hurt on  me like I never felt before

 D G                                
The flames turned to ashes, there's still some embers left
 D C D           
Missing you is hard than this whiskey on my breath
 G C        
I never had a memory cut, a path as wide as yours
 C D G C G D G 
Cause you put the     hurt on  me      like I never felt before         
 C D G C G D G      
Cause you put the     hurt on  me      like I never felt before

Me And Liza chords – Rufus Wainwright V2

 Love this song from the minute I first heard it and have only found one other version of
chords,(no lyrics tho') which helped me put this together, (my first on
ultimate-guitar) I think this version is a simpler rendition and lacks the G6 chord in 
the other.Also gives and idea where to change chords whilst singing
Any and all comments are welcome and any improvements you can make are gratefully received.


"Me And Liza"   Rufus Wainwright

Intro 2 barres palm muted E and palm mute the first two lines of each verse

Verse 1

 E Amaj7 D9 
Me and Liza, Liza and I, I, I, I, I

                             E 
Famous till the day that we die

 E Amaj7 D9 
Mama made it,so hard to try ah,ah,ah,ah

                       E 
Me and Liza, Liza and I.

                           Amaj7 D9 
Daddy writing, unanswered love letters why?

                        E 
Come on Liza give me a try



Chorus

 C#m7 F#7 
Blowing on the embers of fame

 A C#m7 B 
Burning down the house of your name

 C#m7 F#m7 
Everything can go up in flames

 A E D A F#m7 
As long as you have something to fra-a-a-a-ame



Verse 2

 E Amaj7 D9 
Energizer,    Baby's on fire, ire, ire,ire, ire

                           E 
No-ones gonna hatchet you down

                               Amaj7 D9 
Terminator,   Thief of desire ire, ire, ire, ire

                             E 
No-ones getting out of this town


Chorus

 C#m7 F#m7 
Poking at the embers of fame

 A C#m7 B 
Burning down the house of your name

 C#m7 F#m7 
Everything can go up in flames

 A E D A F#m7 
As long as you have something to fra-a-a-a-ame


Verse 3

 E Amaj7 D9 
Me and liza, Liza and I, I, I, I, I

                                E 
Happy that we're now such good friends

 E Amaj7 D9 
Looking forward, forward to se-e-e-eing Yah

                          E 
Love like ours we cannot pretend


Chorus

 C#m7 F#m7 
Choking on the embers of fame


 A C#m7 B 
Burning down the house of your name

 C#m7 F#m7 
Everything can go up in flames

 A E D A F#m7 
As long as you have something to fra-a-a-a-ame


Outro

 E Amaj7 
Me and Liza, Liza and I

 E Amaj7 
Me and Liza, Liza and I

 E Amaj7 
Me and Liza, Liza and I

 E Amaj7 E 
Me and Liza, Liza and I

Isobella chords – The Little Flames

 All chords are played barred except E of course.

(Intro:  C#m G# )

 C#m A C#m A 
I've cried so many times just thinking of you

 C#m A G#m  
Your hollow face made strangers of your eyes

 C#m A C#m A 
Behind that empty gaze I tried to find you

 C#m A G#m 
Lost within yourself for all this time

 C#m A C#m 
Kept your picture on the wall

 C#m A B 
Kept your picture on the wall

               A C#m A 
Did you forget yourself again? 

(Chorus)
 C#m E G# F#m 
Isobella, Isobella, hide your lonely face

 C#m E G# F#m 
Isobella, Isobella, you can't walk away

 E F#m 
Walk away

(Same chords as first verse)
Remember when the shadows tried to blind you
There's not a time or place you can control
How many times I dreamed that I would find you
Come on home and shelter from the cold
Kept your picture on the wall
Kept your picture on the wall
Did you forget yourself again?

(Chorus) Walk away (x3)

(Intro again)

 C#m F#m C#m F#m C#m F#m 
Isobella, Isobella

 Dm Gm Dm Gm 
Isobella, Isobella

 C#m F#m C#m F#m 
Isobella walk away, Isobella walk away

 Dm Gm Dm Gm C#m 
Isobella walk away, Isobella walk away

Down In Flames chords – Stoney Larue

 Down In Flames
Written by Stoney Larue and Brandon Jenkins
Red Dirt Album

 Andrew Magness
magness at gmail.com

Capo 3
Drop D Tuning

 G/B  - 020033


 Cadd9 G/B D    (twice)

            Cadd9 G/B 
Bein on the run
                     D     
There's one thing I found
                  Cadd9 G/B 
Ya don't miss the sun
                    D 
Until the sun goes down
            Cadd9 G/B 
To get to heaven
                      D 
Well I'll go through hell
                    Cadd9 G/B 
Well I learned my lesson
                   D 
And I learned 'em well

CHORUS:
             Bm A G/B 
If I'm goin down
                   D 
I'm goin down in flames
                 Cadd9 G/B 
From this moment on
                                  D 
There ain't nothin gonna be the same
                  Bm A G/B 
One thing's for certain
                           D 
Everybody's gonna know my name
             Cadd9 G/B 
If I'm goin down
                   D 
I'm goin down in flames


To climb a mountain
You got to risk the fall
For it to make a difference
Oh sometimes you got to risk it all
Be like the eagle
Spread your wings and fly
Don't be afraid to lose no more
Don't be afraid to die

CHORUS 2:
If I'm goin down
I'm goin down in flames
From this moment on
There ain't nothin gonna be the same
If you've got the fire
Hey I've got the gasoline
If I'm goin down
I'm goin down in flames

Bein on the run
There's one thing I've found
You don't miss the sun
Until the sun goes down

Twin Flames chords – Epica

 i don´t really know about the last line of the chorus sry


 Dm Bb C Dm 
You're eternal, my love
 Dm Bb C Dm 
for me, you're all there ever was
 Dm Bb C Dm 
every limit overcome
 Dm Bb C Dm 
as were entangled, we are one

 Cm Fm 
Words are left unsaid burning in my head
 Cm G 
now I only wish I could hold you again
 Cm Fm 
being there with you I feel at ease
 Cm G 
being there with you is all


 F 
I ever need
 Dm 
my one belief
             Bb C 
we share a common energy
             F Dm 
I've flown afar beyond the sea
             Bb C 
to find the other side of me
             F Dm 
I've waited long and patiently
             Bb C 
to find the one to balance me
          F Bbm 
to live without dubiety
              Cm Bbm Fm 
this is my covenant to thee

        Dm Bb C Dm 
Life feels empty, my love
  Dm Bb C Dm 
it pains me so to give you up
 
 Cm Fm 
Sentiments untold never to unfold
 Cm G  
now I only wish I could hold you again
 Cm Fm 
being there with you I'm whole again
 Cm G 
being there with you is all

 F 
I ever need
 Dm 
my one belief
             Bb C 
we share a common energy
             F Dm 
I've flown afar beyond the sea
             Bb C 
to find the other side of me
             F Dm 
I've waited long and patiently
             Bb C 
to find the one to balance me
          F Bbm 
to live without dubiety
              Cm Bbm Fm 
this is my covenant to thee
 
 Fm 
Ever need, my one belief
  
            G# 
You're all I need
        Fm 
my one belief
              C# D# 
the winds of time will carry me
          G#         
to live without dubiety
don't let this ever end

We've flow afar
beyond the sea
to find each other finally
we've waited long and patiently
to build a bridge between dualities 

In The Dreamtime Chords – Ralph Mctell

 C G C F C Am Dm G        
The scent of smoke on desert wind, beneath the southern cross,
 C G C F C Am Dm G 
Far beyond where time begins, and generations lost.
 C F C 
I could not be further from you now,
      Am F G 
With both feet on the ground. 
            C G C 
But in the dreamtime souls take flight, 
     F C G C 
And I am closer to you now.
    C G C F C Am Dm G 
If I should lay me down to sleep, by forest green or shining lake,
 C G C F C Am G C          
I could arise to find it gone, to take for granted my mistake.
     C F C 
Yet I could not be further from you now,
      Am F G 
With both feet on the ground. 
            C G C 
But in the dreamtime souls take flight, 
     F C G C 
And I am closer to you now.
 C G C F C Am Dm G 
Mountains crumble forests vanish, seeds awakened by the fire,
 C G C F C Am G C    
Water air and the earth have born them and I can feel my own ones near.
     C F C 
Yet I could not be further from you now,
      Am F G 
With both feet on the ground. 
            C G C 
But in the dreamtime souls take flight, 
     F C G C 
And I am closer to you now.
 C G C F C Am Dm G 
Flames are dancing in the fire, timeless songs are on the air,
 C G C F C Am G C 
In the wilderness they’re crying, but there’s laughter everywhere.
     C F C 
Yet I could not be further from you now,
      Am F G 
With both feet on the ground. 
            C G C 
But in the dreamtime souls take flight, 
     F C G C 
And I am closer to you now.

Come Awaken Love Chords – Bethel Live

 Intro:  Eb Bb/D F  x2


Verse1:
 Eb Bb/D F Gm Eb 
Like a fire in the night, Who's flames reach and touch the sky
            Bb/D F Eb 
Burn within my soul and mind, `Till are I see are Your eyes
             Bb/D F Gm Eb 
Like the dawn takes back the light, Like Your Son brought back to life
         Bb/D F Cm Gm F 
Resurrect my soul's desire, To burn again with true love's fire
                     Cm Gm F 
With true love's fire




Chorus:
             Gm Eb Bb 
Lord God come awaken love
                           Gm Eb Bb 
Come stir my soul to long for all You are
                          Gm Eb Bb 
I'm desperate just to have more of Your heart
                     Gm Eb Bb 
Come awaken love




Bridge:
          Eb         Bbsus  Bb 
`Cause I live to love You
   Gm F 
Almighty God of love
              Eb          Bbsus  Bb 
And my desire is to know you
      Gm F 
And give you all my heart

Final Chorus:
             Eb Bb 
Lord God come awaken love
                           Eb Bb 
Come stir my soul to long for all You are
                          Gm Eb Bb 
I'm desperate just to have more of Your heart
                    Gm ///  Eb ///  Bb /// // Cm / x3               Last:  Gm ///  Eb ///  Bb 
Come awaken love

What You Went Through Chords – Late Nite Reading

 D          
They told me to unload my problems,
 A  
get them out of my head, 
 Em 
to the people in graveyards,
 G  
cause I can't bore them to death. 
 D 
Cause you're rhetorically brilliant, 
 A 
it's sufficient at best, 
 Em 
and your words can paint a picture,
 G  
and they've made quite a mess. 
  
 D 
The people around you, 
 A 
they'll all be gone soon- 
 Em 
and it will be worth it, 
 G 
everything you went through.
 D  
It's so superficial, 
 A 
it doesn't matter at all- 
 Em 
give in, and get over it,
 G  
you'll thrive and you'll fall. 
 
 (Same throughout entire song btw)
 
Yeah I've started lots of fires, 
yeah I've set some things ablaze, 
and the only things left to exstinguish- 
are all these poetic flames. 
This hometown hero's burning, 
it's getting too hot to think, 
and the only hose aimed to save this town, 
ran dry with alarming speed. 
  
The people around you, 
they'll all be gone soon- 
and it will be worth it, 
everything you went through. 
It's so superficial, 
it doesn't matter at all- 
give in, and get over it, 
you'll thrive and you'll fall. 
  
The people around you, 
they'll all be gone soon- 
and it will be worth it, 
everything you went through. 
It's so superficial, 
it doesn't matter at all- 
give in, and get over it, 
you'll thrive and you'll fall.

Nothing To Show Chords – Nathaniel Rateliff V2

 F ...

 F Dm 
One single out of ten
                                    C 
seen better odds then them
                   F 
its not that bad
 
        F 
and me
                                     Dm 
i was digging with my crutch
                            C 
stand in my own rut
                    F 
that I wrote down

          F 
while you
                          Dm 
you just sit and stare
                                   C 
its not appealing its a tear
                                      Gm C 
and its distance and its where
                         F 
its gettin under my skin

            Bb 
Now a wave
                       C 
will carry you away
                              Dm 
lead you somewhere else
                       Gm 
lead you into flames
                           Bb 
so let the dirges ring
                       C C 
I'll be there to burn with you

 F Dm 
We're all broke down
                     F 
we're all well hid
                    Dm C 
we're all just kids
                    F 
despite our age
 
         F 
Now look
                             Dm 
you see this broken hand
                                  C 
its just another limb
                  F 
well not to me

          F 
while you 
                                   Dm 
don't listen you just talk
                                   C 
well leave me in the dark
                           F 
i don't wanna know

 F Bb 
Now a wave
                       C 
will carry you away
                              Dm 
lead you somewhere else
                       Gm 
lead you into flames
                           Bb 
so let the dirges ring
                       C C 
I'll be there to burn with you

 F C Gm Gm F C Gm      
They don't call my name anymore
                F C Gm      
They don't wrap themselves in a song in the night
                F C Gm      
They don't call us all that we are
          F C Gm Dm 
After all we got nothing to show for
          F C Gm Dm 
After all we got nothing to show for
          F C Gm            ...... F 
After all we got nothing to show for
.... F

Enough For You Chords – Kids In Glass Houses

Standard Tuning

(synth Intro:  Am ,  Am ,  G ,  G , then  Am ,  F ,  G ,  G ,)
[Guitar comes in at first G bar]

Verse one
            C Am F 
All the nights that we played slowing down every day 
                   G 
When we're flying, 
                 G 
and colliding
           C Am F                                   
let me drown in the flames as the town gives me names 
             G 
all the dying,
           G  
and conniving,

Prechorus
 F G 
Woah, you keep me up, 
                          Am C 
You know you've got me where you want me, darling 
 F G 
Woah you've got my trust 
                Am G 
And no, you never let me down 

cos you say 


 C G Am F 
This will never be enough for you 
           C G Am F 
but we try and we try and we try to see it through

[Synth:  Am ,  F ,  G ,  G  (x2)] 

Verse Two
            C Am F 
In  the fire escape of the old english grace 
             G 
You were mine, 
             G 
you were mine,
          Am F     
As we come face to face with the courage we chased
             G 
down the line, 
         G 
we're defying


     F G 
but whoa, your lips are dust, 
                          Am C 
you know you've got me where you want me darling and 
 F G 
woah, I miss your touch,
                    Am G 
the way you always let me down and I'll say


 C G Am F 
This will never be enough for you 
           C G Am F 
but we try and we try and we try to see it through


 C G Am F 
This will never be enough for you (no it never, no it 
never)
 C G Am F 
Yeah we lie and we lie and we lie until it's true (yeah 
we're lying, yeah we're lying)

 Am ~

 A Em G 
You're not my darling
 A G E G 
Woaaah, you're not my darling
 Am G 
Woaaah, you're not my darling
 Am C F G 
Woaaah, you're not my darling


 C ~
This will never be enough for you
                                                                                    G 
Take my heart and my soul, everything that I hold on to


 C G Am F 
Faith will never be enough for you
         C G Am 
Take my heart and my soul, everything that I hold on to, 
woah
        C G 
And we try yeah we try and we try and we try
    Am F 
We try and we try yeah we try, 
                                                
           C G Am 
and we try and we try and we try to see it...
 F Am ~
throooough

Graffiti In Space Tabs by Fatso Jetson

 Graffiti in Space by Fatso Jetson.
This song is from the album "Flames for All".
I've tabbed this the way I play it, but once you know how to play it,
it is a very cool song to jam/improvise to.
Listen to the song to understand the rhythm and timing of the notes used.
This is played in Drop D tuning.



e|------------------------------------------------------|
B|----10---7-5--------------------------5----0----------|
G|-7---------7b-----------------5-----0--------7b-------|
D|---------------------11-----0---7b------7b------------|
A|-----------------0-0----10\---------------------------|
D|------------------------------------------------------|

e|--------------------------------------------------------------|
B|---------------------5----0-7b----------------------5----0-7b-|
G|--------------5----0---7b--------------------5----0---7b------|
D|-----11-----0---7b------------------11-----0---7b-------------|
A|-0-0----10\---------------------0-0----10\--------------------|
D|--------------------------------------------------------------|

e|---------------------------------------------------------------|
B|---------------------5----0-7b-7b------------------------------|
G|--------------5----0---7b---------4h6b--4h6-4------------------|
D|-----11-----0---7b----------------------------5-7-5h7p5--------|
A|-0-0----10\---------------------------------------------5-7-/\-|
D|---------------------------------------------------------------|

e|--------------------------------------------------------------|
B|---------------------5----0-7b----------------------5----0-7b-|
G|--------------5----0---7b--------------------5----0---7b------|
D|-----11-----0---7b------------------11-----0---7b-------------|
A|-0-0----10\---------------------0-0----10\--------------------|
D|--------------------------------------------------------------|

e|--------------------------------------------------------------|
B|---------------------5----0-7b----------------------5----0-7b-|
G|--------------5----0---7b--------------------5----0---7b------|
D|-----11-----0---7b------------------11-----0---7b-------------|
A|-0-0----10\---------------------0-0----10\--------------------|
D|--------------------------------------------------------------|

e|--------------------------------------------------------------|
B|---------------------5----0-7b----------------------5-5-5-5---|
G|--------------5----0---7b--------------------5----0-7b7b7b7b--|
D|-----11-----0---7b------------------11-----0---7b-------------|
A|-0-0----10\---------------------0-0----10\--------------------|
D|--------------------------------------------------------------|

e|---------------------------------------------------------------|
B|---------------------------------------------------------------|
G|---------------------------------------------------------------|
D|-----11-------5-------------5-------11-------5-------------5---|
A|-0-0----10\-0---3----5--------7-0-0----10\-0---3----5--------7-|
D|-------------------0---3--0-----------------------0---3--0-----|

e|---------------------------------------------------------------|
B|---------------------------------------------------------------|
G|---------------------------------------------------------------|
D|-----11-------5-------------5-------11-------5-------------5---|
A|-0-0----10\-0---3----5--------7-0-0----10\-0---3----5--------7-|
D|-------------------0---3--0-----------------------0---3--0-----|

e|--------------------------------------------------------------|
B|---------------------5----0-7b----------------------5----0-7b-|
G|--------------5----0---7b--------------------5----0---7b------|
D|-----11-----0---7b------------------11-----0---7b-------------|
A|-0-0----10\---------------------0-0----10\--------------------|
D|--------------------------------------------------------------|

e|-----------------------------------------------------------------|
B|

The Untimely Death Of The Keyboard Player Tabs by Fatso Jetson

 The Untimely Death of the Keyboard Player by Fatso Jetson.
This song is from the album "Flames for All".
I've tabbed this the way I play it.
Listen to the song to understand the rhythm and timing of the notes used.
This is played in Drop D tuning.



e|-----------------------------------------|
B|-111-444-333-222-66-55-888888888888888---|
G|-000-333-222-111-55-44-777777777777777---|
D|-----------------------------------------|
A|-----------------------------------------|
D|-----------------------------------------|

e|-----------------------------------------|
B|-----------------------------------------|
G|-----------------------------------------|
D|-111-444-333-222-6-5-888-888-888-888-888-|
A|-111-444-333-222-6-5-888-888-888-888-888-|
D|-111-444-333-222-6-5-888-888-888-888-888-|

e|-----------------------------------------|
B|-----------------------------------------|
G|-----------------------------------------|
D|-111-444-333-222-6-5-888-888-888-888-888-|
A|-111-444-333-222-6-5-888-888-888-888-888-|
D|-111-444-333-222-6-5-888-888-888-888-888-|

e|-----------------------------------------|
B|-----------------------------------------|
G|-----------------------------------------|
D|-111-444-333-222-6-5-888-888-888-888-888-|
A|-111-444-333-222-6-5-888-888-888-888-888-|
D|-111-444-333-222-6-5-888-888-888-888-888-|

e|-----------------------------------------|
B|-----------------------------------------|
G|-----------------------------------------|
D|-111-444-333-222-6-5-888-888-888-888-888-|
A|-111-444-333-222-6-5-888-888-888-888-888-|
D|-111-444-333-222-6-5-888-888-888-888-888-|

  Guitar 1          Guitar 2
e|-----------------|-------------------|
B|-----------------|--9----6----5---2--|
G|-----------------|--11b--8b---7b--4b-|
D|-11-11-8---7-7-4-|-------------------|
A|-11-11-8---7-7-4-|-------------------|
D|-11-11-8---7-7-4-|-------------------|

e|------------------------------------------|
B|--------3-------------------3-------------|
G|-555-5552------------555-5552-------------|
D|-555-5550------------555-5550-------------|
A|-333-333---3-5p3-----333-333---3-5p3------|
D|-----------------2b------------------2b---|

  Guitar 1          Guitar 2
e|-----------------|-------------------|
B|-----------------|--9----6----5---2--|
G|-----------------|--11b--8b---7b--4b-|
D|-11-11-8---7-7-4-|-------------------|
A|-11-11-8---7-7-4-|-------------------|
D|-11-11-8---7-7-4-|-------------------|

e|------------------------------------------|
B|--------3-------------------3-------------|
G|-555-5552------------555-5552-------------|
D|-555-5550------------555-5550-------------|
A|-333-333---3-5p3-----333-333---3-5p3------|
D|-----------------2b------------------2b---|

e|------------------------------------------|
B|--------3-------------------3:------------|
G|-555-5552------------555-5552:------------|
D|-555-5550------------555-5550:------------|
A|-333-333---3-5p3-----333-333--------------|
D|-----------------2b-----------------------|

e|-----------------------------------------|
B|-----------------------------------------|
G|-555-444-333-222-66-55-888888888888888---|
D|-555-444-333-222-66-55-888888888888888---|
A|-----------------------------------------|
D|-----------------------------------------|

e|-----------------------------------------|
B|-----------------------------------------|
G|-----------------------------------------|
D|-111-444-333-222-6-5-888-888-888-888-888-|
A|-111-444-333-222-6-5-888-888-888-888-888-|
D|-111-444-333-222-6-5-888-888-888-888-888-|

e|-----------------------------------------|
B|-----------------------------------------|
G|-----------------------------------------|
D|-111-444-333-222-6-5-888-888-888-888-888-|
A|-111-444-333-222-6-5-888-888-888-888-888-|
D|-111-444-333-222-6-5-888-888-888-888-888-|

e|-----------------------------------------|
B|-----------------------------------------

You Were On Fire Chords – Keren Ann

 I based this by watching an acoustic version of the song played by Keren Ann 
(https://www.youtube.com/watch?v=piRmUbgpGzM) 

CAPO ON 4th

Chords used
 Eadd9 : 022102
 G : 320003 (or 355433 for chorus like Keren in the video) 
 Am : x02210 (or 577555 like Keren in the video)
 Am7 : x02213
 Cmaj7 : x32003
 Dm : xx0231 (or x57765 like Keren in the video)
 G# : 466544
 F : 133211
 F# : 244322
 Cm : x35543
 Gm : 355333

Intro:  Eadd9 Eadd9 Eadd9 
I've never seen you clear before
      Cmaj7 
I've never heard you cry
     Am7 
My blinded heart has washed ashore
     Cmaj7 
My innocence's gone dry

       Eadd9 
And I wish I had more patience
           Cmaj7 
There are things I can't reverse
              Am7 
I don't know why you were so threatened
          Cmaj7 
By the entire universe

              G 
You were on fire
 Dm 
Tainted in the sun
     Am 
You ran against the raging wind
 G# G 
Decadent and drunken with desire

             Dm 
Fooling the love of everyone
      Am 
Your reverence in flames
               G# G 
Your eyes were golden and awake
              Am7 Cmaj7   
You were on fire

 Eadd9 Cmaj7 Am7 Cmaj7 Eadd9 
No one's ever saved you
     Cmaj7 
You only saw him bleed
         Am7 
And his sorrow misbehaved you
       Cmaj7 
To avenge and not to plead

           Eadd9 
But out here, there is no other
         Cmaj7 
Who has seen you broken down
           Am7 
Bare and blameless for your lover
          Cmaj7 
Bold and fearless for the crowd

              G 
You were on fire
 Dm 
Tainted in the sun
     Am 
You ran against the raging wind
 G# G 
Decadent and drunken with desire

             Dm 
Fooling the love of everyone
      Am 
Your reverence in flames
               G# G 
Your eyes were golden and awake
              F     
You were on fire

 Cm Gm F# G# G 
You were on fire
             Dm 
Fooling the love of everyone
      Am 
Your reverence in flames
               G# G 
Your eyes were golden and awake
             Am7 Cmaj7   
You were on fire

Outro:  Eadd9 Cmaj7 Am7 Cmaj7 Eadd9

Vatos Of The Astral Plane Tabs by Fatso Jetson

 Vatos of the Astral Plane by Fatso Jetson.
This song is from the album "Flames for All".
I've tabbed this the way I play it.
Listen to the song to understand the rhythm and timing of the notes used.
This is played in standard tuning.



e|-----------------------------------------------------|
B|-----------------------------------------------------|
G|-------2p0-------------2p0-------------2p0-----------|
D|---2p0-------------2p0-------------2p0---------------|
A|-1-------------2-1-------------2-1-------------------|
E|-----------3-0-------------3-0-----------------------|

e|-----------------------------------------------------|
B|-----------------------------------------------------|
G|-------------2p0-------------2p0-------------2p0-----|
D|---------2p0-------------2p0-------------2p0---------|
A|-----2-1-------------2-1-------------2-1-------------|
E|-3-0-------------3-0-------------3-0-----------------|

e|-----------------------------------------------------|
B|-----------------------------------------------------|
G|-------------2p0-------------2p0-------------2p0-----|
D|---------2p0-------------2p0-------------2p0---------|
A|-----2-1-------------2-1-------------2-1-------------|
E|-3-0-------------3-0-------------3-0-----------------|

e|-----------------------------------------------------|
B|-----------------------------------------------------|
G|-------------2p0-------------2p0-------------2p0-----|
D|---------2p0-------------2p0-------------2p0---------|
A|-----2-1-------------2-1-------------2-1-------------|
E|-3-0-------------3-0-------------3-0-----------------|

e|-----------------------------------------------------|
B|-----------------------------------------------------|
G|-------------2p0-------------2p0-------------2p0-----|
D|---------2p0-------------2p0-------------2p0---------|
A|-----2-1-------------2-1-------------2-1-------------|
E|-3-0-------------3-0-------------3-0-----------------|

e|-----------------------------------------------------|
B|-----------------------------------------------------|
G|-------------2p0-------------2p0-------------2p0-----|
D|---------2p0-------------2p0-------------2p0---------|
A|-----2-1-------------2-1-------------2-1-------------|
E|-3-0-------------3-0-------------3-0-----------------|

e|-----------------------------------------------------|
B|-----------------------------------------------------|
G|-------------2p0-------------2p0-------------2p0-----|
D|---------2p0-------------2p0-------------2p0---------|
A|-----2-1-------------2-1-------------2-1-------------|
E|-3-0-------------3-0-------------3-0-----------------|

e|-----------------------------------------------------|
B|-----------------------------------------------------|
G|-------------2p0-------------2p0-------------2p0-----|
D|---------2p0-------------2p0-------------2p0---------|
A|-----2-1-------------2-1-------------2-1-------------|
E|-3-0-------------3-0-------------3-0-----------------|

e|-----------------------------------------------------------------|
B|-----------------------------------------------------------------|
G|-----------------------------------------------------------------|
D|-------5-5-----3-3--------------4p0-5-5-----3-3--------------4p0-|
A|-----2-5-5-2p0-3-3----3-----5p3-----5-5-2p0-3-3----3-----5p3-----|
E|-3-0---3-3-----1-1-/5---4-5---------3-3-----1-1-/5---4-5---------|

e|-------------------------------------------------------------|
B|-------------------------------------------------------------|
G|-------------------------------------------------------------|
D|-5-5-----3-3--------------4p0-5-5-----3-3--------------4p0---|
A|-5-5-2p0-3-3----3-----5p3-----5-5-2p0-3-3----3-----5p3-------|
E|-3-3-----1-1-/5---4-5---------3-3-----1-1-/5---4-5-----------|

e|-----------------------------------------------------|
B|-----------------------------------------------------|
G|---------

Things We Lost In The Fire Chords – Bastille V3

 BASTILLE – THINGS WE LOST IN THE FIRE



 Em C D 
Things we lost to the flame
 Em C Am D 
Things we'll never see again
 Em C D 
All that we've amassed
 Em C Am D 
Sits before us, shattered into ash

 Em D 
These are the things, the things we lost
 Bm C 
The things we lost in the fire fire fire
 Em D 
These are the things, the things we lost
 Bm C 
The things we lost in the fire fire fire

 Em D 
We sat and made a list
 Bm C 
Of all the things that we have
 Em D 
Down the backs of table tops
 Bm C 
Ticket stubs and your diaries
 Em D 
I read them all one day
      Bm C 
When loneliness came and you were away
 Em D 
Oh they told me nothing new,
       Bm C 
But I love to read the words you used

 Em D 
These are the things, the things we lost
 Bm C 
The things we lost in the fire fire fire
 Em D 
These are the things, the things we lost
 Bm C 
The things we lost in the fire fire fire

 Em  –  C  –  D  (2x)

 Em D 
I was the match and you were the rock
 Bm C 
Maybe we started this fire
 Em D 
We sat apart and watched
 Bm D 
All we had burned on the pyre

            Em D 
(You said) we were born with nothing
        Bm C 
And we sure as hell have nothing now
            Em D 
(You said) we were born with nothing
        Bm C 
And we sure as hell have nothing now

 Em D 
These are the things, the things we lost
 Bm C 
The things we lost in the fire fire fire
 Em D 
These are the things, the things we lost
 Bm C 
The things we lost in the fire fire fire

 Am F C G 
Do you understand that we will never be the same again?
 Am F C G 
Do you understand that we will never be the same again?
      Am F C G 
The future's in our hands and we will never be the same again
      Am F C G 
The future's in our hands and we will never be the same again

 Em D 
These are the things, the things we lost
 Bm C 
The things we lost in the fire fire fire
 Em D 
These are the things, the things we lost
 Bm C 
The things we lost in the fire fire fire

 Em D 
These are the things, the things we lost
                Bm C 
These are the things we lost in the fire fire fire


 Em  –  C  –  D  (2x)


 Em C D 
Flames they licked the walls
 Em C Am D 
Tenderly they turned to dust all that I adore

Dust To Dust Chords – The Civil Wars V2

 Capo 1

Intro:  C G C G C G C G 

Verse 1:
 C       
It's not your eyes
          G C 
It's not what you say
                 Am 
It's not your laughter
That gives you away
               F 
You're just lonely
              G C 
You've been lonely, too long

Verse 2:
 C G C 
Oh, you're acting your thin disguise
             Am 
All your perfectly delivered lines
              F 
They don't fool me
             G C 
You've been lonely, too long


Chorus:
              F 
Let me in the wall
              C 
You've built around
              G 
We can light a match
             Am 
And burn it down
                 F 
Let me hold your hand
                               C 
And dance 'round and 'round the flames
            G 
In front of us
Dust to dust


Verse 3:
 C 
You've held your head up
         G C 
You've fought the fight
           Am 
You bear the scars
You've done your time
          F 
Listen to me 
              G C 
You've been lonely, too long


Chorus:
             F 
Let me in the wall
              C 
You've built around
              G 
We can light a match
             Am 
And burn it down
                F 
Let me hold your hand
                               C 
And dance 'round and 'round the flames
            G 
In front of us
Dust to dust


Instrumental:
 Am F C G  x2


Verse 4 (Outro):
 C G C 
You're like a mirror, reflecting me
                  Am 
Takes one to know one, so take it from me
           F 
You've been lonely
            G C 
You've been lonely, too long
 G F 
We've been lonely
            G C 
We've been lonely, too long

 G C G C G C

Dust To Dust Chords – The Civil Wars V3

 The Civil Wars
The Civil Wars
Dust To Dust

Standard Tuning
Capo 1st Fret

 F 
It's not your eyes
        G C 
It's not what you say
               Am 
It's not your laughter that gives you away
              E 
You're just lonely
              G 
You've been lonely, too long


 C  -  G  -  C 


All your actin'
Your thin disguise
All your perfectly delivered lies
They don't fool me
You've been lonely, too long

Chorus:
                E Am 
Let me in the wall, you've built around
                      G Am 
And we can light a match and burn it down
                   E Am 
Let me hold your hand and dance 'round and 'round the flame
              G 
In front of us
Dust to ...

You've held your head up
You've fought the fight
You bear the scars
You've done your time
Listen to me-
You've been lonely, too long

Chorus:
Let me in the wall, you've built around
And we can light a match and burn them down
And let me hold your hand and dance 'round and 'round the flames
In front of us
Dust to Dust...

You're like a mirror, reflecting me
Takes one to know one, so take it from me
You've been lonely
You've been lonely, too long
We've been lonely
We've been lonely, too long

Shooting Star Chords – Owl City V3

 This is a tab for the acoustic version of Shooting Star, off of the new The 
Midsummer Station Acoustic EP. I think this take of the song is better, and at 
least a little more like Owl City's pre-TMS stuff.

For the purposes of this tab, whenever you see an E, just play the open chord 
(022100), and when you see E(barre chord), play x79997. All the E (barre chords) 
are played quickly.

Key: B

Intro:  B E B E (barre chord)  E B E 
Close your tired eyes,  relax and then
 B E (barre chord)      E 
Count from one to ten,           and open them
 B E 
All these heavy thoughts   will try to weigh you down
 B E (barre chord)  E 
But not this time
 B E 
Way up in the air,  you're finally free
 B E (barre chord)        E 
And you can stay up there           right next to me
 B E 
All this gravity   will try to pull you down
 B E (barre chord)  E 
But not this time

          B 
When the sun goes down and the lights burn out,
           E 
Then it's time for you to shine
                 G#m 
Brighter than a shooting star
                 E F# 
Shine no matter where you are
          B 
Fill the darkest night with a brilliant light,
             E 
'Cause it's time for you to shine
                 G#m 
Brighter than a shooting star
                    E F# 
So shine no matter where you are    tonight

 B 
Whoa, whoa, whoa,
                 G#m 
Brighter than a shooting star
                 E F# 
Shine no matter where you are    tonight


Gaze into my eyes when the fire starts
And melt the flames so hot, it melts our hearts
All the pouring rain will try to put it out,
But not this time
Let your colors burn and brightly burst
Into a million sparks that all disperse
And illuminate a world that'll try to bring you down,
But not this time

When the sun goes down and the lights burn out,
Then it's time for you to shine
Brighter than a shooting star
Shine no matter where you are
Fill the darkest night with a brilliant light,
'Cause it's time for you to shine
Brighter than a shooting star
Shine no matter where you are tonight

Whoa, whoa, whoa,
Brighter than a shooting star
Shine no matter where you are

 F# B F# B 
   Tonight
 F# B 
   A thousand heartbeats beat in time
 F# B 
   And makes this dark planet come alive,
 F# B 
   So when the lights flicker out tonight,
 F# 
   You gotta shine

When the sun goes down and the lights burn out,
Then it's time for you to shine
Brighter than a shooting star,
So shine no matter where you are
Fill the darkest night with a brilliant light,
'Cause it's time for you to shine
Brighter than a shooting star,
So shine no matter where you are tonight

Whoa, whoa, whoa,
Brighter than a shooting star
Shine no matter where you are tonight

End on  B .

Thanks!