Tag: flowers

Supermarket Flowers Piano Chords by Ed Sheeran

[Intro]
C  Em  F
C  Em  F


[Verse 1]
            C             Em                  F
I took the supermarket flowers from the windowsill
            C         Em             F
I threw the day old tea from the cup
Am                G          F       Dm7      C
   Packed up the photo album Matthew had made
    F           G                    C
Memories of a life that’s been loved

            C            Em              F
Took the get well soon cards and stuffed animals
           C            Em               F
Poured the old ginger beer down the sink
Am            G                 F        Dm7         C
   Dad always told me don’t you cry when you’re down
                  F          G                 C
But mum there’s a tear every time that I blink


[Pre-Chorus 1]
Dm            F              C         G
   Oh I’m in pieces, it’s tearing me up but I know
Dm                F            C                     G
   A heart that’s broke is a heart that’s been loved


[Chorus 1]
             C          Em   F
So I’ll sing Hallelujah 
            G            C               Em   F
You were an angel in the shape of my mum
            G
When I fell down you’d be there
Am            F              C            G
Holding me up, spread your wings as you go 
          Am                F           C         G           
And when God takes you back, he’ll say Hallelujah, you’re home
C  Em  F   G
C  Em  F


[Verse 2]
                 C               Em                     F
I fluffed the pillows, made the beds, stacked the chairs up
            C            Em             F
Folded your nightgowns neatly in a case
G Am                G                  F                C
     John said he’d drive then put his hand on my cheek
            F              G          C
And wiped a tear from the side of my face


[Pre-Chorus 2]
Dm                 F          C              G
   And I hope that I see the world as you did cause I know
Dm             F           C                    G
   A life with love is a life that’s been lived


[Chorus 2]
             C          Em   F
So I’ll sing Hallelujah 
            G            C               Em   F
You were an angel in the shape of my mum
            G
When I fell down you’d be there
Am            F              C            G
Holding me up, spread your wings as you go 
          Am                F           C         G           
And when God takes you back, he’ll say Hallelujah, you’re home


[Bridge]
C   Em  F
Ooh ooh ooh
C   Em  F
Ooh ooh ooh
C   Em  F
Ooh ooh ooh
Am  G   F 
Ooh ooh ooh


[Chorus 3]

(C  = x32010)
(Em = x22003)
(Fadd9 = xx3213)

C          Em   Fadd9
Hallelujah 
                         C               Em   Fadd9
You were an angel in the shape of my mum
                          Am            F              C             G
You got to see the person I have become, spread your wings and I know that when
 Am               F         C         G            C
God took you back, he said Hallelujah, you’re home

Supermarket Flowers Piano Chords by Ed Sheeran

[Intro]

C Em7 F
C Em7 F


[Verse]

             C         Em7               F
I took the supermarket flowers from the window sill
          C       Em7          F
Threw the day old tea from the cup
Am              G           F           C
  Packed up the photo album Matthew had made
    F         G                C
Memories of a life that’s been loved
           C           Em7               F
Took the get well soon cards and stuffed animals
           C          Em7           F
Poured the old ginger beer down the sink
Am          G                 F                C
  Dad always told me don’t you cry when you’re down
                   F         G           C
But mum there’s a tear every time that I blink


[Prechorus]

Dm          F           C          G
  Oh I’m in pieces it’s tearing me up but I know
Dm             F           C                G
A heart that’s broke is a heart that’s been loved


[Chorus]

             C        Em7     F             G
So I’ll sing Hallelujah,        you were an angel 
       C              Em7    F                G
In the shape of my mum            When I fall down you’d be there
Am            F           C            G
Holding me up spread your wings as you go and when 
Am            F              C      G           C    Em7 F   C Em7 F
God takes you back He'll say Hallelujah, you’re home


[Verse]

              C                 Em7               F
I fluffed the pillows, made the beds, stacked the chairs up
            C          Em7         F
Folded your nightgowns neatly in a case
Am                G                  F          C
   John said he’d drive then put his hand on my cheek
            F             G           C
And wiped a tear from the side of my face


[Prechorus]

Dm            F         C            G
  I hope that I see the world as you did cause I know
Dm            F           C              G
  A life with love is a life that’s been lived


[Chorus]

             C        Em7     F             G
So I’ll sing Hallelujah,        you were an angel 
       C              Em7    F                G
In the shape of my mum            When I fall down you’d be there
Am            F           C            G
Holding me up spread your wings as you go and when 
Am            F              C      G           
God takes you back He'll say Hallelujah, you’re home


[Bridge]

C Em7 F
C Em7 F 
C Em7 F 
Am G F 


[Chorus]

C        Em7     F             G
Hallelujah,        you were an angel 
       C              Em7    F                
In the shape of my mum            You got to see the person 
Am            F           C            G
I have become spread your wings and I know that when
Am            F              C      G           C
God took you back He said Hallelujah, you’re home

Supermarket Flowers chords by Ed Sheeran

This tab follows the piano chords on the album recording. To follow how

Ed plays this on guitar, search for “Supermarket Flowers Acoustic”.

Verse + Chorus  Pre-Chorus Â

————–Â Â ———-Â Â

C  x3201x    Dm xx0231    Note for ease of reading:               Â

Em x22010    F 13321x    Em shown for C/B

FÂ Â x33210 Â Â Â CÂ x32010 Â Â Â F shown for Fmaj7/C

Am x02210    G 32003x Â

G  32003x          Â

Dm7Â xx021x

Capo 6th fret

[Intro]

C Em F

C Em F

[Verse 1]

      C      Em         F

I took the supermarket flowers from the windowsill

      C    Em      F

I threw the day old tea from the cup

Am        G     F   Dm7   C

  Packed up the photo album Matthew had made

  F     G          C

Memories of a life that’s been loved

      C      Em       F

Took the get well soon cards and stuffed animals

      C      Em       F

Poured the old ginger beer down the sink

Am      G        F    Dm7    C

  Dad always told me don’t you cry when you’re down

         F     G        C

But mum there’s a tear every time that I blink

[Pre-Chorus 1]

Dm      F      C    G

  Oh I’m in pieces it’s tearing me up but I know

Dm        F      C          G

  A heart that’s broke is a heart that’s been loved

[Chorus 1]

       C     Em F

So I’ll sing Hallelujah

      G      C       Em F

You were an angel in the shape of my mum

      G

When I fell down you’d be there

Am      F       C      G

Holding me up, spread your wings as you go

     Am        F      C    G     Â

And when God takes you back, you’ll say Hallelujah, you’re home

C Em F G

C Em F

[Verse 2]

         C       Em          F

I fluffed the pillows, made the beds, stacked the chairs up

      C      Em      F

Folded your nightgowns neatly in a case

GAm        G         F        C

   John said he’d drive then put his hand on my cheek

      F       G     C

And wiped a tear from the side of my face

[Pre-Chorus 2]

Dm        F     C       G

  And I hope that I see the world as you did cause I know

Dm      F     C          G

  A life with love is a life that’s been lived

[Chorus 2]

       C     Em F

So I’ll sing Hallelujah

      G      C       Em F

You were an angel in the shape of my mum

      G

When I fell down you’d be there

Am      F       C      G

Holding me up, spread your wings as you go

     Am        F      C    G     Â

And when God takes you back, you’ll say Hallelujah, you’re home

[Bridge]

C Em F

Ooh ooh ooh

C Em F

Ooh ooh ooh

C Em F

Ooh ooh ooh

Am G F

Ooh ooh ooh

[Chorus 3]

C     Em F

Hallelujah

             C       Em F

You were an angel in the shape of my mum

             Am      F       C      G

You got to see the person I have become, spread your wings and I know that when

Am       F      C    G      C

God took you back, he said say Hallelujah, you’re home

Drug Flowers chords – Gin Club

 D Em                               
I once took a pill it was yellow like the colour of a frangipani 
  G Bm A 
And it smiled upon me, It made me happy
 D Em 
I once swallowed acid it was purple like the colour of a jacaranda
                 G Bm A 
She could understand me I could understand her
 D Em               
I once took a cider and amired at how it hurt me
 G Bm A 
To see that feeling and be that healthy
 G A G Bm G E G A      
Oh woh oh,  oh woh oh, oh woh oh, oh woh oh

 G A G Bm G E G A D 
Oh woh oh,  oh woh oh, oh woh oh, oh woh oh

Fraser Ross – Sweet Kisses Silver Flowers Tabs

 ----------------------------------------------------------------- 
SWEET KISSES/SILVER FLOWERS - Fraser Ross 
----------------------------------------------------------------- 

Tuning: E standard, Capo 2

This is a very rough and general overview of the basic song structure. Listen to 
the song to get a feel for the rhythm and strumming pattern.

Chords used:

    C*  F/C   C    Am
e|-------0----0----0--|
B|--5----1----1----1--|
G|--5----2----0----2--|
D|--x----3----2----2--|
A|--3----3----3----0--|
E|--------------------|

Throughout the song, there's a lot of slapping on off-beats (shown in the tab as xxxx's).
You can either do this on the strings or on your pick-guard (or both). Play whatever feels right.


Intro:

     C*                               F/C         C
e|---------------------------------------------------------------|
B|------5------5------5------5----------1----x---1---------------|
G|------5------5------5------5----------2----x---0---------------|
D|-------------------------------------------x-------(let ring)--|
A|---3------3------3------3----------3-------x---3---------------|
E|--------------------------------------------------------------|
           
       Am
e|---------------------------------------------------------------|
B|---0h1--1--x--1--x--1--x--1--x--1--x--1--x--1--x---------------|
G|---0h2--2--x--2--x--2--x--2--x--2--x--2--x--2--x---------------|
D|---0h2-----x-----x--2--x--2--x--2--x--2--x--2--x---------------|
A|---------------------------------------------------------------|
E|---------------------------------------------------------------|

     C*                               F/C         C
e|---------------------------------------------------------------|
B|------5------5------5------5----------1----x---1---------------|
G|------5------5------5------5----------2----x---0---------------|
D|-------------------------------------------x-------(let ring)--|
A|---3------3------3------3----------3-------x---3---------------|
E|--------------------------------------------------------------|

       Am
e|---------------------------------------------------------------|
B|---0h1--1--x--1--x--1--x--1--x--1--x--1--x--1--x---------------|
G|---0h2--2--x--2--x--2--x--2--x--2--x--2--x--2--x---------------|
D|---0h2-----x-----x--2--x--2--x--2--x--2--x--2--x---------------|
A|---------------------------------------------------------------|
E|---------------------------------------------------------------|

     Am
e|---------------------------------------------------------------|
B|---1----1--x--1--x--1--x--1--x--1--x--1--x--1--x---------------|
G|---1----2--x--2--x--2--x--2--x--2--x--2--x--2--x---------------|
D|---0h2--2--x-----x--2--x--2--x--2--x--2--x--2--x---------------|
A|---------------------------------------------------------------|
E|---------------------------------------------------------------|


Verse (played for the rest of the song):

     C                       F/C        
e|---------------------------------------------------------------|
B|------1--x--1--x--1--x--1-----1--x--1--x--1--x--1--x-----------|
G|------0--x--0--x--0--x--0-----2--x--2--x--2--x--2--x-----------|
D|---------x-----x-----x-----------x-----x-----x-----x-----------|
A|---3-----x-----x-----x-----3-----x-----x-----x-----x-----------|
E|---------------------------------------------------------------|

End on C.




            F/C                C
Oh she said leave me and then let me go
            F/C                C
Yeah in the morning oh there I go
            F/C                     C
Back to the days where I come from
F/C                 C
Sweet kisses to you my love

And over the mountains you go
To where the rivers are so bright and bold
And the mountains are hundreds
Yes the snow goes and melts under my skin

Oh see the birds sing, the bees
As they go bow down there on their knees
As their honey is all fil

Flowers Bloom Tabs by High Highs

 ----------------------------------------------------------------
                             FLOWERS BLOOM - High Highs
----------------------------------------------------------------
: Bowen Jones
 jonesb93

Tuning: Standard

Verse:

e|---------------------10---10--------------------------|
B|----8---8---10---10-------------8---8---8---8---------|
G|------------------------------------------------------| x6
D|------------------------------------------------------|
A|--6--6----8---8---------------6--6----6--6------------|
E|--------------------6---6-----------------------------|

After the 4th play through of the above riff, a second guitar comes in

e|------------------------------------------------------|
B|------------------------------------------------------|
G|------------7-5---------------------------------------| x2
D|--5---5/7---------5-----------------------------------|
A|------------------------------------------------------|
E|------------------------------------------------------|

Chorus:

   Gm     A    Gm    F
e|--3-----1-----3----1----------------------------------|
B|--3-----3-----3----1----------------------------------|
G|--3-----3-----3----2----------------------------------|
D|--5-----3-----5----3----------------------------------| x2
A|--5-----1-----5----3----------------------------------|
E|--3-----------3----1----------------------------------|

Post-chorus

        Gm              A               
e|------------------------------------------------------|
B|--------3---------------3----6---------3---------6----|
G|----3---------5----7--------------3---------3---------| x2
D|--5----5----7----7----3----3----5----5----5----3------|
A|------------------------------------------------------|
E|------------------------------------------------------|


Outro:

   Gm     A    Gm    F
e|--3-----1-----3----1----------------------------------|
B|--3-----3-----3----1----------------------------------|
G|--3-----3-----3----2----------------------------------|
D|--5-----3-----5----3----------------------------------| x2
A|--5-----1-----5----3----------------------------------|
E|--3-----------3----1----------------------------------|

e|------------------------------------------------------|
B|---------3---------3---------3---------6--------------|
G|----3---------3---------3---------5-------------------|
D|--5----5----5----5----5----5----7----7----------------| x2
A|------------------------------------------------------|
E|------------------------------------------------------|

    A
e|--1--|
B|--3--|
G|--3--|
D|--3--|
A|--1--|
E|-----|
    

************************************

| /   slide up
| \   slide down
| h   hammer-on
| p   pull-off
| ~   vibrato
| +   harmonic
| x   Mute note
| b   Bend
| pb  Pre-bend
| br  Bend release
| pbr Pre-bend release
| brb Bend release bend

************************************

Peeler chords – Karas Flowers

 Peeler by Kara's Flowers
 Ramonn
Standard EADGBe Tuning

Intro:
 B  -  E  (x4)
 D  -  E  (x4)

 B E 
Always the good one... 
 B E 
Never my same thing...
 B E 
Thinking of never...
 B E 
Never the same thing...

(Chorus)
 C B A 
Screwing your future...
 C B A 
Time is your victim...
 C B A 
Killing your future...  
 C B A 
You have a doubt hand...

 D  -  E  (x4)

 B E 
Faint and you're so clean...
 B E 
Stop in the bed once...
 B E 
Killing on love clean...
 B E 
Begging you want some...

(Chorus)
 C B A 
Screwing your future...
 C B A 
Time is your victim...
 C B A 
Killing your future...  
 C B A 
You have a doubt hand...

 D  -  E  (x4)

 B E 
Only the strong one...
 B E 
Only the strong one...
 B E 
Only the strong one...
 B E 
Only the strong one...   
 Bm E 
Only the strong one...
 Bm E 
Only the strong one...
 Bm E 
Only the strong one...
 B E 
Only the strong one...

Bridge (3:19)
-No clue how to tab this-

(4:13)
 D  -  E  (x4)

On My Show chords – Karas Flowers

 On My Show by Kara's Flowers
 Ramonn
Standard EADGBe Tuning

 E Abm Dbm 
If I had the time...
 F#m 
To move you....
 B 
I'd love to....
 E Abm Dbm 
We'll be moving happily....
 F#m 
We're so free....
 B E 
She loves me....

 E Ab Dbm F#m 
I know, we can show, the world here....
 B 
I'm so clear....
 E Ab Dbm F#m    
We'll try, not to say goodbye, to this dear....
 B E 
I've no fear....

(Chorus)
                          F#m 
I just wanted you to know....
                           E 
Every day you're on my show....
                              F#m 
And there's nothing left to do....
                            E 
Except tell you I love you....

 E Ab Dbm F#m 
I know, we can show the world dear....
 B 
I'm so clear....
 E Ab Dbm F#m 
We'll try, not to say goodbye, to this dear....
 B E 
I've no fear....

 A G 
All my love....
    F#m F 
My head is clear....
 A G 
But in the end....
 F#m F 
We're gone out dear...

 A Dbm 
You don't know, what I see....
 F# Dm 
And I'll take it all from you....

 E  -  Abm  -  Dbm  -  F#  -  B  -  E 

(Chorus)
                         F#m 
I just wanted you to know....
                             E 
Every day you're on my show....
                                F#m 
And there's nothing left to do....
                            E 
Except tell you I love you....

 A G 
All my love....
 F#m F 
My head is clear....
 A G 
But in the end....
 F#m F 
We're gone out dear...

(Outro)
 E  -  F#m  -  Ab  -  Dbm F#  -  B E  -  F# -  Ab  -  Dbm  -  F#m  -  B E  -  F#  -  Ab  -  Dbm  -  F#m  -  B E  -  F#  -  Ab  -  Dbm  -  F#m  -  B E  -  F#m  -  B  -  E

My Ocean Blue chords – Karas Flowers

 My Ocean Blue by Kara's Flowers
 Ramonn
Standard EADGBe Tuning

Intro:
-2--------6--------4---------------|
---2---2----7---7----4---4--6------|
-----3--------8--------5-----------|
-----------------------------------|
-----------------------------------|
-----------------------------------|

Verse:
 F# 
I once heard Captain Dan tell me a story
 F# 
About this lovely girl who's name was Jane
 F# Ebm 
She was vast and deep and filled with glory
 Ab Db 
Aaaahhhh

Break:
 F#  -  A 

Verse:
 F# 
Bottom served as home for hull and anchor
 F# 
She's always fit to quarrel with the wind
 F# Ebm 
The great Titanic yes it's she that sank her
 Ab Db 
Aaaahhhh

Bridge:
 Abm 
Then she heard me
 F# 
Say that oath that
 Abm Db 
Made everything clear

Chorus:
 F# Ebm 
I love you
    Ab Dbm 
My ocean blue
                     F# B 
I like the way your sea sees me
    Ab Em 
My darling Jane
     F# B 
She speaks to me at times through falling rain

Break:
 F#  -  Bbm  -  B  -  F# 

Verse:
 F# 
Now twas time to manifest her vigor
 F# 
Was she fit to quarrel with the wind?
 F# Ebm 
The air was strong but Jane she was much bigger
 Ab Db 
Aaaaahhhh

Bridge:
 Abm 
Then she heard me
 F# 
say that oath that
 Abm Db 
made everything clear

Chorus:
 F# Ebm 
I love you
    Abm Dbm 
My ocean blue
                     F# B 
I like the way your sea sees me
    Ab Em 
My darling Jane
    B Ab G 
Oh me, my darling Jane
    B Abm Em 
Oh me and my darling Jane
     B F# B E 
She speaks to me at times through falling rain
 B F# B 
Speaks to me at times through falling rain

Solo:
 E B 
(2:35) (2:37)
 B 
(2:39-2:40)
 B 
(2:41-2:43)
 B 
(2:44-2:46)
 E 
(2:46-2:48)
 B 
(2:48-2:50)
 E 
(2:51-2:53)
 B 
(2:53-2:55)
 E 
(2:55-2:57)
 B  -  F#  -  B 
(2:58-3:00)
 B 
(3:02)

Chords Used:
e -2---6---4---4---0---4---4---2---0---6---1---0------
B -2---8---4---6---2---4---5---4---0---6---0---0------
G -3---7---5---6---2---4---6---4---0---6---0---1------
D -4---7---6---6---2---6---6---4---2---8---0---2------
A -4---6---6---4---0---6---4---2---2---8---2---2------
E -2---X---4---X---X---4---X---X---0---6---3---0------
    F# Ebm Ab Db A Abm Dbm B Em Bbm G E

We Found Two Dead Swans And Filled Their Bodies With Flowers chords – Teen Suicide

 intro:  F Bb F Am7 F Dm Am7 
i don’t want to go to sleep 
 Gm Bb C 
and i don’t want to dream 
 F Dm Am7 
on a table or on the floor 
 Gm Bb C 
in a car outside at night in the snow 

 F Bb F Am7 F Dm Am7 
waking up in someone else’s bed 
 Gm Bb C 
something tells me i’m losing my head 
 F Dm Am 
i don’t want to leave 
 Gm Bb C 
just dye my hair and sleep 

 F Bb F Am7 Bb Bbm 
the world is ending in my dreams 
 F Dm Am7 
every week for the last few years 
 Bb Bbm 
when it really ends they’ll fill my body with flames 
 F Dm Am 
you and i will be a household name

 Bbmaj7 Am7 F Cm7 /13 ( Cm7  but playing an  A  on the high  E  string)

You Dont Bring Me Flowers chords – Barbra Streisand

 (verse 1)
 C G F 
You don't bring me flowers
                    C 
You don't sing me love songs
 F C 
You hardly talk to me anymore
       F Dm 
When you come thru the door
         C G 
At the end of the day

I remember when

 C G F 
You couldn't wait to love me
                   C 
Used to hate to leave me
             F Dm G 
Now after lovin' me late at night
             C F  -  Dm  
When it's good for you
              G 
And you're feelin' alright
           C Em 
Well you just roll over
      Am Fm 
And turn out the light
 C G C  -  G  -  F  -  G  
And you don't bring me flowers anymore




(verse 2)
 C G F 
It used to be so natural
                   C 
To talk about forever
 F C 
But "used to be's" don't count anymore
        F Dm  
They just lay on the floor
           C G 
'Til we sweep them away
       C G  -  F  
And baby, I remember
                       C 
All the things you taught me
                    F 
I learned how to laugh
         Dm G 
And I learned how to cry
          C F 
Well I leared how to love
     Dm G 
Even learned how to lie
         C Em 
You'd think I could learn
         Am Fm 
How to tell you goodbye
 C G C  -  G  -  F  -  G 
'Cause you don't bring me flowers anymore 


(ending)
            C Em Am Fm 
Well you think I could learn How to tell you goodbye
 C G C G 
You don’t say you need me. You don’t sing me a love song.
 C F G C 
You don't bring me flowers   anymore.