Tag: Fly

Fly intro Tabs – Maddie And Tae Vsion 2

 -------------------------------------------------------------------------------
                             SONG NAME - Band Name
-------------------------------------------------------------------------------
:


Tuning: Standard

Capo 5

e|------------------------------------------------------------------------------------|
B|--------1-------1-------1------1--------1--------1-----------1----------------------|
G|------------------------------------------------------------------------------------|
D|------------------------------------------------------------------------------------|
A|--3---------3-------3-------3------3---------3--------3-----------------------------|
E|------------------------------------------------------------------------------------|

e|--------0--------0-------0------0------0--------0--------0--------------------------|
B|------------------------------------------------------------------------------------|
G|------------------------------------------------------------------------------------|
D|------------------------------------------------------------------------------------|
A|--2---------2-------2------2------2-------2---------2-------------------------------|
E|------------------------------------------------------------------------------------|

e|-------------------------------------------------------------------------------------|
B|--------1-------1-------1------1-------1-------1------1---------1--------------------|
G|-------------------------------------------------------------------------------------|
D|-------------------------------------------------------------------------------------|
A|--0---------0-------0-------0------0-------0------0--------0-------------------------|
E|-------------------------------------------------------------------------------------|

e|-------------------------------------------------------------------------------------|
B|------1--------1-------1-------1-------1--------1---------1---------1----------------|
G|-------------------------------------------------------------------------------------|
D|-------------------------------------------------------------------------------------|
A|--1-------1--------1------1--------1--------1---------1--------1---------------------|
E|-------------------------------------------------------------------------------------|


************************************

| /   slide up
| \   slide down
| h   hammer-on
| p   pull-off
| ~   vibrato
| +   harmonic
| x   Mute note
| b   Bend
| pb  Pre-bend
| br  Bend release
| pbr Pre-bend release
| brb Bend release bend

************************************

Everyone Can Fly chords – Gigolo Aunts

 This is my first attempt at getting the tabs from a song. Please comment and improve it! Enjoy :)

Capo 2

 Em D 
Turn off your mind
        Am C 
And go back with me to a better time
 Em D 
Do you see the same moon I do
      Am C 
When I'm thinking of you

 Em D 
Well that's ok
         Am C 
We can try again another day
 Em D 
Do you feel the same breeze I feel
             Am 
Lifting you up
             C 
Lifting me up
            G9 
Lifting us up

CHORUS

         G9 C9 C9 
        'Cause everyone can fly
 G9 G9 C9 C9 
        Everyone can fly
 G9 G9 C9         
        Everyone can fly
 C9 Am 
You just have to try


 Em D 
Turn off the lights
           Am C 
And don't be afraid of another night
         Em D 
Do the promises you couldn't keep
          Am C 
Make it hard for you to sleep

 Em D 
   Well that's ok
       Am C 
Everybody makes the same mistakes
         Em D 
As the stars shine the night away
                   Am 
Let them lift you up
                   C   
Let them lift you up
                   G9 
Let them lift you up

CHORUS

         G9 C9 C9 
        'Cause everyone can fly
 G9 G9 C9 C9 
        Everyone can fly
 G9 G9 C9         
        Everyone can fly
 C9 G9 
You just have to try

           C9 G9 C9        
Did you ever stop and think when you were twenty 
 G9 C9 Em 
      You'd be where you are today
           D Am 
Isn't it funny how things change
              C Em Em 
Some things never stay the same
            D 
What a shame...

 Em D Am C Em D 
Forget the grey
           Am C 
I can see you turning a greener shade
 Em D 
Do you feel the same faith I feel
                 Am 
Let it lift you up
                  C 
Let it lift you up
                 G9 
Let it lift you up

CHORUS

'Cause everyone can fly
Everyone can fly
Everyone can fly
You just have to try
You just have to try
You just have to try
Everyone can fly...


Ill Fly Away chords – Jars Of Clay V2

 Jars of Clay - I'll Fly Away

 
CHORUS
 G C G 
I'll fly away, oh glory, I'll fly away 

 G Em G D                   
When I die, hallelujah by and by, I'll fly away

 G  ||||  G ||||  G ||||  G ||||

VERSE 1
 G C 
Some bright morning when this life is o'er, I'll 
           G      
fly away

 G C G ||||
To a land on God's celestial shore, I'll fly away

 Em  ||||      G   ||||      Em  ||||

VERSE 2

 G C          
When the shadows of this life have grown, I'll 
          G 
fly away

 G C       
Like a bird from these prison walls, I’ll fly, I'll 
          G 
fly away

CHORUS
 G C G 
I'll fly away, oh glory, I'll fly away 

 G Em G D G             
When I die, hallelujah by and by, I'll fly away

VERSE 3
 G C       
Oh how glad and happy when we meet, I'll fly 
      G 
away

 G C            
No more cold, iron shackles on my feet, I'll fly 
      G 
away



CHORUS
 G C G 
I'll fly away, oh glory, I'll fly away

 G Em G D G    ||||       
When I die, hallelujah by and by, I'll fly away

 G ||||  G ||||  C ||||  G ||||  G ||||  G ||  Em ||  G ||  D ||  G ||||

VERSE 4
 G C                
Just a few more weary days and then, I'll fly 
     G 
away
 G C             
To a land where joy will never end, I'll fly 
      G 
away

CHORUS
 G C G       
I'll fly away, oh glory, I'll fly away 

 G Em G D G 
When I die, hallelujah by and by, I'll fly away

 G C G       
I'll fly away, oh glory, I'll fly away 

 G Em G D G 
When I die, hallelujah by and by, I'll fly away

 G C G       
I'll fly away, oh glory, I'll fly away 

 G Em G D C 
When I die, hallelujah by and by, I'll fly away

 G D C G D C     ||
I'll fly away.... I'll fly away         End on G

Venus Fly Trap chords – The Vines

 Am Em Bm Am 
She's like a venus fly trap
 Em Bm 
Hunted your soul
 Am Em Bm Am 
Why did you need her so bad?
 Em Bm 
To lose control

 Am Em Bm 
Life is all I need
 Am Em Bm 
Life is all there is
 Am Em Bm      
Why go on trying 
 Am Em Bm 
something not for me?

He's like the meanest wise crack
You'll never know
Demean and make you feel so sad
And never show

Life is all you need
Life is all there is
Why go on lying? You will not forgive

She's like a venus fly,

 

Lookin Up In Heaven chords – Paul Westerberg

 Paul Westerberg
"Looking up in heaven"

Capo 4th

 G         
Someday morning i felt afraid
 Em7 
Someone leaving in the world today
 D 
I looked low, i looked high
 Am 
Only missed one friend
 D Am G 
Before i go, i look high again


           C9 G/B 
So i went lookin' up in heaven
         A7 /4       G/B C9 G/B D4 D D9 D 
But you wasn't anywhere in sight
       C9 G/B 
They asked me to stick around
         A7 /4            G/B C9 G/B D4 D D9 D 
But without you it just wasn't right
        C9 G/B 
I went lookin' up in heaven
         A7 /4                G/B G 
But you wasn't anywhere in sight


Sunday evening i get the blues
Someone sleeping' in their tennis shoes
I looked low and i looked high
Only missed one friend
Before i go, i look high again

So i went lookin' up in heaven
But you wasn't anywhere in sight
They asked me to stick around
But without you it just wasn't right
I went lookin' up in heaven
But you wasn't anywhere in sight


 Em7 G 
I met a little angel, she asked me if i could step outside
 A7 /4                       A7 
"i'll make you forget her, i'll make you forget her
 C9 
Baby, won't you watch me fly?"

 C9 G/B A7 /4   G/B C9 G/B D4 D D9 D 


Years go by now, now i have grown
Sunday night and i ain't alone
So you look low and i look high
And miss another friend
Before i go, i look high again
(i love you)

Lookin' up in heaven
But you wasn't anywhere in sight
They asked me to stick around
But without you it just wasn't right
So i went lookin' up in heaven
But you wasn't anywhere in sight
They invited me to stick around, you know
But i told 'em there was another place i had to check out tonight
I went lookin' up in heaven
But you wasn't anywhere in sight


João Vitor Alvarenga

Dare chords – Stan Bush V2

 G C D C C D G 
Sometimes when your hopes have all been shattered
 C 
And there's nowhere to turn
 G C 
You wonder how you keep going
 G 
Think of all the things that really mattered
 C 
And the chances you've earned
 G C 
The fire in your heart is growing
 Bb C 
You can fly, if you try leaving the past behind
 Dm C D 
Heaven only knows what you might find

 G C Em D 
Dare - dare to believe you can survive
 G C D 
You hold the future in your hand
 G C Em D 
Dare - dare to keep all of your dreams alive
 D C D C D C 
It's time to take a stand
 D G 
And you can win, if you dare

 G 
Everybody's trying to break your spirit
 C 
Keeping you down
 G C 
Seems like it's been forever
 G 
But there's another voice if you'll just hear it
 C 
Saying it's the last round
 G C 
Looks like it's now or never
 Bm C 
Out of the darkness you stumble into the light
 Dm D 
Fighting for the things you know are right


 G C Em D 
Dare - dare to believe you can survive
 G C D 
The power is there at your command
 G C Em D 
Dare - dare to keep all of your dreams alive
 D C D C D C 
It's time to take a stand
 D E D 
And you can win, if you dare

 Em D Em D Em C D C D G C Em D 
Dare - dare to believe you can survive
 G C D 
You hold the future in your hand
 G C Em D 
Dare - dare to keep all of your dreams alive
 G C D 
The power is there at your command

 G C Em D 
Dare - dare to keep all your love alive
 G C D 
Dare to be all you can be
 G C Em D 
Dare - 'cause there is a place where dreams survive
 G C D 
And it's calling you on to victory

Chasing Pavements chords – Thor

 Band/Artist: Thor
Title: Chasing Pavements
Chords by: VALERA, CHARLIE EDSEL  AYUNON
 Today's Favorite Love Songs Unplugged Disc 2


Verse:
 Bm 
I've made up my mind,
 F#m 
Don't need to think it over,
 G 
If I'm wrong I am right,
 F#m 
Don't need to look no further,
 G 
This ain't lust,
         A D Bm F#m 
I know this is love but,


Verse:
 D 
If I tell the world,
 F#m 
I'll never say enough,
                        Bm 
Cause it was not said to you,
                     F#m 
And that’s exactly what I need to do,
  G A 
If I'm in love with you,


Chorus:
 G D 
Should I give up,
   Em C Am 
Or should I just keep chasing pavements?
  Am C D 
Even if it leads nowhere.
    G D 
Or would it be a waste?
     Em C 
Even If I knew my place,
 Am D 
should I leave it there?
 G D 
Should I give up,
    Em C Am 
Or should I just keep chasing pavements?
 C Am D G 
Even if it leads nowhere...


Verse:
 Bm 
I'd build myself up,
 F#m 
And fly around in circles,
 Bm 
Wait then as my heart drops,
 F#m 
And my back begins to tingle
   G A 
Finally could this be it


Chorus:
 G D 
Should I give up,
   Em C Am 
Or should I just keep chasing pavements?
  Am C D 
Even if it leads nowhere,
    G D 
Or would it be a waste?
     Em C 
Even If I knew my place,
 Am D 
should I leave it there ?
 G D 
Should I give up,
    Em C Am 
Or should I just keep chasing pavements?
 C Am D G 
Even if it leads nowhere

Paradise chords – Blue Rodeo

 Blue Rodeo - Paradise           Key: F

Intro:   F C Am C G C C G C          
For all the wounds that never heal,  
 F C 
For all the times you were a rebel
 F C Am       
For this one night,  Let's not ask the price
 C G C 
You have to pay,  To stay in paradise

So throw another log on the fire                         C G C 
Your sympathy my desire                                  F C 
We'll watch the sparks fly,   High into the sky          F C Am 
We'll see the lights of paradise                         C G C F                
We'll watch the sparks fly
 C Am 
High into the sky
 C G C 
We'll see the lights of paradise

 C G C F C F C Am F C G C 

I was born to wander,                                    C G C 
And every dollar I made I squandered                     F C 
But the greatest misery, Is know I'll have to leave      F C Am 
Leave these lights of paradise                           C G C C G C 
Ah sweet oblivion
 F C 
To sing and dance with the innocent
 F C Am           
When I'm on my deathbed,   Taking my last breath
 C G F C 
Will I have paid the price, To stay in paradise
 F C Am 
When I'm on my deathbed  Taking my last breath
 C G F C 
Will I have paid the price  To stay in paradise 

 F C Am C G F C

We Fall Down chords – Avalanche City

 We Fall Down...
Capo IV Fret
 G  Chord:
E-x-
B-0-
G-0-
D-0-
A-2-
E-3-

INTRO:
 C Dm Am G   x2

VERSE:
 C     
In the dark and cold, 
   Dm Am G 
trying to peer into the night
 C 
On the castle stones, 
   Dm Am G 
we wonder if we leap we'd fly
 C    
And I can see your hair, 
   Dm Am G 
glowing in the gentle light
  C     
Then you grip my hand, 
   Dm Am 
tighter as we both take flight

CHORUS:
 F C G 
We fall down,
   C C/B Am 
and shatter as we hit the ground
      F G 
Our love has a new direction,
               C 
and it's down

 C Dm Am G  

VERSE:
  C 
The wind whips round,
    Dm Am G 
surrounding us in the cold black air
  C 
But I swear we know,
  Dm Am 
not a single hint of fear
  C 
As the rocks they race,
   Dm Am G 
forced us to meet us my dear
  C 
Cause I know we'll soar,
  Dm Am 
up into the evening air

CHORUS:
 F C G 
We fall down,
   C C/B Am 
and shatter as we hit the ground
      F G 
Our love has a new direction,
               C 
and it's down
      F G 
Our love has a new direction,
               C 
and it's down

END...

Shes A Star chords – David Choi

 Key of A

Capo 2

Intro:  G Bm C Cm G 
She's a star from the heavens
           Bm 
That fell down to the earth
                Em 
She'll make you swoon
                 Dm G 
Fly up like a balloon

 C 
I just don't know what it is
 Cm 
Something bout her just makes me wish
      Bm A#m Am D 
That I~        was the moon

         G C 
She's a star ah ah ah ah ah
         G C 
She's a star ah ah ah ah ah

 Am 
I hope she don't go shooting away
           D 
Like them others do
                    G Bm C Cm  (Intro Riff)
I wanna be the moon

        G 
It's a race with the ticking tock
    Bm 
A life that I can't define
       Em 
I was lost
                    Dm G 
But I think that I found the one

 C 
Oh I just don't know what it is
 Cm 
My orbit's on track and I can't miss
      Bm A#m Am D 
This has got-      -ta be it

         G C 
She's a star ah ah ah ah ah
         G C 
She's a star ah ah ah ah ah

 Am 
I hope she don't go shooting away
           D 
Like them others do
                    G 
I wanna be your moon

Jon Theis – Chasin Game chords

 Chasin' Game- Jon Theis

 Am 

VERSE 01
 Am 
The alarm goes off, I'm on the run
 C 
I'll be climbing, before the sun
 Dm 
At first blues, while the rest of em snooze
 Em Em7 
I'll be waiting, for one to come through

INTRO

VERSE 02
I mask my scent, I play the wind
I'll be damned if I get scented again
I range my shots, I check my lanes
Let it be known, that I ain't playin' cause 

CHORUS
 Am C 
We're tracking bucks. We're takin' ducks
 Dm Em Em7 
It don't matter get in the truck
 Am C 
The feelings the same when we're takin' aim
 Dm Em Em7 
So grab your turkey call, it's time for chasin' game

VERSE 03
I've been on stand for over an hour
The sun's up now and I can feel it's power
Under new ligh the world keeps changin'
I keep my cool as the buck fever's ragin'

INTRO

VERSE 04
As last light approaches the leaves start to rustle
I take a deep breath and I don't move a muscle
The bruiser comes in now it's do or die
I draw my bow and I let the arrow fly

CHORUS

Cloud Factory chords – Sonata Arctica

 CLOUD FACTORY - Sonata Arctica
Acoustic version by sinForge xJp
Standard Tuning (EADGBe)
This is NOT based on an acoustic performance/recording!!


Recommended hord positions

   V E R S E  &  C H O R U S  |     K E Y   C H A N G E
e|--4--------2-7---2---0---4--|--3---1-6---4---1---1---6---------|
B|--4--------4-7---2---0---5--|--4---3-6---4---1---1---8---5-----|
G|--4---6----4-8---3---1---6--|--5---3-7---5---1---2---8---7-----|
D|--6---8----4-9---4---2---6--|--5---3-8---6---3---3---8---8-----|
A|--6---9----2-9---4---2---4--|--3---1-8---6---3---3---6---5-----|
E|--4---6------7---2---0------|------6-----4---1---1-------------|
    G#m F#/A# B F# E C#m Cm Bb Ab Fm F Eb Bb/D G#m                                                            
For every child there dawns the day   
 F#/A# B F# 
 They wonder from where they come  
     G#m                          
Why is the sky so pink tonight?
 F#/A# B                        
  How fast do clouds fly by?
            E F# G#m 
And so you come up with stories you tell 
          C#m B E 
Eyes are o - pen wide
          F# B G#m  
When you tell them about the sky
     F# B G#m  
And all that beneath resides 


 F# B E 
There is a factory clouds are made in
 F# B E  
They make 'em big and blue
     F# B E 
The factory eats you, it swallows you whole
    C#m G#m C#m G#m  
It fills you with conceit and never lets you leave
    F# B E   
If you ever dream at the end of the day
      F# B E  
That you´re gonna live as a free man
 F# B E 
There's no hook, no sinker, no line
     C#m G#m C#m G#m  
And you will never leave the cloud factory


 G#m F#/A# B F# 
If you join the same brigade   I   did when I was young
 G#m F#/A# B                     
You will never see beyond  the  skyline of this town


         E F# G#m 
Take my word, my son and run
            C#m B E 
While your dreams fly free
           F# B G#m 
Have them write my story down
      F# B G#m  
Like silence breaking sound 


 F# B E 
There is a factory clouds are made in
 F# B E  
They make 'em big and blue
     F# B E 
The factory eats you, it swallows you whole
    C#m G#m C#m G#m  
It fills you with conceit and never lets you leave
    F# B E   
If you ever dream at the end of the day
      F# B E  
That you´re gonna live as a free man
 F# B E 
There's no hook, no sinker, no line
     C#m G#m C#m G#m  
And you will never leave the cloud factory


 Bb ...  Eb ...  Ab ..
 Bb ...  Eb ...  Ab ..
 Bb ...  Eb ...  A

Would You Be Impressed chords – Streetlight Manifesto V3

 STROFA
 Am  /  E  /  Am G  /  Am Dm  /  Am  /  E  /  Am Dm  /  Am  /  E  /  Am 

FILL x2
 Am  /  E  /  Dm  /  Am Dm  /  Am  /  E  /  Am 



Would you be upset if I told you we were dying?
And every cure they gave us was a lie?
Oh! They mean it when they say we're dead and doomed
And every single symptom brings us closer to the tomb
And who will take the credit for our swift, impending fall
Because it's not my fault
Would you be impressed if I said that the dead would help us counting 
Every single moment that we waste our time?
All the time we're spending vaccinating this disease
I just get dizzy when I think of all the ways we try to hide our maladies
We wine, we dine, and everything is fine
Because it's not my fault
Now you're upset because you finally got the notion
That everything you had is spinning down the drain
Oh! Do you mean it when you beg and pray and plead? 
Your "Give it to me give it to me give it to me give it to me all those things we need"
And what, pray tell, will you whimper when your number will be called? 
You'll say "It's not my fault"
Go! Now! The others, they'll await you
And every single one among the lot of you will have your turn
Ai Ai Ai Oh Oh Oh
Like moths that fly into the flame it always ends up so
You scream: "Not me! Take anybody else!
Because it's not my fault!"
I had a dream last night where everyone was trying
Subconsciously I knew it was a lie
And when I woke I knew that it was time to pray
To make amends before the end, before my judgment day
I looked around, I stood alone, I knew what I had to say 
I said "It's all my fault"

Ordinary Love chords – U2 V4

 U2 - Ordinary Love


Hi  this should be the version played by U2 in a tv show.
You can also play it with a capo on 4th freet with these chords: (Am-Em-Am-D)
I hope you will appreciate it ;)

Luca

Intro :  C#m G#m B F#  (x3)


INTRO TAB

            C#m G#m B F# 
e-------------------|------------------|---------------------|------------------------------|
B----------5----5---|-------4------4---|----------4------4---|---------2-------2------------|
G--------6----------|-----4------------|-------4-------------|------3-----------------------|
D-------------------|------------------|---------------------|------------------------------|
A----4-------4------|------------------|-2-----------2-------|------------------------------|
E-------------------|-4--------4-------|---------------------|--2-----------2---------------|

Verse 1:
 C#m G#m 
The sea wants to kiss the golden shore
 B F# 
The sunlight warms your skin
 C#m G#m 
All the beauty that's been lost before
 B F# 
Wants to find us again

Verse 2:
 C#m G#m 
I can't fight you anymore
 B F# 
It's you I'm fighting for
 C#m G#m 
The sea throws rock together
     C#m F# 
But time leaves us polished stones

Chorus:
 C#m G#m 
We can't fall any further
 B F# 
If we can't feel ordinary love
 C#m G#m 
We cannot reach any higher
 B F# 
If we can't deal with ordinary love

Bridge :  C#m G#m B F#  (x2)

Verse 3:
 C#m G#m 
Birds fly high in the summer sky
 B F# 
And rest on the breeze
 C#m G#m 
The same wind will take care of you and
 B F# 
I will build our house in the trees

Verse 4:
 C#m G#m 
Your heart is on my sleeve
 B F# 
Did you put there with a magic marker
 C#m G#m 
For years I would believe
 B F# 
That the world couldn't wash it away

Chorus

Solo :  C#m G#m B F#  (x2)

Verse 5:
 C#m G#m 
Are we tough enough
 B F# 
For ordinary love

Solo :  C#m G#m B F#  (x2)

Chorus (x2)

Kiss chords – Scout Niblett V2

 C G 
 A kiss could've killed me
 Am E7 
 If it were not for the rain
 C G 
 A kiss could've killed me 
      Am F 
Baby if, if it were not for rain

   C G Am E7 
& I   had a feeling it was coming on
   C G 
& I felt it coming
 Am F 
For so long
 C G 
 If I'm to be the fool
 Am E7 
 Then so it be

 C G 
 This fool can die now
 Am F 
 With a heart that's soaked
 C G Am E7 
How How oh oh
 C G Am 
 How had it comin'
        F 
For so long

 C G  
 & darling take my hand
 Am E7 
 & lead me through the door
 C G 
 Let's kidnap each other
 Am F 
 & start singing our song

 C G 
 'Cause my heart is charged now
 Am E7 
 Oh, it's dancing in my chest
 C G 
 & I fly & I walk now
 Am F 
 From the spell in that kiss

        C G Am 
'Cause I    oh oh. . .
    E7  
It could've
 C G Am E7 
 It could've killed me hey
 C G Am 
 It could've killed me 
                        F 
If it were not for the rain

 C G Am 
 Oh darling let me dream (let me dream)
                     E7 C 
'Cause somewhere in me (inside of me)
              G Am 
I have been waiting (waitin')
           F 
So patiently
     C G Am 
For you... you you you

            F C G Am 
So don't you break 
                F C G Am 
Don't break my dream yeah yeah yeah yeah yeah yeah eah eah
                F 
Don't break my dream

*(trans chords uncertain)

 C G 
 Let the rain exalt us
 Am E7 
 As the night draws us in
 C G 
 Winds howl around us
 Am F 
 As we begin
 C G Am 
 What a way to start a fire (fire)
                     E7 
What a way to break a day
 C G 
 A kiss could have killed me baby
 Am F 
If, if it were not for rain

   C G Am E7 
& I    have a feeling it's coming on
   C G Am 
& I    felt it comin'
        F 
for so long

   C G Am E7 
& I,   oh it could've
 C G Am E7 
 It could've killed me    heyy
 C G  
 It could've killed me
 Am F 
  If it were not for the rain

 C G Am F  ... C  

Epic duo of Scout Niblett & Bonnie "Prince" Billy 
From Scout's 2007 record release This Fool Can Die Now 

Hope you enjoy the chord interpretation! 

Please feel free to share thoughts & suggestions ~ettawhy

Dont Let Them See You Cry chords – Manchester Orchestra V3

 -------------------------------------------------------------------------------
                             DON'T LET THEM SEE YOU CRY - Manchester Orchestra
-------------------------------------------------------------------------------

| *  Hammer-on

Tuning: Eb (Standard)                                                   Capo = 1st Fret

Strumming Pattern - Play Root Then Strum

       C C/B Am * 
Don't let them see you cry
 C/B C C/B Am *
When the dam breaks down and the city is covered in water
 C/B C C/B Am *
'Cause I believe we fly
 C/B C C/B Am *
When the moon takes shape and I dose off, on your shoulders

 F Fm C  
I trust that you see it too
 C C/B Am *
Oh... oh oh.... woah oh 
 C C/B Am *
Oh... oh oh.... woah oh 


So breathe while you're alive
Let the big band play as you tap leather with your fingers
And I tried to write in style
But the words just come and I write them as soon as I see them

And I trust that you write them too
Oh... oh oh.... woah oh 
Oh... oh oh.... woah oh 

And I trust that you love me too

Beatnik Fly intro Tabs by Johnny And The Hurricanes

 Title: Beatnik Fly
Tempo = 166


E |--------------------|
B |--------------------|
G |--------------------|        X4 (muted)
D |--------------------|
A |-----0-1-2-3-2-3----|
E |-1-1----------------|


E |---------------|--------------------|--------------------|--------------------|---5---5-----------|
B |---------------|-----6---6---6---5--|---8---8------------|-----8---8---8---6--|-----------------6-|
G |------------5--|---5----------------|-----------------5--|---5----------------|---------------5---|
D |---------------|--------------------|--------------------|--------------------|-------------------|
A |---------------|--------------------|--------------------|--------------------|-------------------|
E |---------------|--------------------|--------------------|--------------------|-------------------|



E |---5---5----5----6--|--10--10------10-8--|----8---6----------|------------8----|------------------|
B |-6------------------|--------------------|-----------5--6----|-----------------|----6---6---6---5-|
G |--------------------|--------------------|-------------------|--------------5--|--5---------------|
D |--------------------|--------------------|-------------------|-----------------|------------------|
A |--------------------|--------------------|-------------------|-----------------|------------------|
E |--------------------|--------------------|-------------------|-----------------|------------------|



E |------------------|-------------------|---5---5------------|----5---5---5---6--|-10--10-----10--8-|
B |--8---8-----------|----8---8---8---6--|-----------------6--|--6----------------|------------------|
G |---------------5--|--5----------------|---------------5----|-------------------|------------------|
D |------------------|-------------------|--------------------|-------------------|------------------|
A |------------------|-------------------|--------------------|-------------------|------------------|
E |------------------|-------------------|--------------------|-------------------|------------------|


E |--8--8---6--------||
B |-----------5--6---||
G |------------------||
D |------------------||
A |------------------||
E |------------------||

White Dove Fly High chords – Casting Crowns V2

 *Capo on 2nd fret to play with album. I hope you like this song as much as I do. It's a 
beautiful song. God bless!*


Intro:  Em Em Am 
Pu li leun haneul ga eh
                   D G 
Hee mang eh nale pyuhgo
              C Am 
Han up she jayoo lo ee
                       B Em 
Choom choo myu nali nae

               B 
Bee dul gee ya!
              Em 
Bee dul gee ya!
        D G B 
duh no pee nal ah la

             Am D G 
Nae jo gook ee po leun ha naneul
             B Em 
Gooleumee heuleejee ahngeh

               Em Am 
High up in the blue sky
                D G 
Wings of hope are spreading wide
              C 
A white dove is dancing
 Am B Em 
Flying free and happily

            B 
White dove,
            Em 
White dove,
            D G B 
Flying higher and higher

               Am D G 
Lest my country's clean and blue skies
                   B Em 
Should be cloudy and grey.



Lyric credit: Sing365.com

Ill Fly Away Tabs by Gillian Welch

 -------------------------------------------------------------------------------
                             I’ll Fly Away – Gillian Welch
-------------------------------------------------------------------------------
:alexagg       
Tuning:Standard

Capo - 6
INTRO
e|---------------------------------------------------------------------------|
B|--0-------------------0--------0--1--0-------------------------------------|
G|-----0---------0---------2--------------0----------------------------------|
D|-----------0---------------------------------------------------------------|
A|---------------------------------------------------------------------------|
E|---------------------------------------------------------------------------|
     D     D        U  D  U      D    D                D  D      U D U
e|---------------------------------------------------------------------------|
B|---1-----1--------1--1--1------1----1----------------3--3------3-3-3-------|
G|---0-----0--------0--0--0------0----0----------------0--0------0-0-0-------|
D|---0H2---2--------2--2--2------0H2--2------0---0-----0—-0------0-0-0-------|
A|---3-----3--------3--3--3------3----3----3---3-------2--2------2-2-2-------|
E|---------------------------------------------------------------------------|


e|---------------------------------------------------------------------------|
B|--------------------------0-----------------0--1--0------------------------|
G|------------0-------0--------0------0---2------------0---------------------|
D|---0-----0-----0-----------------0-----------------------------------------|
A|---------------------------------------------------------------------------|
E|---------------------------------------------------------------------------|

     D   U   U     D  D      
e|---3---3---3-----3--3------------------------------------------------------|
B|---0---0---0-----0--0-------1--1P0----0------------------------------------|
G|---0---0---0-----0--0-------2--2P0----0------------------------------------|
D|---0---0---0-----0--0-------0------4---------------------------------------|
A|---2---2---2-----2--2------------------------------------------------------|
E|---3---3---3-----3--3------------------------------------------------------|

VERSE 1:
G                                          C        G
Some glad morning when this life is o'er, I'll fly away
G                              Em   G    D   G
To a home on God's celestial shore, I'll fly away

CHORUS:
G                       G         G
I'll fly away, O glory, I'll fly away
G            Em                    G   D   G
When I die, hallelujah, by and by I'll fly away

VERSE 2:
G                                         G    C       G
When the shadows of this life have grown, I'll fly away
G                                Em      G    D   G
Like a bird from prison bars has flown, I'll fly away

CHORUS:

VERSE 3:
G                                     G    C   G
Just a few more weary days, and then, I'll fly away
G                              Em      G    D    G
To a land where joys shall never end, I'll fly away

CHORUS:

************************************

| /   slide up
| \   slide down
| h   hammer-on
| p   pull-off
| ~   vibrato
| +   harmonic
| x   Mute note
| b   Bend
| pb  Pre-bend
| br  Bend release
| pbr Pre-bend release
| brb Bend release bend

************************************

Fly To The Rainbow Tabs by Scorpions V2

 Author/Artist: SCORPIONS
Title: fly to the rainbow (Music :Michael Schenker /Lyrics:Ulrich Roth)
 fly to the rainbow
: Jonas Aklestad



INTRO (RIFF 0): classical guitar, finger picking
--0h2------2--0--------3--------2---------------------------------------------|
-----3----------2---2----3---3----3---3--------3-------------5----------------|
-------2----------2--------0--------2--------3---3---------5---5--------------|
---0-------0--------------------0----------3-------3-----5-------5------------|
--------------4--------2-----------------1-------------3----------------------|
------------------------------------------------------------------------------|
  D           A/C#     G/B      D        Bb            C

-2-----3------2-----2---------------------------------------------------------|
---3-----3------3-----3-------------------------------------------------------|
-----2-----2------2-----2-----------------------------------------------------|
-0-----0------0-----0---------------------------------------------------------|
------------------------------------------------------------------------------|
------------------------------------------------------------------------------|
 D

RIFF 1 (verse, 2 times) "Life is empty, can't remember...."

---------2-----------0------------3-------------------------------------------|
-------3---3-------2---2--------3---3----------2------------3-----------5-----|
-----2-------2---2-------2----0-------0------2---2--------3---3--------5--5---|
---0---------------------------------------2-------2----3-------3----5------5-|
---------------4------------2------------0------------1-------------3---------|
------------------------------------------------------------------------------|
  D            A/C#         G/B          A            Bb            C

-2-----3-----2----2-----------------------------------------------------------|
---3-----3----3-----3---------------------------------------------------------|
-----2-----2----2-----2-------------------------------------------------------|
-0-----0-----0----0-----------------------------------------------------------|
------------------------------------------------------------------------------|
------------------------------------------------------------------------------|
 D


RIFF 2 "Gliding through this life..."

----------------------------------------------------|-------------------------|
---------1------------0-----------3-----------3-----|-------1------------0----|
-------0---0--------0---0-------3---3-------3---3---|-----0---0--------0--0---|
-----2-------2----0-------0---0-------0---0-------0-|---2-------2----0------0-|
---3------------2-----------1-----------1-----------|-3------------2----------|
----------------------------------------------------|-------------------------|
   C            G/B         Bb                        C            G/B

-----------------------------|------------------------------------------------|
----------3-----------3------|-------1-----------0-----------1----------3-----|
--------3---3-------3---3----|-----0---0-------0---0-------0---0------3--3----|
------0-------0---0-------0--|---2-------2---0-------0---2-------2--0------0--|
----1-----------1------------|-3-----------2-----------3-----------1----------|
-----------------------------|------------------------------------------------|
    Bb                         C           G/B         C           Bb

---------------------------------------------------|--------------------------|
--------1-----------0-----------1------------2-----|--------------------------|
------0---0-------0---0-------0---0--------2---2---|--------------------------|
----2-------2---0-------0---2-------2----2-------2-|--------------------------|
--3-----------2-----------3------------0-----------|--------------------------|
---------------------------------------------------|-------