Tag: for

For What Its Worth chords by Liam Gallagher

For What It's Worth - Liam Gallagher

Song only came out less than 2 hours ago so it won't be perfect but hopefully near enough

Chords used

Am: x02210
G: 320033
F: 133211
C: x32010
C/B: x22010
D: xx0232
Em: 022000
G/F#: 200233
Csus4: x33010
Csus2: x30010
D/F#: 2x023x
G7: 320001

[Verse 1]
Am     G             F               C    C/B
In my defence all my intentions were good
Am               G                   F             G
and heaven knows a place somewhere for the misunderstood
D                    C                F            G
you know id give you blood if it'd be enough

[Verse 2]
Am           G                     F      C    C/B
devils on my doorstep since the day i was born
Am                 G              F        G
its hard to find a sunset in the eye of a storm
D                    C                      F
but im a dream up by design and ill know in time
               G      G7
we'll put this behind


[Chorus]
C             C/B    Am              G
For what it's worth im sorry for the hurt
         F             Em            D            G
ill be the first to say i made my own mistakes
C             C/B    Am              G
for what it's worth i know its just a word
          D/F#
and words betray
Csus4 C   Csus4 C Csus2 C
sometimes we lose our way
Am            G    F
for what it's worth

G     C     C/B

[Verse 3]
Am           G               F           C       C/B
behind the lands is a poison picture you paint
Am              G                     F            G
and let's not pretend you were ever searching for saints
D                   C                 F           G
cos ive been crucified for just being alive

[Verse 4]
Am                G                 F         C      C/B
somewhere in the crossfire of this whispering war
Am                G                F            G
seems like i've forgot just what i was fighting for
D                  C                      F
but underneath my skin there's a fire within
        G    G7
still burning


[Chorus]
C             C/B    Am              G
For what it's worth im sorry for the hurt
         F             Em            D            G
ill be the first to say i made my own mistakes
C             C/B    Am              G
for what it's worth i know its just a word
          D/F#
and words betray
Csus4 C   Csus4 C Csus2 C
sometimes we lose our way
Am            G    F
for what it's worth

G     C     C/B

[Bridge]
Am                F                   C       C/B
the first bird to fly gets all the arrows
Am                     F                     C       C/B
let's leave the past behind with all our sorrows
Am                   F                    C    C/B   Am
I'll build a bridge between us and I'll swallow my pride

G     G/F#     F       G

[Chorus]
C             C/B    Am              G
For what it's worth im sorry for the hurt
         F             Em            D            G
ill be the first to say i made my own mistakes
C             C/B    Am              G
for what it's worth i know its just a word
          D/F#
and words betray
Csus4 C   Csus4 C Csus2 C
sometimes we lose our way
Am            G    F         G     C
for what it's worth

Young Guns Go For It chords by Wham!

  [Hits]
  Dm9
  1 + 2 + 3 + 4 +
e|5--5--5---5-5---|
B|5--5--5---5-5---|
G|5--5--5---5-5---|
D|3--3--3---3-3---|
A|5--5--5---5-5---|
E|----------------|

[Coda]
Fm Gm/F Fm Gm/F Fm
  1 + 2 + 3 +  4 +
e|1--3--4---8--13--|
B|1--3--6---9--13--|
G|1--3--5---10-13--|
D|-----------------|
A|-----------------|
E|-----------------|

---------------------------------------------------------------------------
CHORDS

          E-A-D-G-B-e
Dm9       x-5-3-5-5-5
G6        3-5-x-4-5-3
G6/A      x-0-5-4-5-3
Am7       x-0-5-5-5-5
D6        x-x-0-7-7-7
Fm9       x-8-6-8-8-8

---------------------------------------------------------------------------

[Intro]
Dm9 Dm9 Dm9 Dm9 Dm9
 (hits)

| Dm | % | G6 | G6/A |
| Dm | % | G6 | G6/A |


[Verse]
    Dm
Hey sucker
                          | G6 | G6/A |
(What the hell's got into you?)
    Dm
Hey sucker
                             | G6 | G6/A |
 (Now there's nothing you can do)
       Dm
Well I hadn't seen your face around town awhile
     Dm
So I greeted you, with a knowing smile
       G6
When I saw that girl upon your arm
  G6/A
I knew she won your heart with a fatal charm.
        Dm
I said "Soul Boy, let's hit the town!"
        Dm
I said "Hey Boy, what's with the frown?"
    G6
But in return, all you could say was
 G6/A                             Dm
"Hi George, meet my fiancee"    (break)


[Chorus]
Dm
Young Guns having some fun
Dm
Crazy ladies keep 'em on the run.
Dm                        G7
Wise guys realize there's danger in emotional ties.
Dm
See me, single and free
Dm
No fears, no tears, what I want to be.
Dm
One, two, take a look at you
G7              Dm9 Dm9 Dm9 Dm9 Dm9
Death by matrimony! (hits)


[Interlude]
| Dm | % | G6 | G6/A |
| Dm | % | G6 | G6/A |


[Verse]
    Dm
Hey sucker
                          | G6 | G6/A |
(What the hell's got into you?)
    Dm
Hey sucker
                             | G6 | G6/A |
 (Now there's nothing you can do)
  Dm
A married man? you're out of your head
Dm
Sleepless nights, on an H.P. bed
  G6
A daddy by the time you're twenty-one
        G6/A
If your happy with a nappy then you're in for fun.
           Dm
But you're here
           Dm
And you're there
             Dm
Well there's guys like you just everywhere
        G6
Looking back on the good old days?
     G6/A                                  Dm
Well this young gun says CAUTION PAYS!   (break)


[Chorus]
Dm
Young Guns having some fun
Dm
Crazy ladies keep 'em on the run.
Dm                        G7
Wise guys realize there's danger in emotional ties.
Dm
See me, single and free
Dm
No fears, no tears, what I want to be.
Dm
One, two, take a look at you
G7              Dm9 Dm9 Dm9 Dm9 Dm9
Death by matrimony! (hits)


[Middle 8]
C/D
I remember when we had such fun and everthing was fine
D                          D6
I remember when we used to have a good time, partners in crime.
C/D
Tell me that's all in the past and I will gladly walk away
D                              D6
Tell me that you're happy now, turning my back - nothing to say!


     Am7
"Hey tell this jerk to take a hike
        Am7
There's somethin' 'bout that boy I don't like"
      D6
"Well sugar he don't mean the things he said"
              D6
"Just get him outta my way, 'cause I'm seeing red
       Am7
We got plans to make, we got things to buy
           Am7
And you're wasting time on some creepy guy"
     D6
"Hey shut up chick, that's a friend of mine
     D6
Just watch your mouth babe, you're out of line"
Am7
     OoooooH!

Am7
GET BACK - HANDS OFF - GO FOR IT!
Am7
GET BACK - HANDS OFF
Am7
GET BACK - HANDS OFF - GO FOR IT!
Am7
GET BACK - HANDS OFF
Am7
GET BACK - HANDS OFF - GO FOR IT!
Am7
GET BACK - HANDS OFF
Am7
GET BACK - HANDS OFF - GO FOR IT!
Am7
GET BACK - HANDS OFF


[Chorus]
Fm
Young Guns having some fun
Bb7
Crazy ladies keep 'em on the run.
Fm                        Bb7
Wise guys realize there's danger in emotional ties.
Dm
See me, single and free
   Dm
No fears, no tears, what I want to be.
Dm
One, two, take a look at you
Bb7             Fm9 Fm9 Fm9 Fm9 Fm9    Fm9 Fm9 Fm9 Fm9 Fm9
Death by matrimony! (hits)              (hits)


[Coda]
Fm Gm/F Fm Gm/F Fm
(= coda)

What Are You Waiting For chords by Shawn McDonald

Capo 3rd fret 

[Intro]
Am Em D
Am Em D

[Verse 1]
                       Am      Em
You have always been a runaway
                     D
Always looking for a place that’s safe
                             Am
‘Cause you were disappointed with the world
    Em                 D
The hand that you were dealt
                     Am             Em
And I get it why you feel that way
                       D
‘Cause it doesn’t ever seem to change
                         Am
But have you ever really tried to trust
    Em                D
Something outside yourself?

[Chorus]
                C        G D
So what are you waiting for?
       Em             C     G D
You’re standing at an open door
C                      G
This is your life, you never live twice
D                   Em
Step through to the other side
               C        G D
'Cause there's so much more
                C                     G       D
So what are you waiting, what are you waiting for?

[Verse 2]
                  Am        Em
You don’t have to be afraid
                        D
To believe in something unexplained
                         Am
‘Cause this is where the road begins
    Em                D
And where the healing starts
                Am             Em
So open up your eyes my friend
                         D
‘Cause this is where the searching ends
                      Am
And you don’t have to keep
               Em                D
The wounds and walls around your heart

[Chorus]
                C        G D
So what are you waiting for?
       Em             C     G D
You’re standing at an open door
C                      G
This is your life, you never live twice
D                   Em
Step through to the other side
               C        G D
'Cause there's so much more

[Bridge]
C            G
Go ahead and say goodbye
D            Em
Go ahead and start tonight
     C          G
Come over, come over
       D
To the other side
C                 G
Just go ahead and say goodbye
D            Em
Go ahead and start tonight
     C          G
Come over, come over
       D
To the other side

[Tag]
             C                     G
What are you waiting, what are you waiting
             D
What are you waiting for?
             C                     G
What are you waiting, what are you waiting
             D
What are you waiting for?

[Chorus]
                C        G D
So what are you waiting for?
       Em             C     G D
You’re standing at an open door
C                      G
This is your life, you never live twice
D                   Em
Step through to the other side
               C        G D
'Cause there's so much more

[Bridge]
C               G
So go ahead and say goodbye
D            Em
Go ahead and start tonight
     C          G
Come over, come over
       D
To the other side
        C            G
You can go ahead and say goodbye
D            Em
Go ahead and start tonight
     C          G
Come over, come over
       D
To the other side

[Tag]
             C                     G
What are you waiting, what are you waiting
             D
What are you waiting for?
             C                     G
What are you waiting, what are you waiting
             D
What are you waiting for?

Thats What Friends Are For Chords by Slade

   [Intro]
D    G   A  Asus4  D    
D    G   A  Asus4  D
D    G   A  

   [Verse 1]
G                  A       D     C             G
Have you ever been lost in love, when you were seventeen
G                   A     D        C            G
Have you ever had a dirty thought, an' tried to keep 'em clean
G                                  A               Asus4
Did you ever have days like these, spend it on the job
                   G                  A                      Asus4
Have you ever been lost in love, gone runnin' with the mob … runnin' with the mob


   [Chorus]
D            A    Bm     D     G       A       D    A
There are so many reasons, you keep on wantin' more
         D      A      Bm       D  G           A           D     
You're a friend in the bad times,  that's what friends are for … 
D   G   A  Asus4  D      D    G     A  Asus4
    woh


   [Verse 2
G                  A       D       C                G
Have you ever been lost in love, I never would have guessed
G                     A       D    C         G
They tell me you're a big boy now, well an' truly blessed
G                          A                Asus4
Did she ever go overboard, keep the wolf at bay
                   G                A                   Asus4
Have you ever been lost in love, it happens every day … happens every day


   [Chorus]
D            A    Bm     D     G       A       D    A
There are so many reasons, you keep on wantin' more
         D      A      Bm       D  G           A           D    
You're a friend in the bad times,  that's what friends are for …
D   G     A  Asus4   D
    yeah, yeah
D    G    A  Asus4   D 
D    G    A

    [Instrumental]
D  Dsus4  D  C    G 
D  Dsus4  D  C    G 
G         A   Asus4   A
G         A   Asus4              

   [Chorus]
D            A    Bm     D     G       A       D    A
There are so many reasons, you keep on wantin' more
         D      A      Bm       D  G          A           D   A           
You're a friend in the bad times, that's what friends are for


   [Chorus]
D            A    Bm     D     G       A       D    A
There are so many reasons, you keep on wantin' more
         D      A      Bm       D  G           A           D    
You're a friend in the bad times,  that's what friends are for …
D   G     A  Asus4   D
    yeah, yeah

D    G    A  Asus4   D 
D    G    A  Asus4   D 
D    G    A  D


Mark W

Lust For Life Chords by Lana Del Rey

Capo 3rd fret

Whole song 100 bpm
1
&
2
&
3
&
4
&
5
&
6
&
7
&
Listen
Lana Del Rey
"Lust For Life (feat. The Weeknd)"


[Verse 1]
Am                                    G
Climb up the H of the Hollywood sign, yeah
                                            F
In these stolen moments, the world is mine (duwop, duwop)
                                       G
There's nobody here, just us together (shuwop, shuwop)

Keepin' me hot like July forever


[Refrain]
Am                                   G
'Cause we're the masters of our own fate
                               F
We're the captains of our own souls
                               G
There's no way for us to come away
 
'Cause boy we're gold, boy we're gold

And I was like...


[Pre-Chorus]
C
Take off, take off

Take off all your clothes
Em
Take off, take off

Take off all your clothes
Am
Take off, take off
                     G
Take off all of your clothes
                  C
They say only the good die young
                Em
That just ain't right
                    Am
'Cause we're having too much fun
               G
Too much fun tonight, yeah


[Chorus]
              F
In a lust for life, in a lust for life
              G
In a lust for life, in a lust for life
         Am
Keeps us alive, keeps us alive
         Am
Keeps us alive, keeps us alive
              F
In a lust for life, in a lust for life
              G
In a lust for life, in a lust for life
         Am
Keeps us alive, keeps us alive
         Am
Keeps us alive, keeps us alive


[Verse 2]
Am                                             G
Then, we dance on the H of the Hollywood sign, yeah
                                                    F
'Til we run out of breath, gotta dance 'til we die (duwop, duwop)
                                                G
My boyfriend's back, and he's cooler than ever (shuwop, shuwop)
 
There's no more night, blue skies forever


[Refrain]
Am                                   G
'Cause we're the masters of our own fate
                               F
We're the captains of our own souls
                                  G
So there's no need for us to hesitate

We're all alone, let's take control

And I was like...


[Pre-Chorus]
C
Take off, take off

Take off all your clothes
Em
Take off, take off

Take off all your clothes
Am
Take off, take off
                     G
Take off all of your clothes
                  C
They say only the good die young
                Em
That just ain't right
                    Am
'Cause we're having too much fun
               G
Too much fun tonight, yeah


[Chorus]
              F
In a lust for life, in a lust for life
              G
In a lust for life, in a lust for life
         Am
Keeps us alive, keeps us alive
         Am
Keeps us alive, keeps us alive
              F
In a lust for life, in a lust for life
              G
In a lust for life, in a lust for life
         Am
Keeps us alive, keeps us alive
         Am
Keeps us alive, keeps us alive


[Bridge]
C
My boyfriend's back, and he's cooler than ever
Em
There's no more night, blue skies forever
Am
I told you twice in our love letter
G
There's no stopping now, green lights forever
N.C.
And I was like...


[Pre-Chorus]
C
Take off, take off

Take off all your clothes
Em
Take off, take off

Take off all your clothes
Am
Take off, take off
                     G
Take off all of your clothes


[Chorus]
              F
In a lust for life, in a lust for life
              G
In a lust for life, in a lust for life
         Am
Keeps us alive, keeps us alive
         Am
Keeps us alive, keeps us alive
              F
In a lust for life, in a lust for life
              G
In a lust for life, in a lust for life
         Am
Keeps us alive, keeps us alive
         Am
Keeps us alive, keeps us alive

Am

For The First Time Chords by Mac DeMarco

Artist:Mac DeMarco
Song  :For the First Time 

Chords arranged for guitar from synths. The suggested chord shapes below sound good on guitar. 
Also the Eb6 can also be played as a Ebmaj7. 

e|---------|---------|----3----|---(6)---|----3----|----3----|
B|----9----|---(4)---|----5----|----6----|----3----|----5----|
G|----8----|----5----|----3----|----8----|----3----|----3----|
D|----10---|----5----|----5----|----8----|----3----|----5----|
A|----8----|----6----|----x----|----x----|----5----|----3----|
E|---------|---------|----3----|----6----|----3----|---------|
     Fm7       Eb6       C7/G     Bbsus4      Gm7       C7        


[Verse 1]
Fm7             
While she's been away
                            Eb6   
Living day-to-day has been tough
Fm7
I found her at my side
                            Eb6   
Simply being alive's been rough
             Fm7
You know she won't be gone forever
                                Eb6    
There are many times I find it feels that way
             Fm7
And I'm not trying to forget her
                                  C7/G
Just understand how I'll be feeling on that day

[Chorus]
                      Fm7           Bbsus4     Gm7   C7
It's just like seeing her for the first time again
                      Fm7           Bbsus4     Eb6
It's just like seeing her for the first time again

[Verse 2]
Fm7
The time she's not around
                               Eb6   
Somewhere out-of-town has been hard
     Fm7                                                  Eb6   
But somehow this old heart found time to work it out this far
       Fm7                        
No, I know she's coming home soon
                                  Eb6   
There are times I find it hard to feel that way
          Fm7                       
It's not inside me to forget her
                                  C7/G
Just understand how I'll be feeling on that day

[Chorus]
                      Fm7           Bbsus4     Gm7   C7
It's just like seeing her for the first time again
                      Fm7           Bbsus4     Eb6   C7
It's just like seeing her for the first time again
                      Fm7           Bbsus4     Gm7   C7
It's just like seeing her for the first time again
                      Fm7           Bbsus4     Eb6
It's just like seeing her for the first time again


Tabbed by Trystan H

Wait For The People Acoustic Tabs – James Chatburn

 ------------------------
Wait for the People - James Chatburn
------------------------
: Nosnip
Tuning: Normal EADGBe
--This isn't exactly what James Chatburn plays but I think it's close

    1   2   3   4
e|--x---x---x---x---|
B|--2---6---4---2---|
G|--1---5---3---1---|
D|--2---6---4---2---|
A|--x---4---2---0---|
E|--2---x---x---x---|

INTRO
e|---------------------------------------------------------------------------------------------|
B|------------2-------------------------2-----------------------2-----------------------2------|
G|------------1-------------------------1-----------------------1-----------------------1------|
D|----2----------------2-------2----------------2-------2----------------2-------2------------2|
A|---------------------------------------------------------------------------------------------|
E|-2-----2---------2-------2-------2--------2-------2-------2--------2-------2-------2-----2---|

e|---------------------------------------------------------------------------------------------|
B|------------6-------------------------6-----------------------6------------------------6-----|
G|------------5-------------------------5-----------------------5------------------------5-----|
D|----6----------------6-------6----------------6-------6----------------6-------6-------------|
A|-4-----4---------4-------4-------4--------4-------4-------4--------4-------4-------4---------|
E|---------------------------------------------------------------------------------------------|

e|---------------------------------------------------------------------------------------------|
B|------------2-------------------------2-----------------------2-----------------------2------|
G|------------1-------------------------1-----------------------1-----------------------1------|
D|----2----------------2-------2----------------2-------2----------------2-------2------------2|
A|-----------------------------------------------------------------------------------------------|
B|------------4-------------------------4-----------------------2------------------------2-----|
G|------------3-------------------------3-----------------------1------------------------1-----|
D|----4----------------4-------4----------------4-------2----------------2-------2-------------|
A|-2-----2---------2-------2-------2--------2-------0-------0--------0-------0-------0---------|
E|---------------------------------------------------------------------------------------------|

e|----------------------------------------------------|
B|------------------------2----------------------2----|
G|------------------------1----------------------1----|
D|--------2-------2---------------2-------2-----------|
A|---0-------0--------0-------0-------0-------0-------|
E|----------------------------------------------------|

VERSE X2(Exactly the same as the intro)
e|---------------------------------------------------------------------------------------------|
B|------------2-------------------------2-----------------------2-----------------------2------|
G|------------1-------------------------1-----------------------1-----------------------1------|
D|----2----------------2-------2----------------2-------2----------------2-------2------------2|
A|---------------------------------------------------------------------------------------------|
E|-2-----2---------2-------2-------2--------2-------2-------2--------2-------2-------2-----2---|

e|---------------------------------------------------------------------------------------------|
B|------------6-------------------------6-----------------------6------------------------6-----|
G|------------5-------------------------5-----------------------5------------------------5-----|
D|----6----------------6-------6----------------6-----

Dj For A Day chords – Jimmy C. Newman

 C 
You won't answer when I call you

 F C 
You won't answer when I write

 F C 
You're out in someone else's arms

 D7 G7 
In a new place every night

 C 
So here is what I would like to do

 F C 
If I could have my way

 F C G7 C C7 
I'd like to be a D.J. for a day


 F C 
I'd play Your Cheatin' Heart

        G7 C 
Just A Girl I Used To Know

     F C 
I'd play the saddest songs

          D7 G7 
You ever heard on your radio

     C 
I'd dedicate my love to you

 F C 
And every song I'd play

 F C G7 C 
If I could be a D.J. for a day


 F C 
I'd play Your Cheatin' Heart

        G7 C 
Just A Girl I Used To Know

     F C 
I'd play the saddest songs

          D7 G7 
You ever heard on your radio

     C 
I'd dedicate my love to you

 F C 
And every song I'd play

 F C G7 C 
If I could be a D.J. for a day

Longing For Lullabies chords – Kleerup Vsion 2

 ORDER: I V1 C INT1 V2 C INT2 O


[INTRO]
 D C  | |  D Em  |  C  |

 Em D  | |  G C  | |
 Em D  | |  G C  | |
 Em D  | |  G C  | |
 Em D  | |  G C  | |


[VERSE 1]
 Em D G C 
Someday, as I look at the sun
   Em D 
I think of you
            D/F# G C 
And traces we   leave behind
 Em D 
Like a fallen piece we'll make a better start
     G C 
But still end up alone
 Em D 
Looking down upon a place inside our heart
   G C 
Dividing us in two


[CHORUS]
 Em D G C 
Somewhere, all that we leave behind
 Em D G C 
Lingers on, longing for lullabies
     Em D 
You live, you learn
     Bm7 C 
You love, you burn
     Em D 
You win, you lose
   G A 
Becoming you


[INTERLUDE 1]
 Em D  | |


[VERSE 2]
 Em D G C 
Someday, when I cry in the rain
   Em D 
I think of you
                 G C 
Looking through eyes of pain
 Em D 
Passing on a feeling that we can't deny
 G C 
Over on to you
 Em D 
Fading memory is soon becoming blind
   G C 
Dividing us in two


[CHORUS]
 Em D G C 
Somewhere, all that we leave behind
 Em D G C 
Lingers on, longing for lullabies
     Em D 
You live, you learn
     G C 
You love, you burn
     Em D 
You win, you lose
   G A 
Becoming you


[INTERLUDE 2]
 Em  | |  A  | |
  C  | |


[OUTRO]
 Em D  | |  G C  | |
 Em D  | |  G C  | |
 Em D  | |  G C  | |
 Em D  | |  G C  | | |

Please Come Home For Christmas chords – Eagles Vsion 3

 (play open string or Capo 2 for a higher pitch)

D+ 000332 or x3345x  
               G Bm/F# Em G7 
Bells will be ringing,      the glad glad news
            C Gdim   345353
Oh, what a Christmas, to have the blues
           G C G Bm/F# Em 
My baby’s gone, I have no friends
            A D 
To wish me greetings, greetings once again

D+
                G Bm/F# Em G7                 
Choirs will be singing      Silent Night
           C Gdim   
Christmas carols, by candlelight 
                       G C               
Please, come home for Christmas
                      G Bm/F# Em 
Please come home for Christmas
            A D7 G G7 
If not for Christmas,    by New Year’s night

             C Cm 
Friends and relations, send salutations
    G            D+           G G7 
As sure as the stars shine above
                C Cm 
They know that Christmas, Christmas my dear                                           
                A A D    
Is the time of year to be with the one you love


              G Bm/F# Em G7                                       
So won’t you tell me,       you’ll never more roam
               C Gdim 
Christmas and New Year’s will find you home
                      G B7 Em G/D C Gdim 
There’ll be no more sadness, no grief and pain, and
         G Em A D7 G D7 
I’ll be happy, happy for Christmas once again



Guitar solo:
 G Bm/F# Em G7 C Gdim G B7 Em G/D C Gdim G Em A D7 G C Cm 
Friends and relations, send salutations
    G            D+           G G7 
As sure as the stars shine above
                 C Cm     
They know that Christmas, Christmas my dear             
                A A D                      
Is the time of year to be with the one you love

              G Bm/F# Em G7 
So won’t you tell me,     you’ll never more roam
               C Gdim 
Christmas and New Year’s will find you home
                     G B7 Em G/D C Gdim 
There’ll be no more sadness, no grief or pain, and
         G Em A D7 G D7 
I’ll be happy, happy for Christmas once again


Outro:
                      G B7 Em G/D C Gdim 
There’ll be no more sadness,... no grief or pain
             G Em A D7 G 
And I’ll be happy, happy for Christmas once again

/ / / /
 C C C G   (ring out)

Beyond The Sunset For Me chords – Doyle Lawson

 C 
My soul is now thrilling with joy He is filling

        F C 
When I think of what's over life's sea


Our loved ones are waiting they're now congregating

            G7 C 
Beyond the sunset for me



Beyond the sunset in that better home

     F 
The sunset angels are waiting to carry me home

    C G7 
In Heaven with Jesus I'll be

 C 
Beyond the sunset of life all cares will vanish away

     F 
The sunset will shine as the light of the day

 C G7 C 
Beyond the sunset for me



Such comfort in knowing that I'll soon be going

          F C 
Where my soul shall forever be free


I see Jesus standing on the shore by the landing

            G7 C 
Beyond the sunset for me



Beyond the sunset in that better home

     F 
The sunset angels are waiting to carry me home

    C G7 
In Heaven with Jesus I'll be

 C 
Beyond the sunset of life all cares will vanish away

     F 
The sunset will shine as the light of the day

 C G7 C 
Beyond the sunset for me



Beyond the sunset in that better home

     F 
The sunset angels are waiting to carry me home

    C G7 
In Heaven with Jesus I'll be

 C 
Beyond the sunset of life all cares will vanish away

     F 
The sunset will shine as the light of the day

 C G7 C 
Beyond the sunset for me


            G7 C 
Beyond the sunset for me

For Sentimental Reasons chords – The Cleftones

 For Sentimental Reasons:The Cleftones.
#60 on BB Hot 100 on GEE Records in 1961.

INTRO:  Ab Fm Ab Fm 

#1.
   Ab Db Gm7 Eb Ab 
I love you (I love you) for sentimental reasons.
 Db Eb Ab Bbm Eb Bbm Eb 
I  hope that you (believe in me, believe in me)
      Ab Fm 
I've given you my heart (my heart, I've given 
                  Ab Fm 
you my heart..my heart, given you my heart.)

#2.
            Ab Db Eb 
Yes, and I love you (oooo-I love you) and you 
            Ab Db 
alone were meant for me (oooo-ooo-ooooo)
 Db Bb Bbm Ab Eb 
Please give your loving (your heart to me, heart
            Eb Ab Fm 
to me) and say we'll never part (never part, say
                   Ab Fm 
we'll never part..never part, say we'll never 

part.)

BRIDGE:
   Db Eb Ab Eb Bbm 
I think of you every morning......dream of you every 
 Ab 
night.
    C Gb F C Fm Bb F 
My darling, I'm nev-er lone-ly, whenever you're 
    Eb 
in sight.

#3.
            Ab Db Eb 
Yes, and I love you (oooo-I love you) for sentimental 
 Ab 
reasons.
       Db Dbm Eb Db Bbm Eb Bb 
(Mmmmmmmmm) I    hope that you (believe in me, believe
    Bbm Eb Ab Fm 
in me..) we'll never part (never part, we will never 
                
part) 

OUTRO:
            Ab Fm 
oh, no, no never (never part, we will never part.)
               Ab Fm 
Darling, we'd never (never part, we would never part.)
 Bbm Ab Fm 
My, my, my, my (never part, we would never part.)(Fade.)



A sixties smash from Kraziekhat.

Here For You chords – Firehouse Vsion 2

 Artist: Firehouse
Title: Here For You
 3 (1995)

Key: F# major
Tempo: 92 BPM
Tuning: Half step down
: Ras Loyola

 * * * * * * * * * * * * * * * * * * * *

Chords:

Am: x02210
Am7: x02010
Bm: x24432
Bm#5: x20003
D: xx0232
Dsus2: xx0230
Dsus4: xx0233
Em: 022000
G: 320003

Lick 1:
G:|- - - - - - - - 0 - - - - - - - - - -
D:|- - - 0h2 - - - - - - - 0 - - - - - -
A:|- - - - - - - - - - - - - - - - 0h2 -
E:|- - - - - - - - - - - - - - - - - - -
 
Lick 2:
e:|- - - - - - - - - - - - - - - -
B:|- - - 3 - - - - - - 1 - - - 0 -
G:|- - - - - - - - - - - - - - - -

Lick 3:
D:|- - - - - - - - - - - - - - - - - - - - - - - - - 0 - - - - - -
A:|- - - 0h2 - - - 0 - - - - - - - - - - - - - - - - - - - - - - -
E:|- - - - - - - - - - - - 3 - - - 2h3 - - - 0 - - - - - - - 0h2 -

(Alternately, for standard tuned guitars, transpose -1 then add a capo on 1st)
(You can also play an Am7 instead of an Am on the picking parts)

 * * * * * * * * * * * * * * * * * * * *

INTRODUCTION: (Picked)
[Lick 1]  G Am  Bm#5  G  -  C D G  (x2)


VERSE: (Picked)
        G Am      Bm#5  G 
So you think you've got it all figured out?
          C D G 
Well you know you can't make it alone
          G Am       Bm#5  G 
Everbody needs somebody to help them out
         C D G 
And you know I could be that someone


PRE-CHORUS: (Strummed)
                     Em 
And if you ever get lost on life's highway
            Bm 
Don't know where to go
 C Dsus4 D Dsus2 D 
There's just one thing that I want you to know


CHORUS:
 C D G  [L2]  C D G  [L2]
I am here for you,   always here for you
                 Em Bm 
When you need a shoulder to cry on
     C G C D 
Someone to rely on, I am here for you

(Short Instrumental)
 G Am  Bm#5  G  -  C D G 


VERSE:
        G Am       Bm#5  G 
So you think that love is long overdue
          C D G 
Tired of looking for someone to care
                 G Am        Bm#5  G 
Let me tell you now the choice is up to you
         C D G 
But you know I will always be there


CHORUS:
 C D G  [L2]     C D G  [L2]
I am here for you, woah always here for you
                 Em Bm 
When you needed someone to hold you
   C G C D Em 
Remember I told you, I am here for you
 C D G 
I am here for you


SOLO:
 Em Bm C  -  Dsus4 D Dsus2 D 
Em Bm C - [Sustain D then do L3]


VERSE: (Picked)
    G Am      Bm#5  G 
So now you've got it all figured out
         C D G 
And you know you've found someone that cares
                 G Am      Bm#5  G 
And if you ever need somebody to help you out
          C D G 
Well you know I will always be there


PRE-CHORUS: (Strummed)
                     Em 
And if you ever get lost on life's highway
            Bm 
Don't know where to go
 C Dsus4 D Dsus2 D 
There's 

All For You Tabs – Liveloud

 All For You    : Rodino Sim of SFC CC3
Words and Music by: Dexter Suban
Intro

Guitar 1
Riff 1
E|-------------------------------------------------------------9-9-9-10p9----------| 
B|-10-10-10-9-9-9-5-5-5-10-10-10-9-9-9-12-12-12--10-10-10-9-9-9-----------12-12-12-| 
G|---------------------------------------------------------------------------------| 
D|---------------------------------------------------------------------------------| 
A|---------------------------------------------------------------------------------|
E|---------------------------------------------------------------------------------|

Riff 2
E|------------------------------------------------------------9-9-9-10p9----|
B|-10-10-10-9-9-9-5-5-5-10-10-10-9-9-9-12-12-12—10-10-10-9-9-9-----------12-|
G|--------------------------------------------------------------------------|
D|--------------------------------------------------------------------------|
A|--------------------------------------------------------------------------|
E|--------------------------------------------------------------------------|
then
E|-----------------|
B|-101010-999-9s7v-|
G|-----------------|
D|-----------------|
A|-----------------|
E|-----------------|

Guitar 2
E|---------------------------------|----------------------|--------------|----------|
B|---------------------------------|----------------------|--------------|----------|
G|---------------------------------|----------------------|------6v--6v--|-99999999-|
D|---------------------------------|----------------------|----76--76-9--|-99999999-| 2x
A|-----4/5-----4/5-----4/5-----4/5-|-999--777-444-555-777-|-00-----------|-77777777-|
E|-2-2-----2-2-----2-2-----2-2-----|----------------------|--------------|----------|
PM|. .     . .     . .     . .       ...  ... ... ... ...   ..            ........|

Verse

Guitar 1
(Enters at “Your love it helped me overcome”)
E|------------------------------------------| 
B|------------------------------------------| 
G|-----------77777777------------99999999---| 
D|-44444444--77777777--77777777--99999999---| 
A|-44444444--55555555--77777777--77777777---|
E|-22222222------------55555555-------------|

Guitar 2
(Enters at “Your love it helped me overcome”)
Guitar 2
E|---------------------------------|----------------------|--------------|----------|
B|---------------------------------|----------------------|--------------|----------|
G|---------------------------------|----------------------|------6v--6v--|-99999999-|
D|---------------------------------|----------------------|----76--76-9--|-99999999-| 2x
A|-----4/5-----4/5-----4/5-----4/5-|-999--777-444-555-777-|-00-----------|-77777777-|
E|-2-2-----2-2-----2-2-----2-2-----|----------------------|--------------|----------|
PM|. .     . .     . .     . .       ...  ... ... ... ...   ..            ........|

Refrain

Guitar 1 
E|---------9-9-9------7-7-7-|------------------------------|
B|--------------------------|--10-10-10-9-9-9-5-5-5-5-5-5--|
G|-11-9-11-------9-7-9------|------------------------------|
D|--------------------------|------------------------------|
A|--------------------------|------------------------------|
E|--------------------------|------------------------------|
then
E|---------9-9-9------7-7-7-|------------------------------------|
B|--------------------------|--10-10-10-9-9-9-12-12-12-12-12-12--| 
G|-11-9-11-------9-7-9------|------------------------------------| 
D|--------------------------|------------------------------------|
A|--------------------------|------------------------------------| 
E|--------------------------|------------------------------------|
then
E|---------9-9-9------7-7-7-|---------------|
B|--------------------------|--10-10-10-9v--| 
G|-11-9-11-------9-7-9------|---------------| 
D|--------------------------|---------------|
A|--------------------------|---------------| 
E|--------------------------|---------------|
“I choose the path you lived”
E|-------------------------|

Fallin For You chords – Colbie Caillat Vsion 9

 CAPO 2

Intro:  D A G A  x2

 D A 
I don't know but, I think I may be
 G A 
fallin' for you dropping so quickly
 D A             
maybe I should keep this to myself
 G A 
wait until I know you better I am 
 Em F#m 
tryin' not to tell you but I
 G A        
want to but I'm scared of what you'll say and so
 Em F#m G 
I'm hidin' what I'm feelin'
       Bm G A           
well I'm tired of holdin' this inside my head
 D A 
I've been spendin' all my time just thinkin' 'bout you
 G A 
I don't know what to do I think I'm fallin' for you
 D A 
I've been waitin' all my life and now I've found you
 G A D A 
I don't know what to do I think I'm fallin' for you
 G A 
I'm fallin' for you
 D A 
as I'm standin' here and you hold my hand
 G A 
pull me towards you and we start to dance
 D A 
all around us I see nobody
 G A 
hearin' silence it's just you and me I am 
 Em F#m 
tryin' not to tell you but I
 G A        
want to but I'm scared of what you'll say and so
 Em F#m G 
I'm hidin' what I'm feelin'
       Bm G A           
well I'm tired of holdin' this inside my head
 D A 
I've been spendin' all my time just thinkin' 'bout you
 G A 
I don't know what to do I think I'm fallin' for you
 D A 
I've been waitin' all my life and now I've found you
 G A D A 
I don't know what to do I think I'm fallin' for you
                  G A 
I'm fallin' for you
 Em 
oh I just can't take it
 F#m 
my heart is racin'
 G A A 
emotions keep spinnin' out
 D A 
I've been spendin' all my time just thinkin' 'bout you
 G A 
I don't know what to do I think I'm fallin' for you
 D A 
I've been waitin' all my life and now I've found you
 G A D A 
I don't know what to do I think I'm fallin' for you
 G A 
I'm fallin' for you
 D 
I think I'm fallin for you
 A 
I can't stop thinkin' 'bout it
 G 
I want you all around me
 A 
and now I just can't hide it
 A 
I think I'm fallin' for you
 D 
I can't stop thinkin' 'bout it
 A 
I want you all around me
 G 
and now I just can't hide it
 A D A                       
I think I'm fallin' for you
 G A 
I'm fallin' for you
 D A G A D 
oh fallin' for you

Anywhere For You chords – John Martin

 With Capo 1

 D Bm  
 We can rewrite the story Tonight we're forever young.
                                                   G 
Yeah, tonight we're forever young.
 D Bm  
 Through the pain and the heart aches There's still love for everyone.
                                             G 
There's still love for everyone.

   D 
Hey, would you believe me if I said We are here for a reason.
  Bm G 
Now, this is our life This is what counts This is for us.
                  D F#m G A  
I would go anywhere for you.
                  D F#m G A Em F#m G A   
I would go anywhere for you, yeah.
                 Em F#m G A   
I would go anywhere for you, yeah.

 D Bm  
 Heaven knows you're dreamer Don't hide it from anyone.
                                      G 
Don't hide it from anyone.
 D Bm  
 Never doubt what you're made of There's a hero in everyone.
                                         G 
There's a hero in everyone.

   D 
Hey, would you believe me if I said We are here for a reason.
  Bm G 
Now, this is our life This is what counts This is for us.
                  D F#m G A  
I would go anywhere for you.
                  D F#m G A Em F#m G A   
I would go anywhere for you, yeah.
                  D F#m G A Em F#m G A   
I would go anywhere for you, yeah.
                 Em F#m G A   
I would go anywhere for you, yeah.

 Em F#m G A   
    Hold on     tonight  For us.
                  D F#m G A Em F#m G A   
I would go anywhere for you, yeah.
                 Em F#m G A   
I would go anywhere for you, yeah.

Time For You To Go solo Tabs – Sum 41 Vsion 1

 -------------------------------------------------------------------------------
                          Time For You To Go - SUM41
-------------------------------------------------------------------------------
: Oz Sabbag
 thespammail9000

Tuning: standard
************************************

| br = Bend release

************************************
e|-----------------------------------------------------------------------------------|
B|-----------------------------------------------------------------------------------|
G|-9--9-9-9-9-9br--7--------7----7br-----------7--9-7--------------------------------|
D|-------------------9-9--9---9-------9--7-9-9--------9---9--------------------------|
A|-----------------------------------------------------------------------------------|
E|-----------------------------------------------------------------------------------|

e|-----------------------------------------------------------------------------------|
B|-----------------------------------------------------------------------------------|
G|-----------7-7-9-7---7--7-----------------9~~9~9~~11~~11~11~~13~~13~13~~14~~14~14~~|
D|-----7-7-9---------9--------9-7----------------------------------------------------|
A|-7-9----------------------------9--------------------------------------------------|
E|----------------------------------7~~7~7~~-----------------------------------------|

I Only Want You For Christmas chords – Alan Jackson

 I Only Want You For Christmas 
Alan Jackson
Key: C

 F                          
The snow is falling
 C 
It's Christmas Eve
 Dm                   
Presents are wrapped 
 C 
Under the tree
 Dm G 
Is there one for me?

CHORUS:
             C        
I only want you for Christmas, baby
   C G 
I don't need nothing else
             C F           
I only want you for Christmas, baby
       C G C 
Tie a ribbon around yourself
 F C G C 
Oh, tie a ribbon around yourself


 G C 
I ain't gonna write no letter  Send north to the pole
 D7 G F G 
Cause what I'm wanting this year Saint Nick don't need to know

REPEAT CHORUS:

LEAD BREAK:
 C C C G C F C G C 

BRIDGE:
 G C 
So put on your Christmas stockings I'll find that mistletoe
           D7 
Let's get into the the holiday spirits
     G F G                  
And honey ho ho ho ho 

KEY CHANGE TO D:

 A 
ho ho ho ho

CHORUS:
             D         
I only want you for Christmas, baby
   D A 
I don't need nothing else
             D G 
I only want you for Christmas, baby
       D A D 
Tie a ribbon around yourself
             D         
I only want you for Christmas, baby
   D A 
I don't need nothing else
             D G 
I only want you for Christmas, baby
       D A D 
Tie a ribbon around yourself

 G D A D 
Oh, tie a ribbon around yourself

OUTRO:
Same as chorus - 4X then fade out on 5

Take My Hand For A While chords – Glen Campbell

 Take My Hand For A While
Glen cambell
Intro  D# A# D# G7 Cm G#m D# 


Verse 1

 D# A# D# G7 Cm G#m D# A# A#7 
Take my hand for a while, explain it to me  once again,     just for the sake of my broken heart


Verse 2

 D# A# D# G7 Cm G#m D# A# A#7 
Look into my eyes    and maybe I will understand,   how love I counted on was never there


Chorus 1

 A# D# Cm F A# A#7 
You see,   I thought that you might love me


Verse 3

 D# A# D# G7 Cm G#m D# 
So you caught me, it seems,   off balance with a heart so full    of love and pretty dreams that two 

             A# A#7 
should share

 D# A# D# G7 Cm G#m D# 

E------------------------------------------------------------6-|
B-----8-11-13-11-11---11-9-8-6---6-s8-8---8-s6---6---6-s8-11-8-|
G-7-8--------------------------8--------8------8---8---------8-|
D------------------------------------------------------------8-|
A------------------------------------------------------------6-|
E------------------------------------------------------------6-|


Verse 4

 A# D# Cm F Fm A#  
  And so,   I know,  but please before you go 

 D# A# D# 
   Take my hand for a while    explain it 

              G7 Cm G#m D# 
to me once again     just for the sake of my broken heart


flyinglibra51
God Bless Glen Travis Campbell

For Love chords – Railroad Earth

 For Love - Railroad Earth
Written by - Robert Earl Keen

Intro:   D Am G D D Am C D 
Strapped my guns and courage on set my cattle free
 D F G D 
Rolled a smoke and I made a vow no more to be reviled
 D Am C D 
Combed her hair and laid her out pretty as you please
 Em C G D 
Watched the fire light up the night, crying like a child

 D Am C D 
Saw a man in San Antone shoot down a dancin' queen
 D F G D 
And asked him on his hangin day,  what was he thinkin of
 D Am C D 
He said I never liked the way she treated me so mean
 Em C G D 
In the end I'll tell you friend,  I did it all for love

CHORUS:
 G D A Bm A G 
Stood out on the ragged edge and there I took the fall
 D Am G D 
I did it all for love my friend, for love I did it all

 D Am C D 
Just this side of Devil's Dream above the sulphur mine
 D F G D 
I found the man who robbed me of the girl I loved and lost
 D Am C D 
I asked him before he died what made him cross the line
 Em C G D 
He asked me did I mean the line that I just stepped across              

CHORUS:
 G D A Bm A G 
Stood out on the ragged edge and there I took the fall
 D Am G D 
I did it all for love my friend, for love I did it all

 Bm A G D E E7 A G   
I.....                   Wonder why?

 D Am C D 
I've walked this earth these many years and left a trail of fire
 D F G D 
But once I was a gentle man every bit like you
 D Am C D 
Watched the heavens open up, heard the angel choir
 Em C G D 
Sing the holy song of God, to thine own self be true            

CHORUS:
 G D A Bm A G 
Stood out on the ragged edge and there I took the fall
 D Am G D 
I did it all for love my friend, for love I did it all