Tag: forever

Caesar Forever Tabs – Reverend Bizarre

 -------------------------------------------------------------------------------
                       CAESAR FOREVER - Reverend Bizarre
-------------------------------------------------------------------------------
: Golgathor

Tuning: C# F# B E G# c#


INTRO
c#||--------------------------------------||
G#||--------------------------------------||
E ||--------------------------------------||
B ||-9--------------12--11----------------||
F#||-7--------------10--9-----------------||
C#||-7--------------10--9-----------------|| 4x


RIFF I
c#||-----------------------||
G#||-----------------------||
E ||-----------------------||
B ||-9---9-9--9---8--------||
F#||-7---7-7--10--9--------||
C#||-----------------------|| 4x

c#||--------------------||
G#||--------------------||
E ||--------------------||
B ||-9------------------||
F#||--------9--8--------||
C#||--------------------|| 2x

c#||--------------------||
G#||--------------------||
E ||--------------------||
B ||-6------------------||
F#||--------6--5--------||
C#||--------------------|| 2x

c#||--------------------||
G#||--------------------||
E ||--------------------||
B ||-5------------------||
F#||--------5--4--------||
C#||--------------------|| 2x

c#||--------------------||
G#||--------------------||
E ||--------------------||
B ||--------------------||
F#||-7------------------||
C#||--------7--6--------|| 2x


VERSE 1
c#||-----------------------------------------------------------------------||
G#||-----------------------------------------------------------------------||
E ||-----------------------------------------------------------------------||
B ||-9--------7--------9----------------9--------7--------4----------------||
F#||-7--------5--------7----------------7--------5--------2----------------||
C#||-----------------------------------------------------------------------|| 4x
Here I wait in the shadows,             Raise my two bloody hands
In the center of a circle,              Bodies join in deadly dance
I have killed with my brothers,         By my hand the weak must die
We'll leave a trail of lonely mothers,  Who mourn their martyrs side by side


RIFF I
c#||-----------------------||
G#||-----------------------||
E ||-----------------------||
B ||-9---9-9--9---8--------||
F#||-7---7-7--10--9--------||
C#||-----------------------|| 4x

c#||--------------------||
G#||--------------------||
E ||--------------------||
B ||-9------------------||
F#||--------9--8--------||
C#||--------------------|| 2x

c#||--------------------||
G#||--------------------||
E ||--------------------||
B ||-6------------------||
F#||--------6--5--------||
C#||--------------------|| 2x

c#||--------------------||
G#||--------------------||
E ||--------------------||
B ||-5------------------||
F#||--------5--4--------||
C#||--------------------|| 2x

c#||--------------------||
G#||--------------------||
E ||--------------------||
B ||--------------------||
F#||-7------------------||
C#||--------7--6--------|| 2x


VERSE 2
c#||-----------------------------------------------------------------------||
G#||-----------------------------------------------------------------------||
E ||-----------------------------------------------------------------------||
B ||-9--------7--------9----------------9--------7--------4----------------||
F#||-7--------5--------7----------------7--------5--------2----------------||
C#||-----------------------------------------------------------------------|| 4x
The ruler of this holy city,            Respected till the end of time
Reluctant to show his pity,             When religion turns to crime
They believed in the virgin mother,     For that they must be crucified
They cannot love any other,             Elder gods they left behind


RIFF I
c#||-----------------------||
G#||-----------------------||
E ||-----------------------||
B ||-9---9-9--9---8--------||
F#||-7---7-7--10--9--------||
C#||-----------------------|| 4x
Oh yeah!

c#||--------

Feels Like Forever Acoustic**********Of Mice And Men

 Okay, this isn't the exact chords, this is something I've come up with myself so I'm not really sure if 
it will work for you guys. this is an experiment. also my first tab XD




intro -  EM ,  EM , open top 5 strings (open) , G x8 - on the last one go from open to D 

 EM ,  EM , (open), G (all the way through this part, you get the tune if you listen to the song
Did you ever contemplate when all was lost you hesitate
And nothing seems the same?
Have you ever hid your face, in such disgrace, decisions made,
A picture with no frame? 

          EM G D 
Can you hold on one more day?

  EM G 
Say you're okay,
        D A     
I'm afraid that tomorrow is just too far away.
 EM G 
Fight the pain,
           D A 
It just feels like forever is crashing down on me
(  EM ,  EM , (open)  D 
Down on me, me, me.

 EM ,  EM , (open),  D 
Rain will fall. Wash all the pain. It shields the soul, you turn the page
To face another day.
Let me know that you will wait and I will pay for my mistakes
To feel the sun again.

     EM G 
Can you hold on?

  EM G 
Say you're okay,
       D A 
I'm afraid that tomorrow is just too far away.
 EM G 
Fight the pain,
           D A D 
It just feels like forever is crashing down on me.

  G D EM D 
Don't let go, time will heal.
       G D 
Just don't let go (don't let go, don't let go).
 EM G D A EM 
One day we can learn to start again.
 G D 
Say you're okay,
        A EM 
I'm afraid that tomorrow is just too far away.
          G 
Fight the pain,
           D A                   
It just feels like forever (feels like forever) forever...
      EM G D A    
It feels like forever is crashing down on me
 EM ,  EM , (open) ,  G 
Down on me, me, me.

Down on me!   (END WITH EM)    



As I said, that's just something I've come up with, tell me how it sounds to you?

Forever And A Day chords – Michael Learns To Rock

 FOREVER AND A DAY
By :  Michael Learns To Rock
Album : Nothing To Lose

 
 A  ,  A/G#  ,  A/F#  ,  A/E  ,  D  ,  E  ,  A A A/G# 
When the night has come
          A/F# A/E 
and the day is done
 D A Esus E 
I'm always thinking of you 
     
        A A/G# 
You are in the air
          A/F# A/E 
you are everywhere
 B E 
in everything I do

     
 E/D F#m B E     
If I could keep this moment in time
 E/D F#m B E     
if I could make you forever mine 
 E/D F#m/C# F#m/C      
baby I'm lost in your love
       Bm 
from  heaven above
 D E F#m 
you came to bring me up
     
      Bm E F#m    -  B       
With you I feel that I could stay
     Bm E A 
in love forever and a day
       

(  A  ,  A/G#  ,  A/F#  ,  A/E  ,  D  ,  E  ,  A  )    

         A A/G# 
When I walk alone
           A/F# A/E 
through an empty home 
 D A Esus E 
I can't stop thinking of you 
         A A/G# 
Do you feel the pain 
          A/F# A/E 
could it be the same
 B E 
are you missing me too 

 E/D F#m B E  
I see your face when I close my eyes
 E/D F#m B E  
I see a glimpse of our own paradise 
 E/D F#m/C# F#m/C   
you came from heaven above 
      Bm 
I'm lost in your love 
      G 
free as the wind
  E E/F#  -  E/G# A 
you give me   wings   to   fly 


Solo


       Bm E F#m    -  B       
With you I feel that I could stay
     Bm E A 
in love forever and a day    
            A/G# A/F# 
(I could stay with you)
       A/E 
(Forevermore)
       
    Bm E F#m    -  B  
My girl I feel that I could stay 
     Bm E A 
in love forever and a day


Please rate if you like my tabs!

Forever Love chords – Mickey Guyton

 Enjoy! :D

Capo 2

Intro:  D D 
Everyday is an endless summer
 D 
Every night with you is a dream
 Em 
With us it's all or nothing
 Em 
Ain't no in between
 D 
Let's keep the music playing
 D 
Playing out our love song
 Em 
Safe inside your arms
 Em 
Is right where I belong
    A G A 
I never felt like this, oh
                G 
With just one kiss

                 D 
It happened so fast
   Em 
Oh, before I knew it
          D G 
We were dancing in the moonlight
                 D 
Let's make this last
 Em 
Breathe in every moment
       D G 
Boy, it's gonna be different this time
 G 
Baby, have you ever
                   D Em D G 
Ever felt forever loooove

 D 
Boy, I wanna fix you dinner
 D 
Open up a bottle of wine
 Em 
Yeah, get a little too close
 Em 
Maybe see a few sparks fly
 D 
When you're laying there beside me
 D 
The only thing I wanna do
 Em 
Underneath this lone star sky
 Em 
Is lose myself in you
  A G 
Over and over again
         A G 
It was only a matter of when

                 D 
It happened so fast
     Em 
Oh, before I knew it
          D G 
We were dancing in the moonlight
                 D 
Let's make this last
 Em 
Breathe in every moment
       D G 
Boy, it's gonna be different this time
 G 
Baby, have you ever
                   D Em D G 
Ever felt forever loooove
          D     
Forever love, oh
 Em D G 
Oh, forever love

 Em 
What I thought was love
                           D 
Was one long string of maybes
 Em 
I've been broken too
                      D 
But I never let it break me
               D 
Then you saved me
 G D G 
Oh, you saved me

                 D 
It happened so fast
     Em 
Oh, before I knew it
          D G 
We were dancing in the moonlight
                 D 
We're making it last
 Em 
Breathe in every moment
       D G 
Boy, I know it's different this time
 G 
Baby, have you ever
                   D Em D G 
Ever felt forever loooove
          D 
Forever love
  Em D G 
Oh, forever love
                  D Em  
This is forever love
  D G D 
Oh, this is forever love

Por Siempre Forever – Kari Jobe chords by Kari Jobe

  Verso 1:
 G D 
 La luna entristeció
             Em 
 El sol se apagó
              C 
 Cayó el salvador del mundo
 G D 
 Su cuerpo en la cruz
               Em 
 Su sangre derramó
                C G 
 El peso del pecado sobre él.

 instrumental: |  G   |  D   |  Am   |  C   |
 
 Verse 2:
 G D 
 Al fin Él suspiró
               Em 
 El cielo lo ignoró
              C 
 El hijo descendió en tinieblas
 G D 
 La guerra en el seol
               Em 
 La muerte derrotó
                      C G 
 El infierno fue al fin vencido


 Pre-Coro:
 G D 
 La tierra retumbó
                Em 
 La piedra Él quitó
                      C 
 Su amor perfecto siempre vencerá
 G D 
 El rey resucito
               Em 
 La muerte derrotó
                C 
 Ganando la Victoria


 Coro:
           G D 
 Y por siempre, a Él la gloria es 
         Em C 
 Por siempre, exaltado es
         G D 
 Por siempre, Él es digno
        Em C 
 Vivo está, vivo está


 Puente:
 G D 
 Canto Aleluya
            Em 
 Canto Aleluya
             C 
 Canto Aleluya
                     G 
 El cordero ya venció

Live Forever chords – Little Big Town

 Choruses in 4/4, bridge in 5/2 for the most part, everything else in 3/2


Persistent acoustic riff
d|-------0------------------|-------0-------------------|
A|-8---------8-----8---10---|-7---------7-----7---------|
F|-----9-------9------------|-----7-------7-------7-----|
C|---------------9----------|---------------5-------5---|
G|-7---------------7---9----|-5-------------------------|
D|--------------------------|---------------------------|
   1 e + a 2 e + a 3 e +  a   1 e + a 2 e + a 3 e + a
    Dm Dm Edim Cadd9 

d|-------0-----------------|-------0------------/-----|
A|-7---------7-----7---8---|-5---------5-----5--/-----|
F|-----7-------7-----------|-----5-------5------/-----|
C|---------------5---------|---------------5----/-----|
G|-5---------------5---7---|-3------------------/-----|
D|-------------------------|--------------------------|
   1 e + a 2 e + a 3 e + a   1 e + a 2 e + a 3 e + a
    Cadd9 C Dm Bb 

Standard D: tune down a whole step.

ORDER: I V1  C  INT1 V2  C  INT2 V3  C  O


[INTRO] - riff
 Dm Dm Edim  |  Cadd9  |
 Cadd9 C Dm    |  Bb     |
 Dm Dm Edim  |  Cadd9  |
 Cadd9 C Dm    |  Bb     |


[VERSE 1] - riff
     Dm Gm/Bb Dm C/F 
You roll through life like a roll - ing fire
   C/F C/F Dm Bb 
I bring the rain like a thunder - storm
       Dm Gm/Bb Dm C/F 
Yeah, we found peace on the bat - tle - field
    C/F C/F Dm Bb 
It all makes sense in love and war
    C/F C/F Dm Bb 
It all makes sense in love and war


[CHORUS]
 F Bb F/C Bbadd9 
You and me, wild as a willow in a hurricane,
 F Bb Csus 
strong enough to stand in the stormy weather
 F Bb Dm7 Bbadd9 
We might be  crazy enough to make history,
            F Bb Csus 
'cause the world just ain't the same since we got together
           Gm7 C Dm 
And if we don't die young, we might just live forever


[INTERLUDE 1] - riff
(  Dm  )    Dm Edim  |  Cadd9  |
  Cadd9 C Dm    |  Bb     |


[VERSE 2] - riff
           Dm7 Gm/Bb Dm C 
There are Kings and Queens upon    their thrones,
      C C Dm Bb 
that have a love like you and me
 Dm Gm/Bb Dm C 
Kingdoms rise and king - doms fall,
     C C Dm Bb 
but lovers last eternal - ly
 C C Dm Bb 
lovers last eternal - ly


[CHORUS]
 F Bb Dm7 Bbadd9 
You and me,  wild as a willow in a hurricane,
 F Bb Csus 
strong enough to stand in the stormy weather
 F Bb Dm7 Bbadd9 
We might be  crazy enough to make history,
            F Bb Csus 
'cause the world just ain't the same since we got together
           Gm7 C Dm 
And if we don't die young, we might just live forever


[INTERLUDE 2]
(5/2 time)
(  Dm  )  

Forever You Remain chords – Citipointe Live

 Verse 1
   Am  //       G  //
Forever you remain 
 F  ///                G  /
God of all the earth
   Am  //       G  //
Forever you remain 
 F  ////
Healer of all hurt
  Am  //           G  //
Rock of all the ages 
 F  ///              G  /
Forever you remain 
  Am  //                G  // 
You wrote eternity's pages
 F  ///              G  /
Forever you remain 

Pre chorus
          Am  //         G  //   
When the world ceases to exist 
       F  ///                    G  /
It is you that our hope rests in
         Am  //       G  //    
For you know every heart and name 
 F  ///                         G  /
Now forever we'll shout your fame

Chorus
 C  //
Our god
    G  //                  Am  //    F //
Forever you are lord in all the earth 
 C  //
Our god 
    G  //                 Am // F //
Forever our hearts are yours

Bridge
 Am  //            G  // 
Riches fade and age will pass us
 C  //                 Dm  //
Earthly crowns will come and leave us
    Am  //         G  //
But hope stands anew
        C  //               Dm  //
As our arms are raised to you

Eisenhower Is The Father chords – Best Friends Forever V2

 Pretty easy song. The other version doesn't translate to ukulele well, but these chords should work.
The song is fairly repetitive, so just continue through with the chords.





       C Em F G 
Eisenhower is the father of the interstate highway system
And my song is just a way to pay a little tribute to him
'cause on that road my true love and I rode from Ohio to Pittsburgh
and our separate cars gave me the time to think of ways to try to kiss him
Our separate hearts beat out of time without someone to find the rhythm
When we hugged goodbye, I thought I felt them simultaneously quicken

 C G  
I've got a thought in my head
 D Am 
Would it really be so bad
if the tire exploded
or if the car ran out of gas?
Would if be so so horrible
if we had to miss a few shows
Because the car broke down in the countryside
and we had to spend the night there?

 C G  
And would it be oh unbearable
 D Am 
if we misplaced all our clothes
when we swam in the river
and we had to hang out in nothing but our underwear?
And would it be totally terrible
if we got a few hours off track
when we fell asleep in the grass
at the rest stop where I once read that


       C Em F G 
Eisenhower is the father of our interstate highway system
and so this song is just a way to say "Thank you" to him
'cause on that road my true love and I rode from New York to Toronto
and our separate cars gave me the time to think of ways I could enthrall him
Our separate hearts beat out of time without someone to play the bongos
On our last night, I said "You know exactly how my song goes."


 C G  
Would you think it was stupid of me
 D Am 
to suggest we don't get any sleep
even though we're getting up at 6am
to drive all the way to Michigan?

I've got a song in my head
It says it better than I ever could have
I'd love just once to see you
I'd love just once to see you
 C G C 
I'd love just once to see you in the nude.

Ramones Forever Tabs by Shonen Knife

 Intro/Solo/Chorus

E|--------------------------------------------------------------------------|
B|--------------------------------------------------------------------------|
G|-88888888----------88888888----------88888888----------8888------88888888-|
D|-88888888-66666666-88888888-88888888-88888888-66666666-8888-8888-88888888-|
A|-66666666-66666666-66666666-88888888-66666666-66666666-6666-8888-66666666-|
E|----------44444444----------66666666----------44444444------6666----------|

Verse

E|--------------------------------------|
B|--------------------------------------|
G|-88888888--------------------88888888-|
D|-88888888--66666666-88888888-88888888-|
A|-66666666--66666666-88888888-66666666-|
E|-----------44444444-66666666----------|

Pre-Chorus

E|-------------------------------------------------------|
B|-------------------------------------------------------|
G|-------------------88888888-88888888-------------------|
D|-66666666-66666666-88888888-88888888-66666666-66666666-|
A|-66666666-66666666-66666666-66666666-66666666-66666666-|
E|-44444444-44444444-------------------44444444-44444444-|

E|----------------------------|
B|----------------------------|
G|----------------------------|
D|-88888888-88888888-88888888-|
A|-88888888-88888888-88888888-|
E|-66666666-66666666-66666666-|


Bridge (I'll never forget)

E|-------------------------------------|
B|-------------------------------------|
G|-66666666-66666666-------------8---8-|
D|-66666666-66666666-88888888--8-8-8-8-|
A|-44444444-44444444-88888888--8-6-8-6-|
E|-------------------66666666--6---6---|

End Chorus

E|-----------------------------------| [x3]
B|-----------------------------------|
G|-10-10-10-10-10-10-10-10-----------|
D|-10-10-10-10-10-10-10-10--88888888-|
A|-8--8--8--8--8--8--8--8---88888888-|
E|--------------------------66666666-|

E|--------------------------------------------------|
B|--------------------------------------------------|
G|-10-10-10-10--------------10-10-10-10-10-10-10-10-|
D|-10-10-10-10-10-10-10-10--10-10-10-10-10-10-10-10-|
A|-8--8--8--8--10-10-10-10--8--8--8--8--8--8--8--8--|
E|-------------8--8--8--8---------------------------|


ORDER:

Intro/Solo/Chorus x2
Verse x4
Pre-Chorus x1
Intro/Solo/Chorus x2
Intro/Solo/Chorus x2
Verse x4
Pre-Chorus x1
Intro/Solo/Chorus x2
Bridge x2
Intro/Solo/Chorus x2
Intro/Solo/Chorus x2
End Chorus x2

For The First Time In Forever chords – Frozen V3

 I used a piano to figure out the chords- not sure how it sounds on guitar



{Verse: }
           F Bb 
Anna: The window is open, so's that door
   Fadd9 C 
I didn't know they did that anymore
     F Bb C 
Who knew we owned a thousand salad plates?
     F Bb 
For years I've roamed these empty halls
 Fadd9 C         
Why have a ballroom with no balls?
 Dm C Bm7       
Finally they're opening up the gates

             C F 
There'll be actual real live people
 C Am 
It'll be totally strange
 Eb C 
Wow, am I so ready for this change

{Chorus: }
                F Bb 
Cause for the first time in forever
                 C F Em 
There'll be music, there'll be light
         Dm Am 
For the first time in forever
         Eb C 
I'll be dancing through the night

       Dm C 
Don't know if I'm elated or gassy
         Bm7 Bb 
But I'm somewhere in that zone
               Fm Bb   
Cause for the first time in forever
 C                     
   I won't be alone

Bbsus  F  x3

I can't wait to meet everyone! (gasp)
What if I meet... the one?

{Key change: }

   F# B 
Tonight imagine me gown and all
 F#add9 C# 
Fetchingly draped against the wall
     F# B C# 
The picture of sophisticated grace
        F# B 
Oof! I suddenly see him standing there
   F#add9 C# 
A beautiful stranger, tall and fair
   Ebm C# Cm 

I wanna stuff some chocolate in my face

             C# F# 
But then we laugh and talk all evening,
           C# Bbm 
Which is totally bizarre
 E C# 
Nothing like the life I've lead so far

          F# B 
For the first time in forever

                 C# F# F#6 
There'll be magic, there'll be fun
         Ebm Bbm 
For the first time in forever
            E C# 
I could be noticed by someone

       Ebm C# 
And I know it is totally crazy
    Cm7 B 
To dream I'd find romance
             F# B 
But for the first time in forever
 C# F# F#6 
    At least I've got a chance

       Eb Bbm 
Elsa: Don't let them in, don't let them see
 C# G# G#m 
Be the good girl you always have to be
 Eb Bbm C# 
Conceal, don't feel, put on a show
       G# G#m Eb             
Make one wrong move and everyone will know

       F#                  
Elsa: But it's only for today 
                          
Anna: It's only for today
        G#              
Elsa: It's agony to wait
                    
Anna: It's agony to wait
        
      Am C D                              
Elsa: Tell the guards to open up the gate

Anna: The gate
               G C 
Anna For the first time in forever
Elsa: Don't let them in, don't let them see

                       D G G6 
Anna: I'm getting what I'm dreaming of
Elsa: Be the

Forever And A Day chords – Bethel Live V2

 Forever and a day
 C D Em 
I was afraid; Your love set me free
             D C  
I was in debt; You paid the price for me
         D Em  
I was hurt; You took away my pain 
         D C 
I was alone until You called my name
         D Em  
I was broken and You mended me
            D C  
Before I was You love me 
                    D 
You healed my body
                          Em  
and You made me whole
                     D Am  
No matter what I do you don't let go 
Chorus: 
 Am C G 
I will sing to the King:
            D Am  
I am the ransomed one 
         C G 
How I love Your holy name 
                D Am 
Holy to the Lamb who was slain
           C G  
When I laugh and when I cry
                  D Am  
You are the reason why
         C G  
How I long to be with You 
 D 
Forever and  A  day       ( Am C G D ) (2x)

Verse: 
 C D Em 
When I go to bed You are near
                 D C  
When I wake up You are there
                       D Em  
When I call Your name You are here
                    D C  
When I walk in faith You're everywhere 
 D Em 
You catch and save every tear I cry 
                        D C 
You journal everyday all about my life
                 D Em  
Your love for me reaches to the sky
         D Am  
I am Yours -- You are mine
 
Chorus

 Am C 
I was ashamed
                          G  
You called me beautiful
             D  
Now I'm Yours
                           Am  
You called me beautiful (x3) 

                 Am G D 
I wanna be heaven-minded (x3)

Chorus (slow and soft) 

Forever Starts Tonight chords – Tyler Ward V2

 Forever Starts Tonight by Tyler Ward 
Intro:  C ,  Em ,  Am ,  F C 
Pack my bags
Twenty-two
             Em 
And I'm heading out to be with you
          Am 
But I don't know where
           F 
But I'll find you there

Driving up the 101
My back against the rising sun
And I don't know how
But just hear me out

We'll say
Oh oh oh oh oh
Here we go!
Oh oh oh oh

Live like no tomorrow
Just worry about today
My love will last forever
When the money goes away

Dancing on the time roll
The risk is what we find
At least we'll have each other
If forever starts tonight

Hey, hey
Hey ooo, come on
Hey...

Come rain come shine
I'll stand in line
I'll walk many miles just to know you're mine
I'll come after you
And we'll make it through
(You know we always do, haha!)

Coz in this heart
You're number 1
And no matter where we go 
No matter where we run
Just stay next to me 
Coz you're all I need

We'll say
Oh oh oh oh oh
Here we go!
Oh oh oh oh

Live like no tomorrow
Just worry about today
My love will last forever
When the money goes away

Dancing on the time roll
The risk is what we find
At least we'll have each other
If forever starts tonight

Hey hey

Would you love it if I wrote a love letter tonight
Say that we can take a plane and write our names in the sky
For everyone to see it, everyone to read it
That forever starts tonight 
Would you love it if I wrote a love letter tonight
Say that we can take a plane and write our names in the sky
For everyone to see it, everyone to read it

We'll live like no tomorrow
Just worry about today
Our love will last forever
The money goes away

Would you love it if I wrote a love letter tonight
Say that we can take a plane and write our names in the sky
For everyone to see it, everyone to read it

Now, live like no tomorrow
Just worry about today
My love will last forever
When the money goes away

Dancing on the time roll
The risk is what we find
At least we'll have each other
If forever starts tonight
Hey hey

On and on and on we go
Where it stops, no walking moment 
On and on and on and on we go

Forever Reign Tabs by Hillsong United

 INTRO

e|----------------------------|
B|---7/h/9---7/h/9------------|
G|-------------------9-9-10---|   x2
D|----------------------------|
A|----------------------------|
E|----------------------------|



VERSE 1:

        C
You are good, You are good When there's nothing good in me.
        
        G
You are love, You are love On display for all to see.
        
         C
You are light, You are light When the darkness closes in.
        
         G
You are hope, You are hope You have covered all my sin.



e|--------------------------------|
B|---5---7/h/9---7/h/9------------|
G|-----------------------9-9-10---|   
D|--------------------------------|
A|--------------------------------|
E|--------------------------------|


VERSE 2:

e|---15--------21---15---|
B|--------15-------------|
G|-----------------------|   x4
D|-----------------------|
A|-----------------------|
E|-----------------------|



PRE-CHORUS:

e|---1-1-1----------------1-1-1------15-15-15---|
B|---------5-5--13-13-13--------5-5--13-13-13---|
G|----------------------------------------------|
D|----------------------------------------------|
A|----------------------------------------------|
E|----------------------------------------------|



CHORUS:

e|---12-12-12----------15-15---12-12-12-----------17-17---|
B|------------15-15-15-------------------15-15-15---------|
G|--------------------------------------------------------|   x3
D|--------------------------------------------------------|
A|--------------------------------------------------------|
E|--------------------------------------------------------|


e|--12-12-12--------15-15--12-12-12-----------15--15--15--15--15--15--15---|
B|----------15-15-15----------------15(x5)--13--13--13--13--13--13--13--13-|
G|-------------------------------------------------------------------------|
D|-------------------------------------------------------------------------|
A|-------------------------------------------------------------------------|
E|-------------------------------------------------------------------------|



VERSE 3:

You are more, You are more Than my words will ever say.

You are Lord, You are Lord..


"All creation will proclaim.." (Build)
e|--------------------------------------------------------------------|
B|---13-13-13-13-13-13-13-13-13-13-13-13-13-13-13-13-13-13-13-13-13---|
G|---12-12-12-12-12-12-12-12-12-12-12-12-12-12-12-12-12-12-12-12-12---|
D|---10-10-10-10-10-10-10-10-10-10-10-10-10-10-10-10-10-10-10-10-10---|
A|--------------------------------------------------------------------|
E|--------------------------------------------------------------------|


"You are God, You are God.."
e|---10-10-10-10-10-10-10-10-10-10-10-10-10-10-10-10-10-10-10-10-10---|
B|---12-12-12-12-12-12-12-12-12-12-12-12-12-12-12-12-12-12-12-12-12---|
G|---12-12-12-12-12-12-12-12-12-12-12-12-12-12-12-12-12-12-12-12-12---|
D|--------------------------------------------------------------------|
A|--------------------------------------------------------------------|
E|--------------------------------------------------------------------|



PRE-CHORUS:

e|---1-1-1----------------1-1-1------15-15-15---|
B|---------5-5--13-13-13--------5-5--13-13-13---|
G|----------------------------------------------|
D|----------------------------------------------|
A|----------------------------------------------|
E|----------------------------------------------|



CHORUS:

e|---12-12-12----------15-15---12-12-12-----------17-17---|
B|------------15-15-15-------------------15-15-15---------|
G|--------------------------------------------------------|   x3
D|--------------------------------------------------------|
A|--------------------------------------------------------|
E|--------------------------------------------------------|


e|--12-12-12--------15-15--12-12-12-----------15--15--15--15--15--1

Good Forever chords – Matt Redman V3

  Matt Redman
Song title: Good forever
 Your grace finds me

Capo 5

Intro:
 C2 , G , Em7 , D C2 , G , D , D 


Verse 1:
 C2 G/B Em7 D 
Blessings before me, blessings behind me
 C2 G/B D D 
Forever You are good
 C2 G/B Em7 D 
Battles before me, battles behind me
 C2 G/B D D 
I'll look to You alone


Chorus:
 C2 G D 
You are good forever and Your love endures
 C2 G D 
You are good forever and Your love endures
 C2 G Em7 D 
   Jesus, always,   Your love remains
           C2 Em7 D D 
You are good,   You are good


Instrumental:
 C2 , G , Em7 , D C2 , G , D , D 


Verse 2:
 C2 G/B Em7 D 
From the beginning to everlasting
 C2 G/B D D 
Your kindness knows no end
 C2 G/B 
And should the earth shake,
 Em7 D 
should every star fade,
 C2 G/B D D 
still You will never fail
 C2 G/B D D 
God, You will never fail



Chorus:
 C2 G D 
You are good forever and Your love endures
 C2 G D 
You are good forever and Your love endures
 C2 G Em7 D 
   Jesus, always,   Your love remains
           C2 Em7 D D 
You are good,   You are good
[x2]


Bridge:
 Em7 C2 
  In battle,   in blessing
 G D 
    Your love never fails us
 Em7 C2 
  Unending,   unchanging
 G D 
    What could come against
 Em7 C2 
  In battle,   in blessing
 G D 
    Your love never fails us
 Em7 C2 
  Unending,   unchanging
 G D 
    What could come against
       Em7 C2 G D 
Your love for us, Your love for us
       Em7 C2 G D 
Your love for us, Your love for us
Chorus:
 C2 G D 
You are good forever and Your love endures
 C2 G D 
You are good forever and Your love endures
 C2 G Em7 D 
   Jesus, always,   Your love remains
           C2 Em7 D D 
You are good,   You are good
[x4]

Outro:
           C2 Em7 D D 
You are good,   You are good
           C2 Em7 D D 
You are good,   You are good

 C2 , Em7 , D , D C2 G/B Em7 D 
Blessings before me, blessings behind me
 C2 G/B D D 
Forever You are good
___________________________
Hope you like it, 

God bless you

Yours Sincerely I Believed chords – Forever Ends Here

 Yours Sincerely, I Believed- Forever Ends Here
This is definitely not accurate, it's just how I play it. It's a pretty good version for 
acoustic guitar though


 E F#m 
Dear kid, I wrote to say
 E 
another 7 minutes won't go to waste
                    A 
so, let it take you so deep
       F#m 
in a world of it's own
     E A 
where the path shines bright and the stars look over

 E 
Take life, hold it tight
kiss it 'till it's love struck
pack a ship full of old framed dreams
               F#m 
and sail over swells of drowning tears
        E A Dbm 
every rather in your eye is the captain of each tear
                      E 
yours truly, I believed

        A E B 
Everybody needs a hero, when that last tear drop falls
 E A E 
on broken pieces lying next to me
                  B 
they watched us break down the walls
     E 
of what they told us was nothing

we had time to make a memory
     A E D 
so, they watched us do something that makes me proud of what's become of me

 E ,     D ,     E ,  A ,     E ,     A , 
 D ,    E ,   A ,   E E 
Dear kid, another year has passed by
 D A E 
every night you sleep with high hopes by your side
                                D A 
and wake up to write down the words that you thought of
                       D E 
when you walk the streets alone in a world so make believe
                                         D 
it could be anything, you could be anything
 D 
yours sincerely, you believed

 E A E B 
Everybody needs a hero, when that last tear drop falls
     E A E 
on broken pieces lying next to me
                        B 
they watched us break down the worlds
          Dbm A 
of what they told us was nothing
                B 
we had time to make a memory
 E A E D 
so, they watched us do something that makes me proud of what's become of me

 E 
So, promise me, you'll never stop
               D 
just forget everything, inside your heart
                    A E 
when this turns to war the dreamer inside will save you

so, promise me, without the lies

and just the truth
                              D 
that the lies behind every piece of heart you hide inside your mind
      A E 
you won't leave the world where the dreamer inside you divides you


[Spoken] - No guitar, but you can play E and A throughout

Dear kid, let nothing hold you back
and let nothing stop you from achieving your dreams
nothing is ever as bad as it seems
it may not be easy, but the battle will only make the outcome more satisfying
your journey will be a tough one
but the sights along the way will shine brighter than any star that shines in the night sky
I'll be looking back smiling for as long as you're looking ahead
yours sincerely, I believed
I believed
I believed
I believed
I believed
I believed
I believed

 E B 
Dear kid, I wrote to say
   E 
you'll write this song again one day

you'll walk those steps
 F#m E A 
into the place where the lights shine bright
               

Forever chords – Praise And Worship V2

 Chris Tomlin

Verse 1
 G G 
Give thanks to the Lord our God and King his love endures forever
       C G 
For He is good, He is above all things his love endures forever
      D C 
Sing praise, sing praise

Verse 2
 G G 
With a mighty hand and outstretched arm his love endures forever
     C G 
For the life that's been reborn his love endures forever

Bridge 
       D C 
Sing praise, sing praise
       D C 
Sing praise, sing praise (Yeah)

Chorus
 G Em 
Forever God is faithful forever God is strong
 D C 
Forever God is with us forever, forever

Verse 3
 G G 
From the rising to the setting sun his love endures forever
 C G 
By the grace of God we will carry on his love endures forever
 
Bridge
Chorus 2x
Bridge
Chorus

For The First Time In Forever chords – Frozen V2

 --------------------------------------------------------------

FOR THE FIRST TIME IN FOREVER - Frozen

--------------------------------------------------------------
 : Attract


Chords:

Bbsus  (x13311)
Fadd9  (135211) or (133213)
 Fsus4   (133311)
 Bm7     (x24232)
 F6      (132211) or (x33210)
 F#add9  (246322)
 F#sus4  (244422)
 Cm7     (x35343)
 F#6     (243322)
 G6      (354433)
 C#m7    (x46454)


{Intro: }
Bbsus  F  x3

{Verse: }
           F Bb 
Anna: The window is open, so's that door
   Fadd9 C 
I didn't know they did that anymore
     F Fsus4 F C 
Who knew we owned a thousand salad plates?
     F Bb 
For years I've roamed these empty halls
 Fadd9 C         
Why have a ballroom with no balls?
 Dm F Bm7 Bb 
Finally they're opening up the gates

             C F 
There'll be actual real live people
 C Am 
It'll be totally strange
 Eb C 
Wow, am I so ready for this change

{Chorus: }
                F Bb 
Cause for the first time in forever
             F C F F6 
There'll be music, there'll be light
         Dm Am 
For the first time in forever
         Eb C 
I'll be dancing through the night

       Dm C 
Don't know if I'm elated or gassy
         Bm7 Bb 
But I'm somewhere in that zone
               Fm Bb   
Cause for the first time in forever
 C                     
   I won't be alone

Bbsus  F  x3

I can't wait to meet everyone! (gasp)
What if I meet... the one?

{Key change: }

   F# B 
Tonight imagine me gown and all
 F#add9 C# 
Fetchingly draped against the wall
     F# F#sus4 F# C# 
The picture of sophisticated grace
        F# B 
Oof! I suddenly see him standing there
   F#add9 C# 
A beautiful stranger, tall and fair
   Ebm F# Cm7 B 
I wanna stuff some chocolate in my face

             C# F# 
But then we laugh and talk all evening,
           C# Bbm 
Which is totally bizarre
 E C# 
Nothing like the life I've lead so far

          F# B 
For the first time in forever
             F# C# F# F#6 
There'll be magic, there'll be fun
         Ebm Bbm 
For the first time in forever
            E C# 
I could be noticed by someone

       Ebm C# 
And I know it is totally crazy
    Cm7 B 
To dream I'd find romance
             F#m B 
But for the first time in forever
 C# F# F#6 
    At least I've got a chance

       Eb Bbm 
Elsa: Don't let them in, don't let them see
 C# G# G#m 
Be the good girl you always have to be
 Eb Bbm C# 
Conceal, don't feel, put on a show
       G# G#m Eb F 
Make one wrong move and everyone will know

       F# C# 
Els

Only King Forever chords – Praise And Worship

 INTRO: [ C  -  C  -  Am  -  F  -  C ]

VERSE 1:
 C 
Our God, a firm foundation
 C Am 
Our rock, the only solid ground
 F C 
As nations rise and fall
 C 
Kingdoms once strong now shaken
 C Am 
But we trust forever in your name
 F C 
The name of Jesus
 Am F 
We trust the name of Jesus

CHORUS:
 C C/E 
You are the only King forever
 F 
Almighty God we lift you higher
 C/G 
You are the only King forever
 F 
Forevermore, you are victorious

VERSE 2:
Unmatched in all your wisdom
In love and justice you will reign
Every knee will bow
We bring our expectations
Our hope is anchored in your name
The name of Jesus
We trust the name of Jesus

INSTRUMENTAL: [ Dm  -  C  –  G ]

BRIDGE:
 Dm C 
We lift our banner high
 G 
We lift the name of Jesus
 Dm C 
From age to age you reign
 G 
Your kingdom has no end
 Dm C 
We lift our banner high
 G 
We lift the name of Jesus
 F C 
From age to age you reign
 G 
Your kingdom has no end

DOWN CHORUS:
 Am 
You are the only King forever
 F 
Almighty God we lift you higher
 C/E 
You are the only King forever
 F 
Forevermore, you are victorious

Strawberry Fields Forever intro Tabs by Andy Timmons

 Strawberry Fields Forever (Beatles Cover)
By Andy Timmons Band
http://www.andytimmons.com/atb-story.php

Intro

e|-7---7---7---7---7---7---5---4---------5-------4--------------|
B|-9---9---9---9---9---9---6---6-------7---7---5--------7--5--2-|
G|-9---9---8---8---7---7---7---7---4s6-------4---------6---6--2-|
D|---9---9---9---9---9---9---7---7-----------------5s7-----7--2-|
A|------------------------------------------------------------0-|
E|--------------------------------------------------------------|

Primeira Parte

e|----------------------------------------|
B|----------------------------------------|
G|--6-6-6s7-6-2------2h4p2--------2-2h3---|
D|--------------2-h4--------2---4-------2-|
A|--------------------------2-------------|
E|--------------------------0-------------|

e|----------------------------|-----------------------------|----------------------|
B|----------------------------|--3s5-3-2-------2vvv---------|-2-----2--------------|
G|------------------0-2b3-----|----------4-3h4--------------|---2-----2---2s4-2vv--|
D|-2p0--------------0-0---2vvv|-----------------------------|-----4-----4----------|
A|-----2h4p0-2s4vv------------|-----------------------------|----------------------|
E|----------------------------|---------------------0h2v2v2-|----------------------|

e|----------------------------|-----------------------------|
B|----------------------------|-----------------------------|
G|-3s4-4-4-4-4-4-4-----4------|----2v2v2v-4s6-4-2s1-4-2s1---|
D|-1s2-2-2-1-1-1-x-4s5---7-6--|---------------------------4-|
A|---------------4-------5-5--|-----------------------------|
E|----------------------------|-2v--------------------------|

----

This is the far I could tab. I hope I can tab what is left soon.
Any suggestions or comments, my email is lucas dot insane2 at gmail dot com

Good Forever chords – Matt Redman

 Song   : Good Forever
Artist : Matt Redman
Album  : Your Grace Finds Me
Key    : C
Standard EADGBe tuning

Intro
 F C/E Am G F C/E G 

Verse 1
 F C/E Am G 
Blessings before me, blessings behind me
 F C/E G 
Forever You are good
 F C/E Am G 
Battles before me, battles behind me
 F C/E G 
I'll look to You alone

Chorus
  F C G 
You are good forever and Your love endures
  F C G 
You are good forever and Your love endures
  F C Am G 
Jesus, always, Your love remains
          F C (Am)        G 
You are good, You are good
Play Am instead of C if repeating last line

Verse 2
  F C/E Am G 
From the beginning to everlasting
  F C/E G 
Your kindness knows no end
  F C/E    
And should the earth shake,
   Am G 
Should every star fade,
  F C/E G 
Still You will never fail
  F C G 
God, You will never fail


Bridge 
     Am F 
In battle, in blessing
       C G 
Your love never fails us
     Am F 
Unending, unchanging
 C G 
What could come against

Bridge Ending
       Am F C G 
Your love for us, Your love for us
       Am F C G 
Your love for us, Your love for us