Tag: francis

Somebody Else Is Taking My Place chords – Connie Francis

 C A7 D7 
Somebody else  is taking my place

 G7 C 
Somebody else  now shares your embrace

 F C A7 
While I am trying  to keep from crying

 D7 G7 
You go around with a smile on your face


 C A7 D7 
Little you care  for vows that you made

 G7 C 
How little you care  how much I have paid

 F C A7 
My heart is aching  my heart is breaking

     D7 G7 C 
For somebody's taking my place


            A7 D7 
Little you care  for vows that you made

 G7 C 
How little you care  just how much I’ve paid

 F C A7 
My heart is aching  my heart is breaking

     D7 G7 C 
For somebody's taking my place

Ill Follow The Boys chords – Connie Francis

 I'll Follow The Boys:Connie Francis.
#17 on BB Hot 100 on MGM Records
in 1963.

INTRO:  D 

#1.
 D G Em Bm 
I'll follow the boys wherever they go.
      C G E 
I'll follow the boys cause in my heart I know.
   Am7 B Em 
I know that somewhere, somewhere along the way,
      Gbm A D 
I'll find my love, my own true love, someday.

#2.
 D G Em Bm 
And there'll be no place too far, no ocean too 

wide.
     C E  
Wherever he goes I'll be right by his side.
      Am7 B Em 
I'll follow the boys and wait until the time..
          G Em D   G.....Eb
til that boy that I'm following is mine.

#3.
 Eb Ab Fm Cm 
There'll be no place too far, no ocean too 

wide.
 Db F 
Wherever he goes I'll be right by his side.
         Bbm C Fm 
So I'll follow the boys and wait until the time..
          Ab Fm Bbm Eb Ab 
til that wonderful boy that I'm following is mine.



A sixties smash from Kraziekhat.



When The Boy In Your Arms chords by Connie Francis

 When The Boy In Your Arms:Connie Francis.
#8 on CASHBOX and #10 on BB Hot 100 on
MGM Records in 1961.

INTRO:  F Bb F C  

#1.
 A F Bb 
When the boy in your arms, is the boy in 
 C G C F C 
your heart..then you've got everything.
             F            
When you're holding the dream you've been 
 Bb G C C7 
dreaming you'd hold, you're as rich as a 
 F 
king.

CHORUS:
     Bb F 
So, hold him tight and never let him go..
 G C 
day and night, let him know you love him so.

#2.
 Bb F Bb 
With the love of your life, spend a life time 
   G              C             F......Db
of love..make him yours for evermore.


INTERLUDE:  Gb B Ab Db Ab Gb 


CHORUS:
     B Gb 
So, hold him tight and never let him go..
 Ab Db 
day and night, let him know you love him so.

#3.
 Gb B 
With the love of your life, spend a life time 
    Ab Db Gb 
of love..make him yours for evermore.

OUTRO:
 Gb Db Gb B Gb 
Make him yours for evermore........(Fade.)



A sixties smash from Kraziekhat.

Youre Gonna Miss Me chords by Connie Francis

 You're Gonna Miss Me:Connie Francis.
#32 on CASHBOX and #34 on BB Hot 100
on MGM Records in 1959.

***(This may or may not be the original key.
    I can't find the original recording.)***

INTRO:  C Dm7 F C Em7 C Am7 F Am7 F 

#1.
 Am7 F 
One kiss, one little sigh, that's all you 
 Bb Gm7 Bb Db 
gave me when you said goodbye.
     Gm7 F C 
But someday, baby, someday, darling,
              F Dm7 F C C7 
you're gonna miss me.

#2.
      F B F Bb F  
Long gone is your caress, and with it, all
         Bbm 
my happiness.
              F C 
But someday, baby, someday, darling, you're 
       Dm7 C F 
gonna miss me, oh, oh, oh, yes.

BRIDGE:
 Am7 Bb 
One of these nights you'll wake up crying..
                F Am7 F 
but I won't be there to comfort you.
 F Bb 
You'll turn on the light, but you'll go on 
                       G 
crying, cause only my true love can chase 
           C 
away your blues.

#3.
 B F Dm7 Bb 
Oh, yes, you're gonna learn I'm not the only 
     Gm7 Bbm Db 
one whose heart will burn..cause someday, 
 F C Fm 
baby, someday, darling, you're gonna miss me.

OUTRO:
 Db F Db F 
Miss me, miss me, miss me..someday, baby, someday, 
 C F Bb Bbm 
darling, you're gonna miss me..oh, oh, oh, oh, oh, 
     F 
oh, yeah.



A fifties smash from Kraziekhat.

Francis Lung – A Selfish Man Tabs

 Artist: Francis Lung
Song: A Selfish Man
: gustavoaraujo999@hotmail.com

**3:39 is maybe only one guitar.
**I haven't tabbed it all, but the rest is considerably harder. Might as well share it.
        
== GUITAR ONE (LEAD) ==

0:15
e|------11-----13--------------------11--13--------------------|
B|----9-----------16---------------9--------16-----13----------|
G|-10----------------15---------10-------------15--------------|
D|-------------------------------------------------------------|
A|-------------------------------------------------------------|
E|-------------------------------------------------------------|

0:31
e|-11-------------------------8----------------------------------|
B|-------9----11----9----9-11---11-9----9------------------------|
G|----10---10----10------------------10--------------------------|
D|---------------------------------------------------------------|
A|---------------------------------------------------------------|
E|---------------------------------------------------------------|

0:45
e|---------------------------------------------------------------|
B|----9-11-11/13\11-9-------9-11-11/13\11-9----9-----------------|
G|-10-----------------10--------------------10-------------------|
D|---------------------------------------------------------------|
A|---------------------------------------------------------------|
E|---------------------------------------------------------------|

e|-11------------------------------------------------------------|
B|-------9----11----9----9-11-11/13\11-9-------------------------|
G|----10---10----10----------------------10----------------------|
D|---------------------------------------------------------------|
A|---------------------------------------------------------------|
E|---------------------------------------------------------------|

1:43
e|---------------------------------------------------------------|
B|----9-11-11/13\11-9-------9-11-11/13\11-9----9-----------------|
G|-10-----------------10--------------------10-------------------|
D|---------------------------------------------------------------|
A|---------------------------------------------------------------|
E|---------------------------------------------------------------|

e|-11---8---11---11/13-------------------------------------------|
B|----9---9----9-------13-----9-11-11/13\11-9--------------------|
G|--------------------------------------------10-----------------|
D|---------------------------------------------------------------|
A|---------------------------------------------------------------|
E|---------------------------------------------------------------|

e|---------------------------------------------------------------|
B|----9-11-11/13\11-9-------9-11-11/13\11-9----9-----------------|
G|-10-----------------10--------------------10-------------------|
D|---------------------------------------------------------------|
A|---------------------------------------------------------------|
E|---------------------------------------------------------------|

e|-11---8---11---11/13-------------------------------------------|
B|----9---9----9-------13-----9-11-11/13---9---9h11p9------------|
G|---------------------------------------------------------------|
D|---------------------------------------------------------------|
A|---------------------------------------------------------------|
E|---------------------------------------------------------------|

3:39
e|-13-13--13-16-13-16-13-13--13-16-13-16-13-13--13-16-13-16-13-13|
B|---------------------------------------------------------------|
G|---------------------------------------------------------------|
D|---------------------------------------------------------------|
A|---------------------------------------------------------------|
E|---------------------------------------------------------------|

e|-16--20--16--18--16-16-16---16--20--

Atlas Hands chords – Benjamin Francis Leftwich V5

 ---------------------------------------------
   Atlas Hands ~ Benjamin Francis Leftwich
---------------------------------------------
 Last Smoke Before the Snowstorm (2011)

Tuning: E Standard

Capo: 4th Fret



INTRO:

 Bm D Gsus2 Bm Dsus2 Gsus2 


VERSE:

 Bm D Gsus2 
Take me to the docks there is a ship without a name there and it is

 Bm D Gsus2 
Sailing to the middle of the sea

 Bm D Gsus2 
The water there is deeper than anything you've ever seen

 Bm D Gsus2 
Jump right in and swim until you're free


CHORUS:

 Em G D A 
I    will remember your face cause

 Em G D A 
I am still in love with that place

 Em G D A 
When the starts are the only things we share will you be

 Em G D A 
There

INTERLUDE:

 Bm D Gsus2 Bm Dsus2 Gsus2 


VERSE:

 Bm D Gsus2 
Money came like rain into your hands while you were waiting for that

 Bm D Gsus2 
Cold old promise to appear

 Bm D Gsus2 
People in there churches started singing above their hands and said

 Bm D Gsus2 
My God is a good God and He cares


CHORUS:

 Em G D A 
I    will remember your face cause

 Em G D A 
I am still in love with that place

 Em G D A 
When the starts are the only things we share will you be

 Em G D A 
There


BRIDGE:

 Em G D A 
I've got a plan I've got an atlas in my hands

 Em G D A 
I'm gonna turn when I listen to the lessons that I've learned

 Em G D A 
I've got a plan I've got an atlas in my hands

 Em G D A 
I'm gonna turn when I listen to the lessons that I've learned


OUTRO:

 Bm D Gsus2 Bm Dsus2 Gsus2 D

Stole You Away chords – Benjamin Francis Leftwich V2

 This is a fairly simple song, and easy to play along with the actual song. I am a 
beginner myself so I am always looking for an 
easier way to play songs. Standard tuning, capo on first fret.

Intro:  Em D C C  x2 if you like the way it sounds you can play another D chord as a 
transition into the next chord progression. You play this progression twice before 
the lyrics begin.

Verse:  Em D C C  (transitional  D )
you play this through out the verse before the chorus begins

There was a boat in the sea I knew 
Couldn't believe what I saw was true 
I swam out through the waves 
Caught it as it moved away 

Chorus:  C Em D D  
you play this through out the chorus

Said I stole you 
Away 
Said I stole you away 
Next time I steal you away 
Next time I steal you darlin will ya stay 

Verse:  Em D C C  (transitional  D )
you play this through out the verse before the chorus begins

There was a change in the way you breathed 
Couldn't believe you ahd changed for me 
And if you hear the sound of shooting stars protect your heart 
Coz it burns back and turns back around 

Chorus:  C Em D D  
you play this through out the chorus

Said I stole you 
Away 
Said I stole you away 
Next time I steal you away 
Next time I steal you darlin will ya stay 

Bridge:  Em D G G 
you play this through out the bridge

I strum love of your soul 
Coz I'm covered by believing by the things you see 
He spent so long running but there's nothing coming 
Turn around and run into me 

Chorus:  C Em D D  
you play this through out the chorus

Said I stole you 
Away 
Said I stole you away 
Next time I steal you away 
Next time I steal you darlin will ya stay 

Stole You Away chords – Benjamin Francis Leftwich

 This is a fairly simple song. I am a beginner myself so I am always looking for an 
easier way to play songs. Standard tuning, capo on first fret.

Intro:  Em D C C  x2 if you like the way it sounds you can play another D chord as a 
transition into the next chord progression. You play this progression twice before 
the lyrics begin.

Verse:  Em D C C  (transitional  D )
you play this through out the verse before the chorus begins

There was a boat in the sea I knew 
Couldn't believe what I saw was true 
I swam out through the waves 
Caught it as it moved away 

Chorus:  Em C D D  
you play this through out the chorus

Said I stole you 
Away 
Said I stole you away 
Next time I steal you away 
Next time I steal you darlin will ya stay 

Verse:  Em D C C  (transitional  D )
you play this through out the verse before the chorus begins

There was a change in the way you breathed 
Couldn't believe you ahd changed for me 
And if you hear the sound of shooting stars protect your heart 
Coz it burns back and turns back around 

Chorus:  Em C D D  
you play this through out the chorus

Said I stole you 
Away 
Said I stole you away 
Next time I steal you away 
Next time I steal you darlin will ya stay 

Bridge:  Em D G G 
you play this through out the bridge

I strum love of your soul 
Coz I'm covered by believing by the things you see 
He spent so long running but there's nothing coming 
Turn around and run into me 

Chorus:  Em C D D  
you play this through out the chorus

Said I stole you 
Away 
Said I stole you away 
Next time I steal you away 
Next time I steal you darlin will ya stay 

Mademoiselle Laventure chords – Francis Cabrel

 CAPO 4

impro:  C#  (9 11 11 11 9 9)                              

(Riff)
E--1-0-----
B------3-0-


Intro :  Am G F F  x2

 Am G 
Mademoiselle l'aventure 
 F E Am G F F 
Vous avez posé sans bruit
 Am G 
Roulé dans sa couverture
 F E Am G 
Un petit ange endormi
 F F D D 
On arrivait de nulle part
                     G      (Riff)  E--1-0-----   
On l'a serré contre nous          B------3-0-
 Am G 
Ce qui ressemble au hasard
 E F 
Souvent est un rendez vous

 Am G 
Mademoiselle le mystère
 F E Am G F F 
Evanoui pour toujours
 Am G 
Vous serez toujours la mère
 F E Am G 
Nous serons toujours l'amour
 F F D D 
C'est le livre qu'on partage
                      G   (Riff)  E--1-0-----
Et nous voila réunis            B------3-0-
 Am G 
Au matin de chaque page
 E F 
  On vous remercie

 C G D 
Vous avez l'âge où l?on s'amuse de tout
De rien, de son corps
 F C 
Pas de témoin je présume
 G E 
Juste la lune et encore
 C G            
Et ce trésor cette colombe
 D  
Qui vous avait ralentie
 F C 
Vous l'avez posée dans l'ombre
    E 
Et l'ombre vous a reprise

 Am G F   x2

 Am G 
Cette petite âme blanche
 F E Am G F 
Elle sera née deux fois
 Am G 
La première entre vos hanches
 F E Am G 
La seconde entre nos bras
 F F D D 
La force que cela lui donne
                        G    (Riff)  E--1-0-----
C'est de l'éclat de diamant        B------3-0-
 Am G 
On veut le dire à personne
 E F 
A vous seulement

 C G D 
Vous avez l'âge où l?on s'amuse de tout
De rien, de son corps
 F C 
Pas de témoin je présume
 G E 
Juste la Lune et encore
 C G            
Et ce trésor cette colombe
 D  
Qui vous avait ralentie
 F C 
Vous l'avez posée dans l'ombre
    E Am G F F 
Et l'ombre vous a reprise

 D 
Vous êtes sûrement très belle
                          F 
Comme ce petit miroir de vous
 D 
Qui s'endort contre mon aile
                          F 
C?est tout ce que je sais de vous
            Am G F F Am G F F 
Mademoiselle...