Tag: Fret

Party Song Tabs by Blink 182 V6

  Blink 182
Song: The Party Song
 Enema of the State


I know this song has been tabbed before, 
but it still misses some parts and others just doesn't sound right.


Intro with bass and guitar. 

Do you want to come to a party...

e-----------------------------------|
B-----------------------------------|
G-----------------------------------| Play this 3 times.
D---------22222222--------22222222--|
A-22222222--------44444444----------|
E-----------------------------------|

Shine the beer for tequila and we headed into the party...

e-------------------------------------------|
B-------------------------------------------|
G-------------------------------------------| Last one before the fast verse.
D---------22222222--------22224444----------|
A-22222222--------44444444--------222222222-|
E-------------------------------------------|

Before Tom starts playing the fast verse part, he does this "dun-din" sound. 
This can be achieved by muting the top string at the 2nd or 3rd 
fret and whilst holding a muted B powerchord. 
Pick the lowest fret and then strum down on the B powerchord.
You can also mute the lowest string on both the 2nd and 3rd fret
by using your thumb and longfinger to get a more filled sound.


e-------------------------------------------|
B-------------------------------------------|
G-------(4)x--------------------------------|
D-------(4)x--------------------------------|
A-------(2)x--------------------------------|
E--(2)x-------------------------------------|


Now for the part that makes this song fun to play :)

Then in the backyard some terrible ska band...

e-------------------------------------------|
B-----------55555-------------55555---------|
G--44444----44444----66666----44444---------| Repeat this 3 times.
D--44444----22222----66666----22222---------|
A--22222-------------44444------------------|
E-------------------------------------------|

Far from people I hate down from anywhere state...

e----------------------------------------------|
B-----------55555------------555-777-----------|
G--44444----44444---44444----444-666---4444444-|
D--44444----22222---44444----222-444---4444444-| Last one before the Bridge.
A--22222------------22222--------------2222222-|
E----------------------------------------------|


Bridge/interlude:

And then I saw her standing there...

e-----------------------------------------------|
B-----------------------------------------------|
G-----------------------------------------------|
D-4~~----2~h1------2~h1-------2~h1--------------| Do this once.
A-------------2~~--------2~~-------2~~--2~h4----|
E-----------------------------------------------|


Pre-Chorus.

She might be the one maybe we'd have some fun...

Do this 3 times. Then, on the 4th time, play only the first
part with palmuting and then strum down on 
the 2nd one once without palmuting.


e--------------------|
B--------------------|
G--------------------|
D-44444--66666-------| 
A-22222--44444-------|
E--------------------|
PM.....  .....


Chorus:

But that night I learned some girls try too hard...

The chorus consists of 2 guitars, one that plays the mainriff
with heavy distortion and one that plays an another differnet riff
with heavy distortion. The other riff is basically the interlude
but with 2 different notes added.

e--------------------------|
B--------------------------|
G--------------------------|
D---4~2~-1~---4~2-~1-------| Repeat this 8 times.
A----------4~--------2~----| After this, go back to the verse
E--------------------------| and repeat everything :)


Song order:

Verse 2 times
Prechorus
Chorus
Verse
Prechorus
Chorus

And end on chorus. Enjoy the song! :)

Little Bird chords – Imogen Heap

 I made a version of these chords for guitar :) 
The song is played with a capo on the first fret (if you want to play along with the music video)

 Bm A G 
Little bird, little bird, little bird 
                     D 
What do you hear? 
        F# Bm 
The clink of morning cheers 
             A D 
Orange juice concentrate 
                  A D 
Crossword puzzles start to grade 
           F 
One across 
                  E Am 
Four letter word, it's just not sitting 


 Bm A G 
Little bird, little bird, little bird 
                     D 
What do you see? 
    F# Bm 
A picture perfect scene 
                  A D 
Two toned lawns are manicured 
                      A D 
The garden's wearing a haute couture 
       F 
It's hiding something 
      E Am 
It's trying too hard 
 G C 
Hiding something 
      E Am 
It's trying too hard 

 Bm A G 
Little bird, little bird, little bird 
                         D 
Where are they now? 
 F# Bm 
Day time tv lounge 
                  A D 
A carriage clock, a mantle piece 
               A D 
A family wiped up, j cloth cleaned 
       F E Am 
Unsaid, festers in the throws of the sofa 

 Bm A G 
Little bird, little bird, little bird 
                     D 
How are you feeling? 
 F# Bm 
Like camp in quarantine 
            A D 
Pearly whites, touch down smile 
                A D 
Haps and creases round the eyes 
 F 
Tell tale, hard sell 
                E Am 
We smell rats in the kitchen 
 F 
Tell tale, heart sail 
                E Am 
We smell rats in the kitchen 

 Bm A G 
Little bird, little bird, little bird 
                     D 
What can we do? 
    F# Bm 
A think tank think rescue 
            A D 
Simon says, etch a sketch 
                        A D 
Some encoded message only he would get 
 F 
Quickly now 
 E Am 
Cause this is not how it ends 


 Bm  (this part is all  Bm )
Little bird, little bird, little bird 
(Little bird, little bird, little bird) 
Well I've got one more question 
(Little bird, little bird, little bird) 
And I swear I'll let it rest 
(Little bird, little bird, little bird) 
Well I've just one more question 
(Little bird, little bird, little bird) 
And I swear I'll let it rest 

One more question 
I'll let it rest 
I swear I'll let it rest 
Got one more question 
(And I swear I'll let it rest) 
I've got one more question 

 Bm A G 
Little bird, little bird, little bird 
                          D 
Where have you gone?

Goodness Gracious chords – Ellie Goulding V2

 Title:: Goodness Gracious
Artist: Ellie Goulding
 Halcyon Days
Year: 2013

Chords used:
 G : 320033
 A : x02220
 Em : 022000
 D : xx0232
 F#m : 244222
 Bm : 113321

Standard tuning
Capo: 2nd fret


[1st verse]
 D A G 
I lost a signal and put you away
 D Bm F#m G D 
Swore upon my sun I'd save you for a rainy day
 D A G 
Loosened the noose then let go of the rope
 D Bm F#m D G              
I know if it's never coming back it  has to go

 D A 
I keep calling your name
 D 
I keep calling your name
 D A 
I wanna hold you close
 D 
But I never wanna feel ashamed
 D A 
So I keep calling at night
 D 
I keep calling at night
 D A      
I wanna hold you close
 D 
I just never wanna hold you tight


[Chorus]
 Bm D         
Goodness gracious I can't seem to stop  
             G 
Calling you up (calling you up)
 F#m 
Just to keep crawling to your arms
 Bm D         
Goodness gracious I can't seem to stop  
             G 
Calling you up (calling you up)
 F#m 
Just to keep crawling to your arms


[2nd verse]
 D A G 
I found the weakness and put it to play
 D Bm F#m G D 
Swore upon the stars I'd keep you till the night was day
 D A G 
Shake my head dizzy so I'll never know
 D Bm F#m G D                
You said if you're never coming back you have to go

 D A 
I keep calling your name
 D 
I keep calling your name
 D A 
I wanna hold you close
 D 
But I never wanna feel ashamed
 D A 
So I keep calling at night
 D 
I keep calling at night
 D A      
I wanna hold you close
 D 
I just never wanna hold you tight


[Chorus]
 Bm D         
Goodness gracious I can't seem to stop  
             G 
Calling you up (calling you up)
 F#m 
Just to keep crawling to your arms
 Bm D         
Goodness gracious I can't seem to stop  
             G 
Calling you up (calling you up)
 F#m 
Just to keep crawling to your arms


[Bridge]
 Em G 
Oh my goodness here I go again
             Bm 
Pulling you back to me
             D Em 
Pulling you back into my arms so selfishly
         G  
I don't think I understand
               Bm 
Cause I don't really know myself
 D 
I keep calling you up
             Em    
Calling you uuuup
             Bm 
Calling you up
             D 
Calling you up
             Em  
Calling you up


[Chorus]
 Bm D         
Goodness gracious I can't seem to stop  
             G 
Calling you up (calling you up)
 F#m 
Just to keep crawling to your arms
 Bm D         
Goodness gracious I can't seem to stop  
             G 
Calling you up (calling you up)
 F#m D 
Just to keep crawling to your arms

12 Through 15 Tabs by Mayday Parade

 Capo 1st Fret.

Lead Guitar =
Intro =

E|-----------------------------------------------------------|
B|-8h9-8------------------8h9-8----------8h9-8------13~---9~-|
G|-------10-8-10~-8~-10~--------10-8-----------10-8----------|
D|-----------------------------------10~---------------------|
A|-----------------------------------------------------------|
E|-----------------------------------------------------------|

E|----------------|
B|-8h9-8----------|
G|-------10-8-----|
D|------------10~-|
A|----------------|
E|----------------|

Verse = 

E|-----------------------------------------------------------|
B|-13~--------------9~---------------------------------------|
G|--------------------------------------------10*10*10*10*10*|
D|-----------------------------------------------------------|
A|-----------------------------------------------------------|
E|-----------------------------------------------------------|

E|-----------------------------------------------------------|
B|-----------------------------------------------------------|
G|10*10*10*10*10*10*10*10*10*10*6*6*6*6*6*6*6*6*5*5*5*5*5*5*5|
D|-----------------------------------------------------------|
A|-----------------------------------------------------------|
E|-----------------------------------------------------------|

E|-----------------------------------------------------------|
B|-----------------------------------------------------------|
G|*5*10*10*10*10*10*10*10*10*10*10*10*10*10*10*10*6*6*6*6*6*6|
D|-----------------------------------------------------------|
A|-----------------------------------------------------------|
E|-----------------------------------------------------------|

E|------------------------------------|
B|------------------------------------|
G|*6*6*15*15*15*15*15*12*12*12*12*12*-|
D|------------------------------------|
A|------------------------------------|
E|------------------------------------|

Pre Chorus = 

E|--11---11---11---11---11---11---4---4---4---6---6---6-|
B|9----9----9----9----9----9----2---2---2---4---4---4---|
G|------------------------------------------------------|(x2)
D|------------------------------------------------------|
A|------------------------------------------------------|
E|------------------------------------------------------|
Chorus = 

G
We’re taking this easy             
D
Cause darling, that's what dreams are 
Am
made of, This story is probably 
C
made up
D
So why don't you go back to sleep?

E|---------------------------------|
B|-8h9-8---------------------------|
G|-------10-8-10~-8~-10~-----------|
D|-----------------------11-11-10b-|
A|---------------------------------|
E|---------------------------------|
Verse 2 = 
E|-----------------------------|
B|-13~--------------9~---------|
G|-----------------------------|
D|-----------------------------|
A|-----------------------------|
E|-----------------------------|

Return To Pre Chorus

Chorus = 

G
We’re taking this easy             
D
Cause darling, that's what dreams are 
Am
made of, This story is probably 
C
made up
D
So why don't you go back to sleep?
G                                                     D
(Just like you never could) why don't you dream about me?
Am
(Just like you always should) 'cause I'm the reason you're alone now
C
Quit blaming everything on your hometown
D
Why would you say that?

Bridge = 

E|-----------------------------------------------------------|
B|-----------------------------------------------------------|
G(10*(x22)-10~)10*10*10*10*6*6*6*6*8*8*8*8*8*8*8*8*8*8*5*5*5*|
D|-----------------------------------------------------------|
A|-----------------------------------------------------------|
E|-----------------------------------------------------------|

E|--------------------------|
B|--------------------------|
G|5*5*5*5*5*6*6*6*6*6*6*6*6*|(x4)
D|--------------------------|
A|-----

Mahal Na Mahal chords – Sam Concepcion V3

 song: MAHAL NA MAHAL
artist: SAM CONCEPTION
                                               
TAB BY:KENNETH DATOY
AGE:13
LIVE IN:BLK.48 LOT 25,BRGY. NUIGAN,CABUYAO CITY,LAGUNA
ADD ME ON FACEBOOK:https://www.facebook.com/KENNETHNICOLE26
https://twitter.com/KEnnETHDATOY
cellphone number:o9o64225340

this my chord version of MAHAL NA MAHAL BY SAM ! :) I KNOW THAT YOU REALLY LIKE 
THIS SONG! ! ! !!!!!!! PLS RATE !! _ _ _ - - - - -_- _- _ _- 

MY PLUCKING VERSION SOON !!!!!!!!!!!!!! (-_-)


CAPO ON FIRST FRET

CHORDS USE:

      G Bm C Cm Am D Am7 Bm7 Em7 Em 
E[---3---3--2---3---0--3---0---2--0----2----3----0----]
B[---3---3--3---5---1--4---1---3--1----3----3----0----]
G[---4OR-0--4---5OR-0--5---2---2--0----2----0----0----]
D[---5---0--4---5---2--5---2---0--2----4----0----2----]
A[---5---2--2---3---3--3---0---0--0----2----2----2----]
E[---3---3--2---3---0--3---0---0--0----2----0----0----]


  G Bm 
Kung may taong dapat na mahalin
      C Cm 
Ay walang iba kung 'di ikaw
  Am C D 
Wala 'di bang makakapigil pa sa akin
                        

VERSE 2:

   G Bm 

Binuhay mong muli ang takbo
              C Cm 
At tibok ng puso sa'yong pagmamahal
    Am C 
Ang buhay ko'y muling nag-iba
       D 
Napuno ng saya (Napuno ng saya)
     Am7 Bm7 
Sa Lahat 'di maari, 'di maaring iwan
      Am7 Bm7 
Wala ng makakapigil kahit na bagyo man
        Am7 Bm7 
Paano kung ikaw na mismo kusang lilisan?
   C - Cm 
Paano ba?

CHORUS:
  G 
Kung mawalay ka sa buhay ko
  Bm 
Kung pag-ibig mo'y maglaho
    C Cm 
Paano na kaya ang mundo?
  G 
Kung sa oras 'di ka makita
  Bm 
Kung ika'y napakalayo na
  C Cm 
May buhay pa kaya 'tong puso?
  Am C Em7 
'Yan lang ang maaari natin, sadyang matatanggap
    D Em             
Habang ako'y may buhay
  Am        
Mahal na Mahal kita
  C 
Higit pa sa iniisip mo

 G - Bm - C - Cm 

(Repeat VERSE 2 and CHORUS CHORDS)

Bridge:
 G 
Mahal na Mahal kita
 Bm 
Mahal na Mahal kita
 C 
Mahal na Mahal kita
 Cm 
Higit pa sa iniisip mo
 G 
Mahal na Mahal kita
 Bm 
Mahal na Mahal kita
 C 
Mahal na Mahal kita
 Cm                    
Higit pa sa iniisip mo

(Repeat CHORUS CHORDS)

OUTRO:  G - Bm - C - Cm  
  
   end with MILD STRUM OF G !!!!!!!!! PLS RATE !  <add facebook="" me="" on=""> ! <follow me="" on="" twitter=""> !!!!!!!!</follow></add>

Execute Me chords – Medina

 Capo on 4th fret

    Am  /  Fmaj9  /   C   /   E7 
E-----|-------|-----|-----|
B--1--|---1---|--1--|-----|
G-----|-------|-----|--1--|
D--2--|---3---|-----|-----|
A--2--|-------|--3--|--2--|
E-----|-------|-----|-----|

My body is dissolving
I can taste it in my mouth
the door is revolving
I cant find my way out
It feels like you killed me
My lungs are airing out
I don't need you to tell me
That it's over now

Yes I feel the pain
I know it might suprise you
That I feel this way
Can you see it in my eyes too
when the beds are burned
And the tables turned
There's nothing left for you
To do but, you to do but

Execute me
For you I'll take a bow
Execute me now
Execute me, execute me
Execute me now
Come a little closer now
I'm ready to take a bow
Execute me, execute me, execute me now
now now now now
now now now now
now now now now

I'm six feet under
I dream of sunny skies
But rain and thunder
Keeps messing with my mind
Yes I feel the pain
Cause I can't survive you
I'm not so insane
I'm as hard as memorised you

When the beds are burned
And the tables turned
There's nothing left for you
To do but, you to do but

Execute me
For you I'll take bow
Execute me now
Execute me, execute me
Execute me now
Come a little closer now
I'm ready to take a bow
Execute me, execute me, execute me now
now now now now
now now now now
now now now now

Let me be
Let my senses bleed
There's nothing left to me
So go on
Let me be
Let my senses bleed
There's nothing left of me
So go on [2x]

Execute me
For you I'll take a bow
Execute me now
Execute me, execute me
Execute me now
Come a little closer now
I'm ready to take a bow
Execute me, execute me, execute me now
now now now now
now now now now
now now now now

Pray chords – Kendall Payne

 Pray~Kendall Payne

Capo on 4th fret

        
I will ( C ) pray for you ( D ) now, for you have ( G ) been my faithful ( Em ) friends
         
While the ( C ) road we walk is ( D ) difficult ( G ) indeed
     
I could ( C ) not ask for ( D ) more than what you've ( G ) already ( Em ) been 
       
Only ( C ) that you would ( D ) say these prayers for ( Em ) me
 
           
May your ( C ) heart break ( D ) enough that ( G ) compassion enters ( Em ) in 
                
May your ( C ) strength all be ( D ) spent upon the ( G ) weak
         
All the ( C ) castles and ( D ) crowns you build and ( G ) place upon your ( Em ) head
                  
May they all ( C ) fall, come crashing ( D ) down around your ( G ) feet
               
May you ( C ) find every ( D ) step to be ( G ) harder than the ( Em ) last
                                                           
So your ( C ) character grows ( D ) greater each ( G ) stride
                
May your ( C ) company ( D ) be of humble ( G ) insignificance ( Em )
 
May your ( C ) weakness be your ( D ) only source of (G or Em) pride 
        
             
What you ( C ) do unto ( G ) others may it ( D ) all be done to ( Em ) you 
              
May you ( Am ) meet the One who ( D ) made us
                                               
And see Him ( Em ) smile when life is ( D ) through 

                  
May your ( C ) blessings be ( G ) many but not ( D ) what you hoped they'd ( Em ) be
                       
And when you ( Am ) look upon the ( D ) broken
                 
May mercy show ( Em ) you what you could not ( D ) see

              
May you ( C ) never be ( D ) sure of any ( G ) plans you ( Em ) desire
                  
But you'd ( C ) learn to trust the ( D ) plan He has for ( G ) you
                  
May your ( C ) passions be ( D ) tried and tested ( G ) in the holy ( Em ) fire
          
May you ( C ) fight with all your ( D ) life for what is (G or Em) true 
          
           
I have ( C ) prayed for you ( D ) now all my ( G ) dear and faithful ( Em ) friends 
                  
But what I ( C ) wish is more than ( D ) I could ever ( G ) speak
            
As the ( C ) way wanders ( D ) on I'll long to ( G ) see you once ( Em ) again
        
Until ( C ) then, would you ( D ) say these prayers for ( Em ) me?
        
Oh, ( C ) that you would ( D ) pray for ( G ) me

86 Tvs chords – I Am Kloot

 From Kloot's Natural History album

The main things to take note of are the change from A to Ab,
which, though very quick, are just a one-fret slide in the same position
I've indicated the open A chord as A(2) - it's how John Bramwell 
plays it and it's an easier set of moves as well as sounding 'right'!


Standard tuning, Capo 4


Chords
======

 C#sus2   x46644
 Amaj9    x06600
 Ab       466544
 Abm      466444
 E        022100
 A        577655
 A     x02220
 Asus2    x02200

                          
Intro
=====

 C#sus2 Amaj9 Ab A Ab 


Verse 1
=======

 C#sus2 Amaj9 Ab A Ab 
       Feel so straight look so slow
 C#sus2 Amaj9 Ab A Ab 
       Just you wait 'til I get you home
 Abm Asus 
    I saw you laughing on a TV show
                    E A 
Didn't think you'd know all colours lead to black
                   E A Ab 
Say you can't let go and then you're never coming back


Verse 2
=======

 C#sus2 Amaj9 Ab A Ab 
       Watch your-self when you talk to me
 C#sus2 Amaj9 Ab A Ab 
       Cos I've got you and 86 T V's
 Abm Asus2 
    And all those words that they made up for me
                           E A 
And what I thought they'd be the radios are red
                E A Ab 
Made a mess of me so I'm walking home in-stead



Verse 3
=======

 C#sus2 Amaj9 Ab A Ab 
       Sweet like apples I pulled you
 C#sus2 Amaj9 Ab A Ab 
       Reminds me of the things we said we'd do
 Abm Asus2 
    Now all those words that they made up for you
                      E A 
Could never pull you through the greed and all the gain 
                     E A 
They made a mess of you now we'll never be the same


End
===

 Abm Asus2 
    I'd love to say I'd like to thank them all
                    E A 
But I have not the gall the wisdom or the guile
                     E A 
We walked into that ball and then we disappeared in style
         E A 
On 86 T V's on 86 T V's
         E A Ab 
On 86 T V's on 86 T V's
 C#sus2 Amaj9 Ab A Ab C#sus2 
      You watch your-self when you talk to me 




-----------------------------------------

I hope I've done it justice!

Kevin O'Brien
Watford
England
March 2014

watfordkev@gmailcom

Dear Boy solo Tabs by Avicii

 -------------------------------------------------------------------------------
                            Dear Boy - Avicii
-------------------------------------------------------------------------------
: Roy Ram
 royram2116

Tuning: Standard
Capo: 11 fret

Solo I
E|-------------------------------------------3-1---------------------------------------|
B|-----------1-3-1-------------------------1-------------------------------------------|
G|---3-0-3---------3-0-3------------3-0-3----------------------------------------------|
D|-----------------------3-------------------------------------------------------------|
A|-------------------------------------------------------------------------------------|
E|-------------------------------------------------------------------------------------|


E|-------------------------------------------------------------------------------------|
B|-----------1-3-1-------------------------1-3-----------------------------------------|
G|---3-0-3---------3-0-3------------3-0-3------3---------------------------------------|
D|-----------------------3-------------------------------------------------------------|
A|-------------------------------------------------------------------------------------|
E|-------------------------------------------------------------------------------------|

Solo II


E|----------3-3-1-3------------------3-3-2-3-------------------------------------------|
B|------------------1-1-----------------------1-1--------------------------------------|
G|-----3-0--------------3-------3-0---------------3------------------------------------|
D|-------------------------------------------------------------------------------------|
A|-------------------------------------------------------------------------------------|
E|-------------------------------------------------------------------------------------|


E|----------3-3-1-3------------------3-3-2-3-------------------------------------------|
B|------------------1-1----------------------------------------------------------------|
G|-----3-0--------------3-------3-0----------------------------------------------------|
D|-------------------------------------------------------------------------------------|
A|-------------------------------------------------------------------------------------|
E|-------------------------------------------------------------------------------------|

Rate it up for more :)

All I Ever Wanted chords – Brian Melo V6

 Brian Melo - All I Ever Wanted
Tuning: Standard (E A D G B E)
Key: C# major (C# D# E# F# G# A# B# C#) with A capo on the first fret, 
 C  major (C  D E F G A B  C) without
Tempo: 169 bpm
 Robert from Astlessons
Link to my tutorial on YouTube: http://youtu.be/UZSXXbpuBZk

No disrespect intended towards previous uploaders, there has been some good transcriptions, 
but there is a few chords/details that I felt needed clarification in a new version. But not 
that it matters too much of course, just play the one you think sounds best:D



[Intro]:  C Cmaj7 F C Cmaj7 F C Cmaj7 F C Cmaj7 F 
Slow down, make it last, I'm having the time of my life
      C Cmaj7 F Dm F 
And take a photograph, I don't wanna leave this behind
       C Cmaj7 F C Cmaj7 F 
What seems so out of reach, we're holding it right in our hands
        C Cmaj7 F Dm F 
Let's give up everything, let's jump in and never look back
        Dm F G 
Let's jump in and never look back

         F C G F C G      (A5 G5)
This is all I ever wanted, but life got in my way
        F C G Am F C G 
You're all I ever wanted, I didn't see how it could change
       F C G F 
That something was missing until today

      C Cmaj7 F C Cmaj7 F 
The city comes alive, as soon as you walk through the door
   C Cmaj7 F Dm F 
Another sleepless night, but I don't wanna sleep anymore
    Dm F G 
I don't wanna sleep anymore

         F C G F C G      (A5 G5)
This is all I ever wanted, but life got in my way
        F C G Am F C G 
You're all I ever wanted, I didn't see how it could change
       F C G Am 
That something was missing until today

(Am)          F C G Am 
Climbing so high, just don't look down, we can see everything from here
                 F C G F 
For once in my life, feet off the ground, don't wanna come back down

     C Cmaj7 F C Cmaj7 F 
So take a photograph, we're having the time of our lives

          C G F C G      (A5 G5)
This is all I ever wanted, but life got in my way
        F C G Am F C G 
You're all I ever wanted, I didn't see how it could change
         F C G F C G   (A5 G5)
This is all I ever wanted, nothing will get in the way
        F C G Am F C G 
You're all I ever wanted, I knew it, somehow it could change
            F C G F 
I d

False Echoes Havana 1921 chords – Jimmy Buffett

 False Echoes (Havana 1921)
Artist:  Jimmy Buffett
From:  Banana Wind (1996)

Tab help from CowboyLyrics.com

key of Eb (Capo on Fret 1)

INTRO:

( D )The skies over ( G )Cuba( D ), turned ( A )pink with the ( D )light

And the waterfront ( Bm )ritual, began to ( A )ignite.

All the ships in the ( G )harbour( D ), were ( A )warmed by the ( D )sun

Twenty fifth of ( Bm )November, ( A )Nineteen Twenty-( D )one. ( G ) ( D )


On the old Chicka( G )mouga( D ), the ( A )signal jacks ( D )flew

And the message they ( Bm )spelled out, caused a great bally( A )hoo

Every ship in ( G )Havana( D ), then ( A )hoisted ( D )away

All the pennants were ( Bm )flyin', ( A )on my Dad's first ( D )birthday


CHORUS:

( A )Enduring echoes call ( D )out from his past,

( A )Time ain't for savin', no ( D )time's not for that.

( Bm )Chasin' false ( F#m )echoes like  A  ( G )lost legionnaire( A ),

He ( G )waltzes on ( Bm )memories while he ( A )fades like ( D )flare ( G ) ( D )


Verse 2

Now his storybook ( G )childhood( D ), was ( A )not make ( D )believe

On the decks of a ( Bm )tall ship, he was taught to ( A )achieve.

Witnessed storms and ( G )starvation( D ), Natural ( A )wonders and ( D )Force

Oh the life of  A  ( Bm )sailor, ( A )steers  A  wandering ( D )course ( G ) ( D )


REPEAT CHORUS:

( A )Enduring echoes call ( D )out from his past,

( A )Time ain't for savin', no ( D )time's not for that.

( Bm )Chasin' false ( F#m )echoes like  A  ( G )lost legionnaire( A ),

He ( G )waltzes on ( Bm )memories while he ( A )fades like ( D )flare ( G ) ( D )


Verse 3

Well now life throws us ( G )curve ( D )balls, We ( A )never can ( D )reach

He gave up the ( Bm )ocean, but he lived by the ( A )beach.

Where he raised up his ( G )family( D ), taught ( A )us all to ( D )survive

Then the wind went ( Bm )away in ( A )Nineteen Ninety-( D )Five ( G ) ( D )


INSTRUMENTAL:
( A ) ( D )
( A ) ( D )
( Bm ) ( F#m ) ( G )  ( A )
( G )  ( Bm ) ( A ) ( D ) ( G ) ( D )

Verse 4

Now the old Chicka( G )mauga( D ), has ( A )slipped by the ( D )ways

She lies on the ( Bm )bottom of old Mobile ( A )Bay

Where the ghosts of his ( G )father( D ) and his ( A )brother are ( D )near

They protect him and ( Bm )tell him, ( A )There's nothing to ( D )fear ( G ) ( D )

Cause it's family ( G )tradition( D ), We ( A<

Daydream Tabs by Smashing Pumpkins V4

 Smashing Pumpkins - Daydream
 FUDGEcenter

Tuning: E A D F# B D CAPO on 2nd fret




  My daydream seems
D |-0--0--0--0-|
B |-0--0--0--5-|
F#|-5--5--5--5-|
D |-0--0--4--0-|
A |-4--6--0--4-|
E |----------5-|


  as one inside of you
D |-0--0--0----|
B |-0--0--5----|
F#|-5--5--5----|
D |-0--0--0----|
A |-4--0--4----|
E |-0--4--5----|

That's pretty much it.. just listen to the song.

  @1:26 (Billy Plays this live)
D |-0--0--0-----------|
B |-5--4--0---0--0----|
F#|-----------5--3----|
D |--------------0----|
A |-------------------|
E |-------------------|

Patapan chords – Mindy Gledhill

 Capo on 2nd fret


 Am         0-0-2-2-1-0

Amsus     0-0-2-2-3-0

 E7         0-2-0-1-0-0

 Dm         0-0-0-2-3-1

 E          0-2-2-1-0-0

 G          3-2-0-0-3-3



Intro:

Am Amsus (listen to the song for when to change between the two)



         Am 
Willie, bring your little drum
                            E7 
Robin, bring your fife and come
                        Am 
And be merry while you play

Tu-re-lu-re-lu
             E 
Pata-pata-pan
                         Am 
Come be merry while you play
         Dm Am E7 Am 
For the joy of Christmas day


 Am  Amsus


          Am      
When the men of olden days
                           E7 
To the King of Kings gave praise
                          Am 
On the fife and drum did play

Tu-re-lu-re-lu
             E 
Pata-pata-pan
                          Am 
On the fife and drum did play
         Dm Am E7 Am 
For the joy of Christmas day


 Am  Amsus


    G Am  
Rejoice! Rejoice!
    Dm G Am  
Emma------nuel
       Am Dm E Am  ( Am  Amsus)
Shall come to thee, O I----srael
    G Am 
Rejoice! Rejoice!
   Dm G Am 
Emma------nuel
       Am Dm E Am 
Shall come to thee, O I----srael


 Am  Amsus


         Am           
God and man today become
                            E7 
More in tune than fife and drum
                       Am 
So be merry while you play

Tu-re-lu-re-lu
             E 
Pata-pata-pan
                       Am 
So be merry while you play
          Dm Am E7 Am 
Sing and dance this Christmas day!


 Am  Amsus


   Am Dm G Am 
O come, O come, Emma-----nuel

Tu-re-lu-re-lu
             E 
Pata-pata-pan
                        Am 
And be merry while you play
       Am Dm E Am  ( Am  Amsus)
Shall come to thee, O I----srael 
       Am Dm E Am  ( Am  Amsus)
Shall come to thee, O I----srael
       Am Dm Am 
Shall come to thee, O Israel

Sellout Song chords – Wingnut Dishwashers Union

 This is from "Towards A World Without Dishwashers." I know this tab is pretty 
technical for a WDU song, so if you don't like the way I tabbed it out play it 
however you'd like. :)

Intro chords are all barre chords.
  
   3      3      1     8
   5      3      1    10
 C 5    G 4    F 2  F*10     F* is just F but played in a higher position
   5      5      3    10
   3      5      3     8
   x      3      1     x

Intro:  C G C F C G F *  F *

Verse chords:

   0      3      5     1
   1      3      6     1
 C 0    G 4   Dm 7   F 2   (These are the chords he plays for the first two 
   2      5      7     3    measures of each verse. He mutes the C and G.)
   3      5      5     3
   x      3      x     1

The next two measures he plays C G Dm F open chords and F is played barred on the first fret. 

Theres one part near the end that is C G F F


  C G Dm F 
Well one of these days you know I'm gonna get my ass kicked.

  C G Dm F 
But I'm not gonna try and promise you that I'm not gonna deserve it.

              C G Dm F 
But your boyfriend is still the worst house guest I think that I've ever met.

        C G Dm       
And I hope that one day you'll wake up and you'll realize that you can't put 

         F 
up with it.

Intro:  C G C F C G F *  F *

 C G Dm F 
Well one of these days, maybe I'll just sit and give this all up.

          C G Dm 
And I'll say that all you yuppies can have this fuckin' world If you love it 

     F 
so much.

          C G Dm F 
But the things that we can't help but believe in make us who we are.

     C G Dm F 
And I just can't believe that could mean their condos and their sports cars.

 

  C G F C G F 
Well, when its gets had to breathe sometimes I slip to apathy,

        C G Dm F 
but I don't got any excuses not to learn what words like home and freedom mean. 

Intro again (end on barre chord C 8th fret.)

Best Song Ever Tabs by Gabrielle Aplin

 Best Song Ever - Gabrielle Aplin
A cover of the One Direction song from BBC Radio 1 Live Lounge.

: daferet33
Email Address: wferris33@hotmail.com  


Should be played in standard tuning with a capo on the second fret. All chords and 
notes here are relative to this capo. (Without the capo the main chords are D, A, and G)


Intro

e|------------------------------------------------|
B|------------1-----------1-----------1-----------|
G|----0---0-------0---0-------0---0-------0---0---|
D|----2-----2-----2-----2-----2-----2-----2-----2-| X2 
A|--3---3-------3---3-------3---3-------3---3-----|
E|------------------------------------------------|
 
Verse

e|------------------------------------------------|
B|------------1----------------------1------------|
G|----0---0-------0---0------0---0-------0---0----|
D|----2-----2-----2-----2----0-----0-----0-----0--| X4
A|--3---3-------3---3-----------------------------|
E|-------------------------3---3-------3---3------|

Pre-Chorus

e|------------------------------------------------|
B|------------1----------------------0------------|
G|----2---2-------2---2------0---0-------0---0----|
D|----3-----3-----3-----3----0-----0-----0-----0--| X2
A|------------------------------------------------|
E|--1---1-------1---1------3---3-------3---3------|

Chorus

e|------------------------------------------------|
B|------------------------------------0-----------|
G|----2---2---2---0---0---0---0---0-------0---0---|
D|----3-----3-----2-----2-----0-----0-----0-----0-| X3
A|--------------3---3-----------------------------|
E|--1---1-------------------3---3-------3---3-----|


e|----------------------------------------------------------------------|
B|------------------------------------0---------------------------------|
G|----2---2---2---0---0---0---0---0-------0---0-----0---0-----0---0-----|
D|----3-----3-----2-----2-----0-----0-----0-----0---0-----0---0-----0---|
A|--------------3---3---------------------------------------------------|
E|--1---1-------------------3---3-------3---3-----3---3-----3---3-----3-|


Then -
(With backing chords played on a Second guitar of C, G, and F):

Verse

Pre-Chorus

Chorus

Bridge - 
Strummed Chords alternating between C and F, and then ending on G. X2

Outro - 
Chorus repeated until the end.   


Hope you enjoy it! Comments and suggestions are always welcome!

Automobile chords – Kaleo

 (Played with capo on the 2nd fret)




 G D 
Imagine myself in an automobile

   C C/B C/A C/F# G 
a hundred miles an hour, only me at the wheel.

 G D 
I want it to shine, to be only mine

    C C/B C/A C/F# G    
the engine has to be only one of a kind.


 Em C G 
How many dollars do I need sir?

 Em C G 
You know I sure don't have a lot

 Em C G 
There must be something we can work out

 Am7 D 
Well, I'll take it anyway


                      G D 
I guess I could make room for one, a bottle of rum

 C C/B C/A C/F# G 
You and me together riding into the sun

 G D 
Live without care, with the wind in my hair

 C C/B C/A C/F# G     
Driving through the desert, yeah I'll go anywhere

                   C G B Em 
Take me where the wheels take me, far away

 C G B Em 
Wheels take me, I can't stay

 C G B Am7 D 
Wheels take, anyplace today


 G D 
Imagine myself in an automobile

   C C/B C/A C/F# G 
a hundred miles an hour if you know how I feel.

 G D 
Alone with my mind, leave my worries behind

        C C/B C/A C/F# G 
I might even reach the border, it's just a matter of time


 Em     -    C   -   G 
(SOLO)
 Em     -    C   -   G 
(SOLO)
 Em     -    C   -   G   -   Am7   -   D 
(SOLO)


                          C G B Em 
I said take me where the wheels take me, far away.

 C G B Em 
Wheels take me, I can't stay.

 C G B Em 
Wheels take me, anyplace today.

                  C G B Em 
Ohh I'm going to San Diego, here I come.

        C G B Em 
San Fransisco, it won't be long.

     C G B Em Am7 
Sacramento, yeah in the sun. I just might go


  D C G B Em 
I said I'm going to San Diego and San Jose

         C G B Em 
San Fransisco and hang by the bay

      C G B Em Am7 
Sacramento, yeah by the way I just might go

 D G      
all the way to Mexico

 D C C/B C/A C/F# G 
I just might go all the way down to Mexico.

 G  -  D  -  C  -  C/B  -  C/A  -  C/F#  -  G C   -   G   -   B   -   Em 
(Whistle)
 C   -   G   -   B   -   Em 
(Whistle)
 C   -   G   -   B   -   Em   -   Am7</span

Igorota chords – Jun Utleg

 Title: Igorota
By: Jun Utleg
: ALLAN KARL L. BASCO
date: 03/04/2014


CAPO 2ND FRET

GUITAR INTRO *Walang akong flute pero heto flute : D C E G E 

1e------------0-//--------------//----------0---//--------------//----------0---//---------------|
2B--------3-----//--------1-3---//--------3-----//-------0-3----//--------3-----//--------1------|
3G------0-------//------0-------//------2-------//-----0--------//------0-------//------0--------|
4D----2---------//----0---------//----3---------//---0----------//----2---------//----2----------|
5A--3-------3---//--------------//--3-----------//--------------//--3-----------//--3------------|
6E--------------//--3-----------//--------------//--3-----------//--------------//---------------|

VERSE 1:

      C G 
On a soft green playground by the river bend
          F G C 
She was sitting there to meet the morning sun
 F G C 
She was playing a flute when the songbirds broke out


      C G 
As they listened to her wonderful melody
     F G C 
And I was filled with every note shes playing
 F G C 
Then I Slowly sat     by her side

Refrain:

 F C 
Igorota, girl of my dreams
 G C 
Youre the most precious gift that I ever had
 F C 
Igorota, queen of my heart
 G 
Ill keep on loving you
 G C 
Throughout my life

SAME AS INTRO

VERSE 2:
 C G 
You are my day, my morning sun
 F G C 
Youll forever be my only one
 F G C 
She puts the flute then sweetly she smiles
 C G               
And she asks me, Why are you staring at me?
 F G C 
I held her close and a songbird sang
 F G C 
I whispered to her,     I love you.

REFRAIN

OUTRO

Ganito ko play. pakirevise nlng kng gusto nyo revise.

Violet Hour chords – The Clientele

 Intro on  B B7sus4 
terraces that climb like vines towards the moon the five a sides

                                                                       
the evening inter-city lights I see your face each time I close my eyes


 B7sus4 E B7 *
Jude I told you yesterday that I know nothing all my friends are loaded & they smile

 B7sus4 E B7 *
picking up the pieces from a bleary night away exhaust fumes, magnolias & light



 E **                                                            B7sus4 
Helen in the art-class light yes I guess that if I stay, I'll stay all night

 E **                                                                     B7sus4 
And I know that you're not afraid but every time I close my eyes I see your face



 B7sus4 E B7 *
Walking down to Springfield Park uneasy in the haze uneasy in the sunlight & the quiet

 B7sus4 E B7 *
Living life without love in your mother's waiting room minute here by minute it's like dying



 E **                                                             B7sus4 
Terraces that climb like vines towards a moon that hangs above another night

 E **                                                                 B7sus4 
Streets so filled with echoing you're so tired that you believe in everything



 B7sus4 E B7 *
So that summer came & went & I became cold yeah I became cold yeah I became cold

 B7sus4 E B7 *
So that summer came & went & I became cold yeah I became cold yeah I became cold 



Solo on B


 B7sus4 E7 ***          C#7sus4 E B7sus4 E7 ***   C#7sus4 E 
So that summer came & went & I became cold yeah I became cold yeah I became cold 

 B7sus4 E7 ***           C#7sus4 E B7sus4 E7 ***   C#7sus4 E 
So that summer came & went & I became cold yeah I became cold yeah I became cold 




*(pick the fifth of b string and pull off)
**(pick the forth of e string and pull off)
***(from the 7th fret)

Bad Diary Days chords – Pedro The Lion

 Bad Diary Days CHORDS
by Pedro the Lion

Standard Tuning

Kind of an acoustic take on this track, obviously sounds plenty different from the
actual song.

I've tabbed it out to mimic the same melody as in the the actual song, the strumming
will have to be a bit different and seeing as I don't know the names of all the variations
of chords i'll just give the main chord and give you the formation as how I play it with 
the song, you can obviously mess around with what i've given- hope this is concise as
possible and sorry for not knowing the names of chords haha if it's confusing feel free 
to message me and I can show you how i play it.

CAPO on the SECOND FRET

Intro:
 Am G F C C F G 

So for the above:
C chords I play a normal C then at the end of it I mute the "e" string and play the
third fret on the "b" string
F chord I play the "e" string open, then the first fret "e" string
You can play this with the verse as well, but below, the F* I play like so: open "e"
string, then mute the "e" string and play the 3rd fret "b", then the 1st fret "b" while
still muting the "e"

 C C 
we barely ever fight
                  F G 
she knows that i love her
 C C 
at first we made it every night
                    F *
but i don't want to bug her about it
 Dm Am 
she just has a funny way
    G 
of loving me

 C C F G C C 
pair of ticket stubs in the desk
              F G 
a movie i've never seen
 C C 
i probably shouldn't ask
              F *
it sounds so accusing
 Dm Am 
she must have forgot to mention
 G 
girl's night out

 C C/B Am G 

So for the above:
C chord- I mute the "e" string and play 1st fret "b", then 3rd fret "b", then play a
regular C chord
C/B chord- I mute the "e" string and play third fret "b", then 1st fret "b" then open
"b" string
Am- I play normal
G- I mute the "e" string and play the "b" string open


 C C F G C C 
the breakfast cereal talked
             F G 
more than we did all day long
   C C 
i asked her for a walk
                  F G 
but she had to be on her way
 Dm Am 
so i told her that i knew
            G 
she'd been stepping out


 C C/B Am G 
she swore that she could explain
     C C/B Am G 
she swore that it would not happen again
 C C/B Am G 
she swore that she could explain
 C C/B Am 
we both knew her words were in vain

So it keeps on going as: C   C/B    Am    G
How I play it with the chords is as so:
C chord- 3rd fret "e" to 1st fret "e" to normal C chord
C/B chord- mute "e" string and play 3rd fret "b", then normal C/B chord still muting the
"e" string, then playing the "b" string open still muting the "e" string
Am chord is normal
G chord is normal.

FIN

Over chords – Lindsay Lohan V6

 TITLE: OVER
ARTIST: LINDSAY LOHAN
NOTES: So, I did most of this by ear, but I usually tend to 
sing that same pitch as she does. A lot of people want the capo 
to low, but if you want to sing it like Lindsay I recommend to 
use the Capo on 4. It's less confusing, but I'm not 100% about 
this tab. This is just how I sing it, and I had to edit several 
tabs to figure out the correct thing.

[CAPO:] 4th Fret

[INTRO:]   Am  -  Em  (2x)

[VERSE 1:]
 Am Em 
I watched the walls around me crumble
 Am Em 
But its not like I won't build them up again
 Am Em 
So here your last chance for redemption
 Am Em 
So take it while it lasts 'cause it will end
 Dm Am 
And my tears are turning into time 
                            Dm 
I've wasted trying to find a reason for 
 G 
goodbye

[CHORUS:]
 C 
I cant live without you
                           G               
Can't breathe without you I dream about you honestly
 Am G 
Tell me that it's over
 Am                                  
Because if the world is spinning and I'm still living
 G Am                
It wont be right if were not in it together
 G Am 
Tell me that it's over
 G Am 
And ill be the first to go
 G Am 
Don't want to be the last to know

[VERSE 2:]
 Am Em 
Don't want to be the one to chase you
 Am Em 
But at the same time your the hart that I call home
 Am Em 
I'm always stuck with these emotions
 Am Em 
And the more I try to feel the less I'm whole
 Dm Am        
My tears are turning into time
                           Dm               
I've wasted trying to find a reason for
 G 
Goodbye

[CHORUS:]
 C 
I cant live without you
                           G               
Can't breathe without you I dream about you honestly
 Am G 
Tell me that it's over
 Am                                  
Because if the world is spinning and I'm still living
 G Am                
It wont be right if were not in it together
 G Am 
Tell me that it's over
 G Am 
And ill be the first to go
 G Am 
Yeah, I'll be the first to go
 G Am 
Don't want to be the last to know.
 G ,     G G 
Over, Over, Over.

[VERSE 3:]
          Dm Am 
And My tears are turning into time
                            Dm                                             
I've wasted trying to find a reason for 
 G 
Goodbye

[CHORUS:]
 C 
I cant live without you
                           G               
Can't breathe without you I dream about you honestly
 Am G 
Tell me that it's over
 Am                                  
Because if the world is spinning and I'm still living
 G Am                
It wont be right if were not in it together
 G Am 
Tell me that it's over
 G Em 
Honestly, tell me.
 G Em 
Honestly, tell me.
 Am Em 
Don't tell me that it's over.
 Am Em 
Don't tell me that it's over.