Tag: from

Anastasia – Music From The Motion Picture – Once Upon A December chords by Misc Soundtrack V2

[Intro]

Am E Am E


[Verse 1]

Am      E      A7      Dm
Dancing bears, painted wings
Dm       Am      Dm   E
Things I almost remember
Am    E    A7      Dm
And a song someone sings
Dm     Am     E   Am
Once upon a December


[Chorus 1]

Dm               Am
Someone holds me safe and warm
E                       Am     A7
Horses prance through a silver storm
Dm              Am
Figures dancing gracefully
 B7           E
Across my memory


[Instrumental]

Bbm  F  Bb7  Ebm
Ebm  Bbm  Ebm  F
Bbm  F  Bb7  Ebm
Ebm  Bbm  C7  F
Bbm  F  Bb7  Ebm
Ebm  Bbm  F  Bbm


[Chorus 2]

Ebm              Bbm
Someone holds me safe and warm
F                       Bbm    Bb7
Horses prance through a silver storm
Ebm             Bbm
Figures dancing gracefully
 C7           F
Across my memory


[Verse 2]

Bm   F#   B7    Em
Far away, long ago
Em      Bm        Em  F#
Glowing dim as an ember
Bm        F#    B7      Em
Things my heart used to know
Em        Bm          F#  B7
Things it yearns to remember


[Outro]

Em         Bm      B7
And a song someone sings
Em    Bm      F#  Bm
Once upon a December

Jose Chungs From Outer Space chords – Radiator Hospital

 -------------------------------------------------------------------------------
             Jose Chung's From Outer Space - Radiator Hospital
-------------------------------------------------------------------------------

Tuning: Standard

 B Abm 
I think I'm fallin' in love with you, 
 B Abm F# 
I've been lookin' all over you I've been lookin' for a sign. 
             Abm E F# Abm E F# 
The way you pick on me makes me think that you're in, but are you playin' hard to get? 
        Abm E F# Abm E 
Do you even think about it? I guess that's the problem. 

 B Abm 
I know I'm drivin' you crazy, 
 B Abm F# 
I can't tell if I want you as much as you want me. 
        Abm E F# Abm E F#         
I have felt this way before,   I've been in love I'm not sure I liked it. 
           Abm E F# Abm E B 
It's that feeling you get in the pit of your stomach. I guess that's the problem. 

    B Abm F#                
So tell me you love me, make me feel like everything that I've been dreaming is real. 
   B Abm F# B 
I don't really know if you feel the same, but I've been lookin' at you this way. 
   B Abm F# B 
I might be going crazy, I might be losing my mind, 
     B Abm F# E B 
but I have never felt the way that I do when I look into your eyes. 

                       B Abm E 
I don't want this back. 
                            B Abm E  
Please don't break my heart. 
                     B Abm E 
If you want my love, 
                                      B Abm E 
it's yours, but you must do your part. 

 B Abm 
I know I'm fallin' in love with you, 
 B Abm F# Abm 
I've been lookin' all over you I've been lookin' for a sign.
                  E F# Abm E F# Abm E F#     
And this love is infinite, it is the moon and sun and stars and sky, it's the gleaming in the back of my eye. 
   Abm E B 
I guess that's the problem.

Cant Stop Myself From Loving You chords – Patty Loveless

 G D7 C G E7 
Raindrops fall from the sky teardrops fall from my eyes

 Am D7 G D7 
Can't stop myself from loving you

 G D7 C G E7 
Your heartaches found a home I walk these streets alone

 Am D7 G C G 
Can't stop myself from loving you


 D7 G 
I know I shouldn't waste my time in dreams of yesterday

          A7 D7 
But your memory's all that I have left since you've gone away

 G D7 C G E7 
No matter what I do my heart stays cold and blue

 Am D7 G C G 
Can't stop myself from loving you


 D7 G 
They say that time can heal a lonely heart that's broke in two

 A7 D7 
But time ran out on me the day you walked out of my world

 G D7 C G E7 
So let the teardrops fall the rain will hide them all

 Am D7 G E7 
Can't stop myself from loving you
 
 Am D7 G 
Can't stop myself from loving you

You Cant Run Away From Your Heart chords – Patty Loveless

 Patty Loveless - You Can't Run Away From Your Heart




INTRO:  D 


When you said you love me
 A G F  
I believed it was true
        D 
It was true



And now you say you're leaving
 A G F  
Now you got me needing you
                      D 
You go and say we're through


PRE-CHORUS:
 G Bb 
You say nothing lasts forever, that's so easy
 G Bb 
You can walk away, but you won't be free


CHORUS:
N.C.     D 
You can run every time we touch
         A 
You can run when you feel too much
         Bb G D 
You can lie all alone in the dark

You can run from the one you need
         A 
You can run from the memories
         Bb C D 
But you can't run away from your heart



You said our love was real, baby
 A G F  
More than any love you knew
                D 
It was good to you



But when I held you near me
 A G F  
I could feel all the fear in you
                     D 
Running through and through


PRE-CHORUS:
 G Bb 
You think tears are all that lie in true love's shadow
 G Bb 
There's no place that you can run, our love won't follow


CHORUS:
N.C.     D 
You can run every time we touch
         A 
You can run when you feel too much
         Bb G D 
You can lie all alone in the dark

You can run from the one you need
         A 
You can run from the memories
         Bb C D G Bb G Bb 
But you can't run away from your heart


CHORUS:
N.C.     D 
You can run every time we touch
         A 
You can run when you feel too much
         Bb G D 
You can lie all alone in the dark

You can run from the one you need
         A 
You can run from the memories
         Bb C D G Bb G Bb 
But you can't run away from your heart
         Bb C  
No, you can't run away
N.C.       D 
From your heart

Used Tabs – Rocket From The Crypt Vsion 2

 Such a cool song but I couldn't find a good tab, so here's a closer version.  

Intro and verse:

e-------|---------------------------------|-------------------------------|------------------------------|
b-------|-------3-------------------------|-------3--------------0--------|-------3----------------------|
g-------|------0---0----------0-0---------|------0---0---------0----------|------0--0----------0---------|
d-------|-----0-----2p0------4----4---2p0-|-----0-----2h0-----4----4--2h0-|-----0-----2p0-----4--4---2p0-|
a-------|----2--------------2-------2-----|----2-------------2------2-----|----2-------------2-----2-----|
e-3-3-3-|3-3-------------0-0--------------|-3-3-----------0-0-------------|-3-3-----------0-0------------|
          (rake)         (rake) 
                

e--------------------------3---|
b-----3p1p0---------------3----|
g-------------2p0--------0-----|
d---2-------------------0------|
a-3--------------------2-------|
e-----------2------2-3---------|

Chorus:

These are the chords, just time and strum...

e-0-2-3---0-2-3---0-2-0---2---3--0---0-0-0-0------------------|
b-1-3-3---1-3-3---1-3-0---3---3--1---0-0-0-0------------------|
g-0-2-0---0-2-0---0-2-0---2---0--0---0-0-0-0------------------|
d-2-0-0---2-0-0---2-0-2---0---0--2---2-2-2-2--7-7-7-5-7-9-7-5-|
a-3-0-2---3-0-2---3-0-2-------2--3---2-2-2-2--5-5-5-5-5-5-5-5-|
e---2-3-----2-3-----2-0-------3------0-0-0-0------------------|
                                              (muted)   

Ghost From The Barrow Tabs – Paddy And The Rats

 -------------------------------------------------------------------------------
                             SONG NAME - Band Name
-------------------------------------------------------------------------------
: Malk



Tuning: D G C F A D 

INTRO : 00:02 - 00:49

e|---------------------------------------------------------------------------|
B|----7--9---7h9--9--7-----------7--9---7h9--9--7----------------------------|
G|-8--------------------8--6--8---------------------8------------------------|
D|---------------------------------------------------------------------------|
A|---------------------------------------------------------------------------|
E|---------------------------------------------------------------------------|

e|---------------------------------------------------------------------------|
B|----7--9--7h9--9--7--------------------------------------------------------|
G|-8-------------------8--6\4--4/6-8--6\4--6--4------------------------------|
D|---------------------------------------------------------------------------|
A|---------------------------------------------------------------------------|
E|---------------------------------------------------------------------------|

00:49 - 01:09 

étendonner que c'est compliqué de faire le rythme sur la tab je vous laisse l'écouter et faire par vous même.
it's difficult to make the rhythm with a tab , I let you do it alone.

e|---------------------------------------------------------------------------|
B|-------4-------------------------------------------------------------------|
G|-------4---3---------------------------------------------------------------|
D|---6---4---4---6-----------------------------------------------------------|  x3
A|---6-------4---6-----------------------------------------------------------|
E|---4-----------4-----------------------------------------------------------|

e|---4---4-------------------------------------------------------------------|
B|---5---5-------------------------------------------------------------------|
G|---4---4---3---------------------------------------------------------------| x1
D|-----------4---6-----------------------------------------------------------|
A|-----------4---6-----------------------------------------------------------|
E|---------------4-----------------------------------------------------------|

01:09 - 01:30

e|---------------------------------------------------------------------------|
B|---------------------------------------------------------------------------|
G|---------------------------------------------------------------------------|
D|-------------------x8-x8x8-x8x8-x8x8--x9-x9x9-x9x9-x9x9--------------------|
A|-x6-x6x6-x6x6-x6x6-x6-x6x6-x6x6-x6x6--x7-x7x7-x7x7-x7x7-x6-x6x6-x6x6-x6x6--|
E|-x4-x4x4-x4x4-x4x4--------------------------------------x4-x4x4-x4x4-x4x4--|

e|---------------------------------------------------------------------------|
B|---------------------------------------------------------------------------|
G|---------------------------------------------------------------------------|
D|-x9-x9x9-x9x9-x9x9--------------------x8-x8x8--x4-x4x4---------------------| x2
A|-x7-x7x7-x7x7-x7x7--x9-x9x9-x9x9-x9x9-x6-x6x6--x4-x4x4-x6-x6x6-x6x6-x6x6---|
E|--------------------x7-x7x7-x7x7-x7x7------------------x4-x4x4-x4x4-x4x4---|

pre chorus 01:30 - 01:44

e|--4-------------------------------4----------------------------------------|
B|--5-------------------------------5----------------------------------------|
G|--4--------------3----------------4------3---------------------------------|
D|-----------------4-----------------------4----------------8----------------|
A|-----------------4-----------------------4----------------8----------------|
E|----------------------------------------------------------6----------------|

chorus 01:44 - 01:58
étendonner que c'est compliqué de faire le rythme sur la tab je vous laisse l'écouter et faire par vous même.
it's d

Post Card From Paris chords – Glen Campbell

 Post Card from Paris
Glen Travis Campbell
written by Jimmy Webb
album See You There

Intro  F Bb D# Bb 

Verse 1

       F 
Dear friend of my mine
      Bb 
The Weather's fine
 F 
Today, I saw some ruins
         Bb 
Of the Roman world's decline
        F 
And I climbed all those Spanish stairs
        Bb 
You've heard of them no doubt
     C 
But Rome has lost its glory
         Gm Am Bb D# 
I don't know what it's about

Chorus 1

                 F 
I wish you were here

When the shadows fall
         Bb 
And the rushing traffic's still
            F 
I wish you were here

and the bells are ringing
 Bb 
On the seven hills
 F C 
I make my way to a small cafe
    Gm Am Bb D# 
I wonder what you did today
                  F 
I Wish you were here

Vesre2

 F 
Dear one at home
    Bb 
I just flew in from Rome
     F 
And Paris is a postcard
     Bb 
All decked out in Kodachrome
           F 
And so, I climbed the Eiffel Tower
       Bb    
And I prayed at Notre Dame
       C 
But I just can't find the romance
       Gm Am Bb D# 
And I wonder why I came

Chorus 2

                 F 
I wish you were here

On the Champs-Elysees
  Bb 
Lovers walk hand in hand
                 F 
I wish you were here

They take one look at me
           Bb 
And they seem to understand
      F C 
This city of light is a lovely site
     Gm Am Bb D# 
The first bright star I see tonight
               F 
Wish you were here


Bridge

 Am F Am 
Now, I write this on the plane
                         F Gm 
and I'm drinking cheap champagne

And wondering how
     Bb C 
Two people got so far apart
(no chord)      F
I wish you were here

Outro

Here in London
                     Bb 
Where the rain the pouring down
                 F 
I wish you were here

On this airplane
        Bb 
Headed back to LA Town
      F C 
I'll never leave you alone again
     Gm Am Bb D# 
I'm coming home but until then
            Bb F 
I Wish you were here
                 Bb 
I wish you were here
                 F 
I Wish you were here
                 Bb 
I wish you were here
                 F 
I wish you were here
                 Bb 
I wish you were here
                 F 
I wish you were here

flyinglibra51
God Bless Glen Travis Campbell

The Girl From Ipanema chords – Amy Winehouse

 Song: The Girl From Ipanema.
Artist: Amy Winehouse, from Album; Lioness: Hidden treassures.
Chord analysis: Mats Fagergren
2015-12-01
No Capo.
Chords must be played according to instructions 
that can be found below.

Note: Eaug/F# can alt. be played as F#7-5
***     
CHORD   E,A,D,G,B,e     CHORD   E,A,D,G,B,e
Fmaj9   x,8,7,9,7,x     F#m9    2,4,2,2,2,4
Eaug/F# x,9,10,9,9,x*)  D9      x,5,4,5,5,x
(F#7-5  2,x,2,3,1,x)    Gm9     3,5,3,3,3,5
G13     3,5,3,4,5,3     D#9     x,6,5,6,6,x
Gm7     3,5,3,3,3,3     Am7     5,7,5,5,5,5
F#maj7  2,x,3,3,2,x     D7-9    x,5,4,5,4,x
B9      x,2,1,2,2,x     C7-9    x,3,2,3,2,x
                        
Intro:
| Fmaj9 | Fmaj9 Eaug/F# | Fmaj9 | Fmaj9 Eaug/F# |

 Fmaj9 
Tall and tan and young and lovely
 G13 
The girl from Ipanema goes walking 
     Gm7 Eaug/F# 
And when she passes, each one she passes 
       Fmaj9 Eaug/F# 
Goes  "abo de de daoo.."

 Fmaj9 
When she walks she's like a samba 
 G13 
That swings so cool and sways so gentle 
     Gm7 Eaug/F# 
That when she passes, each one she passes 
       Fmaj9 
Goes "abo de de daoo.."

 F#maj7 B9     
Oh, but I watch her so sadly 
 F#m9 D9     
How can I tell her I love her 
 Gm9 D#9  
Yes, I would give my heart gladly 
          Am7 D7-9 
But each day as she walks to the sea 
     Gm7 C7-9 
She looks straight ahead, not at me

 Fmaj9 
Tall and tan and young and lovely 
 G13 
The girl from Ipanema goes walking 
     Gm7 Eaug/F# 
And when she passes, I...gooo
   Fmaj9 Eaug/F# 
ooooaooo......diddididoo

 Fmaj9 
diddido baubabadididao

 Fmaj9 
..The girl the girl
 G13 
From Ipanema from Ipanema
 Gm7 Eaug/F# 
boee boee didididi..buabodededa
 Fmaj9 Faug/F# 
doabedabedao

 Fmaj9 
lala deda....
 G13 
daedadeda....
 Gm7 Eaug/F# 
Sheupadededaooo..........
 Fmaj9 
odadabeaa.....

 F#maj7 B9     
Oh, yea.. I want her so badly 
 F#m9 D9     
How can I tell her I love her 
 Gm9 D#9  
Yes, I would give my heart gladly 
          Am7 D7-9 
But each day as she walks to the sea 
     Gm7 C7-9 
She looks straight ahead, not at me


 Fmaj9 
Tall and tan and young and lovely
 G13 
The girl from Ipanema goes walking 
     Gm7 Eaug/F# 
And when she passes, I smile but she 
      Fmaj9 Eaug/F# 
does not see .....she
                 Fmaj9 
aint looking at me
 Eaug/F# Fmaj9 Eaug/F#   
ooo...
| Fmaj9 |

View From Below Tabs – Angels & Airwaves

 ---------------------------------------------------------------------------------------------------------
                                Angels and Airwaves - View from Below
---------------------------------------------------------------------------------------------------------

Verse1
e|-------------6-------------------------------------------------------|    |---|
B|-----------7---7---7-5--54-------7-5-5-4-----------------------------|    |---|
G|---8-8-8-8-----------------4---8---------4-44-66/8-------44-66/8-----| 2x |-8-| -end of 2nd repeat
D|-----------------9-----------9--------------------6--44---------6-44-|    |---|
A|---------------------------------------------------------------------|    |---|
E|---------------------------------------------------------------------|    |---|

Chorus
e|--------------------------------------|  |------------------------------------------|    |----|
B|-------10----10--10------12-12-12-12--|  |------12------12---12-----10-----10---10--|all |-12-| -end of
G|-----9-----9----------11-11-11-11-11--|3x|---11------11-----------9------9----------| of |----|   2nd 
D|---7-----7-----7----9----9--9--9--9---|  |-9-------9-------9----7------7------7-----|this|----|  repeat
A|--------------------------------------|  |------------------------------------------| 2x |----|
E|--------------------------------------|  |------------------------------------------|    |----|


Verse2
e|-------------6------------------------------------------|
B|-----------7---7---7-5-5-4-------7-5-5-4----------------|
G|---8-8-8-8-----------------4---8---------4-4-6/8--------|
D|-----------------9-----------9------------------6--44---|
A|--------------------------------------------------------|
E|--------------------------------------------------------|

Chorus

Bridge Guitar1
e|--------------------------------------------------------------------------------------------------|
B|--------------------------------------------------------------------------------------------------|
G|------8----8----8----8---8----4---4---6---4---4------8----8----8----8----8----6---6--6---4---4----| 2x
D|---11---11---11---11---11---7---7---9---7---7-----11---11---11---11---11----9---9------7---7---7--|
A|--------------------------------------------------------------------------------------------------|
E|--------------------------------------------------------------------------------------------------|

Bridge Guitar2
e|---------------------------------------------------------------------------|
B|---------------------------------------------------------------------------|
G|---11-11-11-9-9-9-9-9-6-6-6-8-8-8-8-8--11-11-11-9-9-9-9-9-6-6-6-4-4-4-4-4--|
D|---------------------------------------------------------------------------|
A|---------------------------------------------------------------------------|
E|---------------------------------------------------------------------------|
                                                                                   all 2x
e|---------------------------------------------------------------------------|
B|---------------------------------------------------------------------------|
G|---11-11-11-9-9-9-9-9-6-6-6-8-8-8-8-8--9-9-9-9-9-9-9-9-6-6-6-4-4-6-4-------|
D|---------------------------------------------------------------------------|
A|---------------------------------------------------------------------------|
E|---------------------------------------------------------------------------|

Chorus again

That's all!!

From Sunrise To Sunset chords – Machine Men

 Gbm E D Gbm E D 
My last sunrise, no more sunsets for me
 Gbm E D 
I can bury my good heart with relief, I'm free
 Gbm E D 
I can smile, taste the tear drop from my eye
 Gbm E D 
Waiting for the breath of wind to give wings for my soul

 Gbm E D 
I have a feeling, this is my day 
 Gbm E D 
Caressing shine and rain
 Gbm E D 
Farewell, this life couldn't last
 Gbm E D 
My heart is weak, the reason is not far to seek

 Gbm A 
The dream of the end
 E B 
Before the journey begins 
 Gbm A 
cold enters the room, 
 E B Gbm 
Then give me the last dance with death

 Gbm E D 
My breathing is heavy, soul reaching for the sky
 Gbm E D 
I've nothing to lose, everything is inside me
 Gbm E D 
Golden memories make me feel alright
 Gbm E D 
Waiting for the moment when my love is by my side

 Gbm A 
The dream of the end
 E B 
Before the journey begins 
 Gbm A 
cold enters the room, 
 E B Gbm 
Then give me the last dance with death

Solo 

 Dbm B A 
My last sunrise, no more sunsets for me
 Dbm B A 
I can bury my good heart with relief, I'm free
 Dbm B A 
I can smile, taste the tear drop from my eye
 Dbm B A 
Waiting for the breath of wind to give wings for my soul

 Ab5 B 
The dream of the end
 Gb Db   
Before the journey begins 
 Ab5 B 
cold enters the room,
 Gb Db 
Then give me the last dance with death

Jump chords – Two Steps From Hell

 Two Steps From Hell - Jump! (short version)

Tuning: Drop C

Intro (2x)

D|------------------------------------------------|
A|------------------------------------------------|
F|------------------------------------------------|
C|------------------------------------------------|
G|--2-2---2-2---2-2---2-2---2-2---2-2---5-5---9-9-|
C|--0-0---0-0---0-0---0-0---0-0---0-0---3-3---7-7-|


Solo

D|---------------------------------------------------------------------------------|
A|---------------------------------------------------------------------------------|
F|---------------------------------------------------------------------------------|
C|---------------------------------------------------------------------------------|
G|---------------------------------------------------------------------------------|
C|--0-0--3-0--0-0--3-0--0-0--3-0--0-0--3-0--0-0--3-0--0-0--3-0--0-0--3-0--3-0--3-0-| (3x)


D|---------------------------------------------------------------------------------|
A|---------------------------------------------------------------------------------|
F|---------------------------------------------------------------------------------|
C|---------------------------------------------------------------------------------|
G|--------------------------------0-------------------0-0--0-0-------0-0--0-0--0-0-|
C|--0-0--3-0--0-0--3-0--0-0--3-0--0-0--3-0--0-0--3-0--0-0--3-0--0-0--3-0--3-0--3-0-|


Main

D|-----------------|----------------|----------------|----------------|
A|-----------------|----------------|----------------|----------------|
F|-----------------|----------------|----------------|----------------|
C|-----------------|----------------|----------------|----------------|
G|--X-X-2--X-X-3-X-|-X-X-2--X-X-0-X-|-X-X-2--X-X-3-X-|-5-5--5--7-7--7-|
C|--0-0----0-0---0-|-0-0----0-0---0-|-0-0----0-0---0-|-3-3--3--5-5--5-| (2x)


D|-----------------|----------------|----------------|----------------|
A|-----------------|----------------|----------------|----------------|
F|-----------------|----------------|----------------|----------------|
C|-----------------|----------------|----------------|----------------|
G|--2-2-2--2-2-3-2-|-2-2-2--2-2-3-2-|-2-2-2--2-2-3-2-|-5-5--5--7-7--7-|
C|--0-0-0--0-0---0-|-0-0-0--0-0---0-|-0-0-0--0-0---0-|-3-3--3--5-5--5-|


D|-----------------|----------------|----------------|----------------|
A|-----------------|----------------|----------------|----------------|
F|-----------------|----------------|----------------|----------------|
C|-----------------|----------------|----------------|----------------|
G|--2-2-2--2-2-3-2-|-2-2-2--2-2-0-2-|-2-2-2--2-2-3-2-|-5-5--5--7-7--7-|
C|--0-0----0-0---0-|-0-0-0--0-0---0-|-0-0----0-0---0-|-3-3--3--5-5--5-|


D|-----------------|----------------|----------------|----------------|
A|-----------------|----------------|----------------|----------------|
F|-----------------|----------------|----------------|----------------|
C|-----------------|----------------|----------------|----------------|
G|--2-2-2--2-2-3-2-|-2-2-2--2-2-0-2-|-2-2-2--2-2-3-2-|-5-5--5--7-7--7-|
C|--0-0----0-0---0-|-0-0----0-0---0-|-0-0----0-0---0-|-3-3--3--5-5--5-|


D|-----------------|----------------|----------------|----------------|
A|-----------------|----------------|----------------|----------------|
F|-----------------|----------------|----------------|----------------|
C|-----------------|----------------|----------------|----------------|
G|--2-2-2--2-2-3-2-|-2-2-2--2-2-0-2-|-2-2-2--2-2-3-2-|-5-5--5--7-7--7-|
C|--0-0----0-0---0-|-0-0----0-0---0-|-0-0----0-0---0-|-3-3--3--5-5--5-|


End

D|---------|
A|---------|
F|---------|
C|---------|
G|---2-2---|
C|---0-0---|


Hope it's working =)
-dommk97

Hallelujah From The Valley chords – Gateway College Of Evangelism

 Verse1:
            Gmaj9 D2 
He loves to hear the praises of His people
            Gmaj9 D2      
He loves to hear praise from the mountaintops
       Em7 Bm 
But I believe, it draws a tear to His face 
         Asus A 
When He hears

Chorus:
                    Gmaj9 
Hallelujah from the valley
                     D2 
Hallelujah from the saint
                       Gmaj9 
Who with pain in every heartbeat
       G D/F# Em7 
Still lifts his hands and say,
     Asus A Gmaj9 
I will bless the Lord at all times
                     Bm 
No matter come what may 
                    Gmaj9 Asus A 
Hallelujah from the valley 
                   D2 
Hallelujah in the pain

Verse2:
He loves to see His children prosper
He loves to shower them with blessings from above
But when the rain, is pouring down 
He's touched by the sound

Bridge:
      Em Asus D2 
Sing Hallelujah in the rain
      Em Asus Bm 
Sing Hallelujah through the pain
             Em Asus A Bm 
Lord in the valley, and all that I go through
    Em C 
My worship belongs to You

Tag:
      D2 G A D2 
Hallelujah, Hallelujah, Hallelujah, Hallelujah

Runner chords – From Indian Lakes

 Capo fret 3

chords from riffstation


 C 
When you're old enough

 G 
When you've been through it

 C 
You won't know what it's like

 G A 
You can't see things the same

 G 
But you're closer now

 C 
Did you close your eyes?

 G 
Did I close them first?

 C 
You weren't strong enough

 Bm Em 
I'm no stronger than you

         G C Em 
But the years take their toll on us all

 Em G C A Em 
I'm starting to see why you drifted away after all

                G 
And no one explains to you

                              Em A 
Where the things go that you love

                       C G C G 
'Till they're already gone

 C 
You held on for us

 G 
The house gathered dust

 C 
We were selfish then

 G Em 
And we held on to things

             A 
But they're all gone now

 C 
Did I take too long?

 G 
Did I ask too much?

 C G A 
I didn't love you as much as I could

     G C A Em 
The silence is killing me now

     G C A 
I'm starting to see why you drifted away after all

 G 
And no one explains to you

                  D Em C A 
Where the things go that you love

 G C A 
How many times will I try to pretend that you're here?

       G A 
And I had a few questions I never got to ask you in time

                      Em 
'Cause you'd already gone




a beautiful and heartbreaking song by an amazing band. hope you enjoyed!! xx

Taking Tips From The Gallery Gang chords – Bound Stems

 http://www.flameshovel.com/boundstems.php

My attempt at making a simplified version to play along to the song with.


 G C  x5

            G Bm 
There were no ties: "I have only this bag of belongings." 
                             C 
(Pulling your cap down to cover your eyes.) 

"I'd planned on it."
               G 
Planned on tonight.
                    G Bm 
"These kids don't look right. If only we needed a story..." 
                            C 
He shook my hand and went on for a while.

Wait for it.
              G 
Wait for it now--

 G C  x2

           G Bm 
In the evening the gates lock. The customer's leaving. 
                                 C 
In my childhood town there's nowhere to hide, 
                         G 
so wake up and let me inside! 

Now you're all grown up, and we get on to talking. 
       Bm 
It's been too long, but you're happy you've got me. 
     C G 
I slept on your couch, woke early and let myself out.
 
   G 
"HEY!"
     Bm C F 
I breath out in the cold.
      G 
And wait. 
      Bm C F 
I'm close to perfect now.
     G 
We wait. 
         Bm C F G 
We're waiting to go right now--or I am.
         Bm C F G 
We're waiting to go right now--or I am.
         Bm C F G 
We're waiting to go right now--or I am.
         Bm C F     
We're waiting to go right now!

 E E Dbm 
(I could tell you something you wouldnt' believe: 
                    Am B 
"I'll take you everywhere I go." 
                    Am B 
I'll take you everywhere I go! 
   E Dbm 
"Pack your bags fast cos you're coming with me. 
                    Am B 
I'll take you everywhere I go."
                    Am B 
I'll talk you everywhere I go...)
  E 
Take you everywhere.

 E A B E E A E E A B E E A E 
"It's all fine that you think time will heal everything, cause it usually does." 
       E A B E E A E 
I go out, and they know I'm bent and broke and I'm tumbling down. 
          E A B E E A E 
I got dressed in my suit and my tie, but it's ruined--that's a lousy way to fall.
            E A B E 
"Take my breath! Take my soul! Come inside, or let's go!" 
        E A E 
We'll ride it down to San Francisco.
            E A B E 
"Take my breath! Take my soul! Come inside, or let's go!" 
        E A E 
We'll ride it down to San Francisco.
            E A B E 
"Not so fast, don't you leave! You're embarrassing me!"
     E A Em 
I curled up in my seat to sleep.

No Vacation From The Blues chords – Travis Tritt

 {title: No vacation from the blues}
{subtitle: Travis Tritt}

[ G ][ C ][ D ]
                    [ G ]
I took some time down by the ocean
            [ C7 ]                        [ A ]
Just to try and shake the notion
              [ G ]       [ E ]            [ A ]                        [ D ]
That my world could not continue without you
       [ G ]                  [ G7 ]
So I took a long vacation
               [ C7 ]                 [ A ]
Traveled all around the nation
           [ G ]    [ E ]     [ A ]              [ D ]         [ G ]     [ C7 ] [ G ]
Trying hard to rearrange my point of view
                                                               [ G7 ]
I went from Birmingham all the way to Boulder
 [ G ]               [ C7 ]                     [ A ]
And when I looked over my shoulder
                 [ G ]           [ E ]               [ A ]                [ D ][ Eb ][ D ][ Db ]
All I could see was your sweet face shining though
        [ G ]                               [ G7 ]
And no matter how hard I try
            [ C7 ]                    [ A ]
To fight off the urge to cry
                        [ G ]    [ E ]      [ A ]       [ D ]          [ G ]    [ C7 ] [ G ]
It seems there ain't no vacation from the blues
                 [ C7 ]
And I can run but I can't hide
                 [ G ]           [ E ]
From the pain I feel inside
                    [ A ]                                    [ D ] [ Eb ][ D ][ Db ]
And there's no one but myself left to accuse
             [ G ]                          [ G7 ]
So with all these bridges burned
                    [ C7 ]              [ A ]
There's no pages left to turn   
                 [ G ]    [ E ]     [ A ]         [ D ]         [ G ]      [ C7 ] [ G ]
And there ain't no vacation from the blues

     Break [ C7 ][ G ][ A ][ D ][ Eb ][ D ][ Db ]  x2

             [ C7 ]
Baby, don't misunderstand me
      [ G ]                        [ E ]
I'm not playing any games
      [ A ]
I'm trying to find a rainbow
               [ D ] [ Eb ][ D ][ Db ]
But I can't find it for the rain
            [ G ]                              [ G7 ]
So with all these bridges burned
             [ C7 ]                     [ A ]
There's no pages left to turn
        [ G ]    [ E ]     [ A ]    [ D ]
And there ain't no vacation
     [ G ]        [ E ]      [ A ]     [ D ]
Said there ain't no vacation
     [ G ]       [ E ]     [ A ]      [ D ]
Said there ain't no vacation
              [ G ]  [ C7 ][ G ]
From the blues

From Here To Utopia Song For The Desperate chords – Ramshackle Glory V2

 This is a revised version of the other "From here to utopia" tab. 
This one is correct, chords are from his zine. 
If you can't figure out how to play it listening to the acoustic version from Die 
The Nightmare might help.


Intro:

 Am E Am G E Am E Am G E Am E 
well, i’m afraid that the circles i’ve been drinking myself
                                       Am G E 
aren’t big enough for the vowels that i try to fit inside of them.
 Am 
when i was young, i drank too much,
             E Am 
and i’d be lying if i said i didn’t feel so goddamn young tonight;
           G E 
maybe too young to ask what’s on my mind.
 F Am 
like: if freedom means doing what you want (well),
 E Am 
don’t you gotta want something?
 F Am E 
and won’t you tell me that we want something more than just more beer?

and my friends, if that ain’t true, won’t you lie to me tonight? Oh yeah!

(Fast part) Am G E F x3, strum Am once then muted strumming

 Am E 
well, i’ve been listening to minor threat records all day,

and shit if i do not know every word.
 Am G E 
i sing along as i tie off.
 Am E 
and ian screams he’s “out of step” as i throw the cotton into the spoon, draw up into 
the syringe.
 Am G E 
i’ll know just what he means until i hit a vein.
 F Am E Am 
but after that i won’t have to bother with knowing who i am, for a while at least.
 F Am 
in a moment the whole world is gonna melt around me,
 E 
and i’ll swear i don’t miss it as a i lie to you tonight.
 C E Am F 
because i’m afraid to look the world in the eye.
 C E Am F 
if nothing’s gonna change, well, then i’d rather die.
 C E 
and i’m too unemployed to organize a union;
     Am F 
i’m too intoxicated to tear down a building.
 C E 
i’m too hopeless to look for a solution;
     Am 
i’m afraid that if i found one,
     F C 
i’d be out of excuses for the way i waste away
        E Am F 
in the gutters that i chose like fashion accessories to go with my dirty clothes.
   C E Am 
i haven’t bathed in months, but you know it’s not because i’ve been fighting bourgeois morals:
           F 
i’m just lazy and i’m young.

 Am E 
i’ve seen the best minds of my generation dying drunk or high from the rooftops to the 
parking lots,
 Am G E 
stomped to death in west philadelphian squats.
 Am E 
they’ve got me waiting on a day when we can say “fuck the police!” with a little bit of integrity,
 Am G E 
when it will mean: “i’ve got your back if you’ve got mine!”
 F Am E Am 
give me a scene where i believe in more than bad hair cuts, guilt, and misery.
 F Am 
i don’t know where i fit between the vegans and the nihilists.
 E 
that might be the first thing i’ve said that wasn’t a lie tonight.
 C E Am F 
because there’s gotta be something more than lying in the front yard, naked, screami

Far From Any Road chords – The Handsome Family

 The Handsome Family - "Far From Any Road" from their album "Singing bones" (2003)

Also the official theme song of HBO series "True Detective"



 Am E Dm Am 
From the dusty May sun her looming shadow grows

 Am E Dm Am 
Hidden in the branches of the poison creosote

 C 
She twines her spines up slowly
   G 
Towards the boiling sun
     Dm  
And when I touched her skin
    F 
My fingers ran with blood



 Am E Dm Am 
In the hushing dusk under a swollen silver moon
 Am E Dm Am 
I came walking with the wind to watch the cactus bloom

     C G 
And strange hands halted me, the looming shadows danced
   Dm F 
I fell down to the thorny brush and felt the trembling hands



 Am E 
When the last light warms the rocks
         Dm Am 
And the rattlesnakes unfold
 Am E Dm Am 
Mountain cats will come to drag away your bones

     C 
And rise with me forever
  G 
Across the silent sand
         Dm 
And the stars will be your eyes
         F 
And the wind will be my hands

Song From Under The Floorboards Tabs by Magazine

         A SONG FROM UNDER THE FLOORBOARDS - Magazine

Words: Howard Devoto

Music: John McGeoch, Dave Formula, Barry Adamson, John Doyle


: George16
 spitfireprxix@hotmail.co.uk

Tuning: EADGBe (Standard)

Effects: Overdrive + Flanger



Riff 1 - (Barre 10th fret)

e|----------------------------------------------------------------10--10-10-10-10-10-|
B|---------13-----------13-----------13-----------13-----------13-10--10-10-10-10-10-|
G|-----10-----------10-----------10-------------------------------10--12-12-12-12-12-|
D|-12-----------12-----------10---------------12-----------12-----10--12-12-12-12-12-|
A|----------------------------------------13-----------13---------10--10-10-10-10-10-|
E|----------------------------------------------------------------10--10-10-10-10-10-|


Riff 2 - (Slightly Muted)

e|----------------------------------------------------------|
B|-----------------------------------------------------10---|
G|-----------7-----------5-----------3------------10--------|
D|-------7-----------5-----------3-----------10-------------|
A|---5-----------3-----------1-----------8------------------|
E|----------------------------------------------------------|

Riff 3 

e|-----------------------------|
B|-----------------------------|
G|-------------------3---5/7b--|
D|-------------3h5-------------|
A|-------3h5-------------------|
E|---5-------------------------|

Riff 4

e|--6--6--x--x--6--8---8---x--x--8---|
B|--6--6--x--x--6--8---8---x--x--8---|
G|--6--6--x--x--6--10--10--x--x--10--|     
D|--8--8--x--x--8--10--10--x--x--10--|
A|--8--8--x--x--8--8---8---x--x--8---|
E|--6--6--x--x--6--8---8---x--x--8---|



Riff 5

e|---10-10-10-10-10-10-9--10-10-10-10-10-10-9--10-10-10-10-10--10---|
B|---10-10-10-10-10-10-9--10-10-10-10-10-10-9--10-10-10-10-10--10---|
G|---12-12-12-12-12-12-12-12-12-12-12-12-12-12-12-12-12-12-12--12---|
D|---12-12-12-12-12-12-12-12-12-12-12-12-12-12-12-12-12-12-12--12---|
A|---10-10-10-10-10-10-9--10-10-10-10-10-10-9--10-10-10-10-10--10---|
E|---10-10-10-10-10-10-9--10-10-10-10-10-10-9--10-10-10-10-10--10---|


Lyrics 


Intro: Riff 1 x 2


Riff 2
I am angry I am I'll and I'm as ugly as sin

Riff 2
My irritability keeps me alive and kicking

Riff 2                                              Riff 3
I know the meaning of life, it doesn't help me a bit

Riff 2
I know beauty and I know a good thing when I see it


Chorus

Riff 4
This is a song from under the floorboards

Riff 4
This is a song from where the wall is cracked

Riff 4
By force of habit, I am an insect

Riff 4
I have to confess I'm proud as hell of that fact


Verse

Riff 2
I know the highest and the best

Riff 2
I accord them all due respect

Riff 2                              Riff 3             
But the brightest jewel inside of me

Riff 2
Glows with pleasure at my own stupidity


Bridge: Riff 5 + Riff 1


************************************

| /   slide up
| \   slide down
| h   hammer-on
| p   pull-off
| ~   vibrato
| +   harmonic
| x   Mute note
| b   Bend
| pb  Pre-bend
| br  Bend release
| pbr Pre-bend release
| brb Bend release bend

************************************

Far From Any Road True Detective Theme chords – The Handsome Family

 The Handsome Family- Far From Any Road


You may know this as the theme song from the excellent new HBO show "True Detective" 
starring Woody Harrelson and ol' Matt McConaughey.

---

Intro:  Am Am E 
From the dusty May sun
 Dm Am 
Her looming shadow grows
 Am E 
Hidden in the branches
 Dm Am 
of the poison creosote

          C 
She twines her spines up slowly
     G 
Towards the boiling sun
      Dm 
And when I touched her skin
       F Am 
My fingers ran with blood

  Am E 
In the hushing dusk
           Dm Am 
Under a swollen silver moon
     Am E 
I came walking with the wind
     Dm Am 
To watch the cactus bloom

        C 
And strange hands halted me,
        G 
The looming shadows danced
     Dm 
I fell down to the thorny brush
      F Am 
And felt the trembling hands

   Am E 
When the last light warms the rocks
           Dm Am 
And the rattlesnakes unfold
   Am E 
Mountain cats will come
     Dm Am 
to drag away your bones

       C 
And rise with me forever
    G 
Across the silent sand
          Dm 
And the stars will be your eyes
          F Am 
And the wind will be my hands

Colony Tabs by Bleed From Within

  Sorry if this is a little weird. Craig (the guitarist) sent me this and it doesnt
 include the tapping and lead stuff. I'm putting this in here how the guitarist
 himself sent me.
 so let me know what you think?






Main Riff
C#---------------------------------------------------------------------------------------------------|
G#---------------------------------------------------------------------------------------------------|
E----------------------------------------------------------------------------------------------------|
B----------------------------------------------------------------------------------------------------|
F#---35----------------------00881212-57-22222--22222--22222--00881212-58-33333-33333-33333--00881212|
B-------00000--00000--00000--------------22222--22222--22222--------------33333-33333-33333----------|

        ÉÉÉÉ   ÉÉÉÉ   ÉÉÉÉ   ÉÉÉÉÉÉÉÉ    ÉÉÉÉ   ÉÉÉÉ   ÉÉÉÉ   ÉÉÉÉÉÉÉÉ    ÉÉÉÉ  ÉÉÉÉ

C#---------------------------------------------------------------|
G#---------------------------------------------------------------|
E----------------------------------------------------------------|
B----------------------------------------------------------------|
F#----------------------------9-10-9--9---------5-6-5-3-5-0-1-4--|  X3
B---1-0-00-10-12-0----000000--------13-13-10-12------------------|

        ..            ÉÉÉÉÉÉ

3rd time, the 0s, 2s and 3s are palm muted chords rather than single notes

fill 2nd and 3rd time

C#--------------------------------------------------|
G#--------------------------------------------------|
E---------------------------------------------------|
B---------------------------------------------------|
F#-----------------------8--------------------------|
B-----8bendupandbackdown--7vibrato--0--3vibrato-----|


Intro to verse


C#----------------------------------|
G#----------------------------------|
E--------------------5555555566666--|
B---66666666677777777---------------|
F#--555555555555555555555555555555--|
B-----------------------------------|

Verse


C#-------------------------------------------------------------------------------------------------|
G#--6666-----6666-----66666------------------------------------------------------------------------|
E---7777-----7777-----77777------------------------------------------------------------------------|
B---7777-----7777-----77777------------------------------------------------------------------------|
F#--5555-----5555-----55555------------------------------------------------------------------------|
B-------0--0-----0--0-------0-0-0--888888888888888888888888877777777-------------------------------|X2

fill 2nd time


C#------------------------------------------------|
G#------------------------------------------------|
E-------------------------------------------------|
B-------------------------------------------------|
F#-------------------4-4--4-5-4-4-----------------|
B----8888-8-8--8888--6-6-------8-7-5-7------------|
                     .
Verse Progression


C#-----------------------------------------------------------------------------------------|
G#-----------------------------------------------------------------------------------------|
E------------------------------------------------------------------------------------------|
B------------------------------------------------------------------------------------------|
F#--555555------5555--5555--5-7-7-7-7-8-8-8--------------------------4-5-4-4---------------| X2
B---------000000----00----00-----------------8888-8-8--8888-8-7-7-77------8-7-5-7----------|
          ÉÉÉÉÉÉ    ..    ..

fill 2nd time


C#-------------------------------------------------|
G#-------------------------------------------------|
E--------------------------------------------------|
B--------------------------------------------------|
F#-------------------4-4--4-5-4-4-