Tag: frusciante

Omission Acoustic chords – John Frusciante

 Artist: John Frusciante
Song: Omission (acoustic)
Video: https://www.youtube.com/watch?v=4JyW5pqkDs8
Transcription: SCA, kostya.levin.sca 

Tuning: standard
Capo: NO capo

Chords used:
C:     x.3.2.0.1.0
G7:    3.2.0.0.0.1
Am:    x.0.2.2.1.0
Fadd9: x.x.3.2.1.3
Fmaj7: x.8.7.5.5.5
D9:    x.5.7.5.5.5

Intro:
 C G7 Am Fadd9      x4

Verse:
 C G7 Am Fadd9 
Omit myself
 C G7 Am Fadd9 
Omit myself
 C G7 Am Fadd9 
Omit myself 
 C G7 Am Fadd9 
Omit myself 
 C G7 Am Fadd9 
Omit my self as a favour to god
 C G7 Am Fadd9 
Suffer fate cas its the only lift you got
 C G7 Am Fadd9 
Dedicating all of before to now
 C G7 Am Fadd9 
Emphasizing these things you wont allow

Verse:
 C G7 Am Fadd9 
Omit myself
 C G7 Am Fadd9 
Omit myself
 C G7 Am Fadd9 
Omit my self as a favour to god
 C G7 Am Fadd9 
Suffer fate cas its the only lift you got
 C G7 Am Fadd9 
Dedicating all of before to now
 C G7 Am Fadd9 
Emphasizing these things you wont allow

Pre-chorus:
 C G7 Am Fadd9 C G7 Am 

Chorus:
 Fmaj7 D9 
Never now we need the other

Centralize the force of rot
 Fmaj7 D9 
In your life we take a cover

Echoing what is not
 Fmaj7 D9 
Never now we need the other

Centralize the force of rot
 Fmaj7 D9 
In your life we take a cover

Echoing what is not

Break:
 C G7 Am Fadd9      x4

Verse:
 C G7 Am Fadd9 
Going nowhere
 C G7 Am Fadd9 
Going nowhere
 C G7 Am Fadd9 
Going nowhere's the only clear shot
 C G7 Am Fadd9 
At being somewhere the fates think you're not
 C G7 Am Fadd9 
Somewhere's hole to divides any way you want
 C G7 Am Fadd9 
Faking now faking who you are

Pre-chorus:
 C G7 Am Fadd9 C G7 Am 

Chorus:
 Fmaj7 D9 
Never now we need the other

Centralize the force of rot
 Fmaj7 D9 
In your life we take a cover

Echoing what is not
 Fmaj7 D9 
Never now we need the other

Centralize the force of rot
 Fmaj7 D9 
In your life we take a cover

Echoing what is not

Bridge:
 C G7 Am Fadd9 
Never now I need the other
 C G7 Am Fadd9 
In your life we tale our cover
 C G7 Am Fadd9 
Never now I need the other
 C G7 Am Fadd9 
In your life we tale our cover

Ending:
 C G7 Am Fadd9     x3
 C G7 C 


Note: Full lyrics
Verse:
Omit myself
(Take myself from

Anne solo Tabs – John Frusciante

 This is the solo of Anne (the 1st part) 
the only thing I did was put on the tab that video: 

 

the video does not belong to me. Please credit to Drew Carroll who made ​​the video and took the tablature .
If tablature contain an error, let us edit comments that will 

Standard tuning (eBGDAE)





e:--13b--10--13b----10--------------------------------------------------------------------|
B:----------------------13b~----13b---13--13--13--13p11----------------11---11--13--------|
G:-------------------------------------------------------12----10h12------12-------11b--7-|
D:----------------------------------------------------------------------------------------|
A:----------------------------------------------------------------------------------------|
E:----------------------------------------------------------------------------------------|



                                       (This part is repeated a few times)
                                           \                         /
e:----------------------15------------------\18--15-----18--15------/-------------------------------|
B:13/15--18b--15--18b---18b----18br--15------\------18---------18--/---18br-15---13b--15-15---15----|
G:------------------------------------------------------------------------------------------14---12-|
D:--------------------------------------------------------------------------------------------------|
A:--------------------------------------------------------------------------------------------------|
E:--------------------------------------------------------------------------------------------------|


************************************

| h   hammer-on
| p   pull-off
| ~   vibrato
| +   harmonic
| x   Mute note
| b   Bend
| pb  Pre-bend
| br  Bend release
| pbr Pre-bend release
| brb Bend release bend

************************************

I Cant See Until I See Your Eyes chords – John Frusciante

 one of my favorites from smile from the streets you hold
the lyrics are only approximations
 F A# 
come as you are 
 F A# 
have some wine 
 F A# G# A# G# 
and some coffee
 F A# 
come as you are
 F A# 
have a gun
          C# D# 
answer me my baby


 F A# 
come dance with me
     F A# F 
I been watching you
       A# C# D# C# 
and I need you
 F A# 
come have some wine
 F A# 
makes me want
 F A# C# D# C# 
wanna kill myself at all

this part switches up a little
 F A# F A# F G#  slide to  A# F A# 
come have some wine
 F A# 
as a cure
     D# C# 
there's a reason
 F A# F A# 
come you're the one
         F         
who only lies
    A# D# C# F A# 
I cant see til I see your eyes
 F A# 
see your eyes
 A# G# A# G# 
aah baby, come on baby
 A# G# D# 
I need you or I need nothing

 F D# *   F D# *
        F 
I need you

   chords
   F A# G# C# D# D# *
E x  6   4   9   11   x
a 7  8   6   11  13   6
d 9  8   6   11  13   8
g 9  7   5   10  12   8
b 9  6   4   9   11   8
e 7  6   4   9   11   6

Ratiug solo Tabs by John Frusciante

 Artist- John Frusciante
Song- Ratiug (solo)
Album- PBX funicular Intaglio Gigilo Zone
 frazer h.

This is how to play the solo at the end of RATIUG that comes in right after the rapper
Kinetic 9 finishes his verse. Key is C# major (orA#minor [natural minor])  .

The style that Froosh-bag is play here and on this album isnt just playing octaves note 
for note
 ba ck and forth, which is kindof was what I thought was happening on PBX (and outsides ep)
at first, but what is actually doing is more like playing one melody in a high range and 
a different
low range melody line in alternate steps within a single passage playing one or a few notes
of one melody and then the other and then back and then forth in alternating step so it all
spound like one unified psychedelic sonic air puzzle
.
The timing and measures are pretty much in the right places and the chord 
progression/bass goes
 A#minor | G#major |

D#minor | F# major|
   and repeats that 4 bar pattern for the rap section and thru the solo outro

Enjoy. Any correction or comment feel free below or email me at frazer.hughes


Solo comes in at (5:46)
E|---------13---11|-----------------------------|
B|--6--------------|----14----13----------------|
G|------10----8---|----------------15----13-----|
D|-----------------|-11----13-------------------|
A|-----------------|-------------11----11-------|
E|----6------------|----------------------------|


E|-----------------------------|---------------------------------------|
B|------------14----13----11---|-9-------------------------------------|
G|--13~~ ----------------------|------15--------------10---13---11-----|
D|--------11-----------11---11-|---11----------11-13-------------------|
A|-----11--------13------------|---------------------------------------|
E|-----------------------------|---------13-13------------9----11------|


e|-------------------------|-----------------------11------13|
B|--------------14----13---|-11--11-13----------13-------11--|
G|-8-10--------------------|---13-----13----13---------------|
D|------11-8---------------|---------------------------------|
A|-----------13----13----13|-------------13-----------13-----|
E|-------------------------|---------------------------------|


                               ~~~~~~
e|----11-----------------9-13-11-11-11|---13-------------|
B|-----------13----14-----------------|-----14---13--11--|
G|-------10---------------------------|------------------|
D|-10-----------11--------------------|------------------|
A|------------------------------------|------------------|
E|--------------------11~-------------|-14-----14--14--14|



e|----------------|-------------------------|
B|-------------13-|------------------13-----|
G|------13--------|---15--------------------|
D|-----------15---|-------------------------|
A|-13-16--13------|11----13----11-13----15--|
E|----------------|---------11--------------|



e|----------------13-|------------18---------------------|
B|-------------------|-----------------------------------|
G|-15----------------|10-13----11----------------13------|
D|-------15----------|---------------------15------------|
A|----13-------13----|------11--------15------------15-16|
E|----------11-------|------------------13----11---------|