Tag: Games


Free Realms Ost Briarheart Tabs – Misc Computer Games

 These are the three themes played throughout THIS OST,
the themes should follow through the other 2 songs from the Briarwood area.
e|----------------------------------|
B|----------------------------------|
G|----------------------------------|
D|7---6---7---8---7-----------------|
A|-------------------8-7-5-7--------|
E|----------------------------------|
e|----------------------------------|
B|----------------------------------|
G|-------------------7--------------|
D|7---6---7---8---7-----------------|
A|---------------------8-7-5-----5--|
E|---------------------------8------|
e|----------------------------------|
B|----------------------------------|
G|7-----7------10-9-7--9-10-9---7---|
D|--8-----7-------------------------|
A|----------------------------------|
E|----------------------------------|
e|---------------------|
B|---------------------|
G|7-----------7--------|
D|--10-9-9-10----7--6-7|
A|---------------------|
E|---------------------|
e|---------------------|
B|---------------------|
G|---------------------|
D|---------------------|
A|5-7-8-8-7-5-7--------|
E|---------------------|
//Original tabbing - diingus
//Many thanks to YouTube user >Scott Cindershot< for ripping the OST and putting it up on YouTube
//His YouTube channel: https://www.youtube.com/user/ScottMoltendawn
//Thanks, Scotty-boy

Fallout 4 – Main Theme Tabs – Misc Computer Games Vsion 2

 -------------------------------------------------------------------------------
                             Fallout 4 - Main Theme
-------------------------------------------------------------------------------
: Dan Foy
Tuning: Standard
Intro
     main                                   background
e|---------------------------------------------------------------------------|
B|---------------------------------------------------------------------------|
G|------------------------------------------8-10-8---------------------------|
D|----------------------------5----------------------------------------------|
A|---3-6--7----3-6--7----3-6----5--3-5---------------------------------------|
E|---------------------------------------------------------------------------|
Chorus 1
     main              background     main            background
e|----------------------------------------------------8--10------------------|
B|----------------8--------8----------------------8--------------------------|
G|---7--5---3--5--5----5-8---7-3-5----8--10---7-3-5--------------------------|
D|---------------------------------------------------------------------------|
A|---------------------------------------------------------------------------|
E|---------------------------------------------------------------------------|
     main              background   main            background
e|---------------------8--6--8----------------------8------------------------|
B|----------------8-----------------------------8----------------------------|
G|---8--7--5-3-5--5-----------------8--7--5-3-5-5----------------------------|
D|---------------------------------------------------------------------------|
A|---------------------------------------------------------------------------|
E|---------------------------------------------------------------------------|
Modified intro
     main                                 main/background
e|---------------------------------------------------------------------------|
B|----------------------------------------6----------------------------------|
G|---------------------------------------------------------------------------|
D|------------------4---------------------3----------------------------------|
A|---3--6--7--6--3---------3--6--7--6--3-------------------------------------|
E|---------------------------------------------------------------------------|
Bridge
     main
e|----------------------------------6--7--9--9-------------------------------|
B|-----------------------6--8--9-9-------------------------------------------|
G|---5--8--9----5--8--9------------------------------------------------------|
D|---------------------------------------------------------------------------|
A|---------------------------------------------------------------------------|
E|---------------------------------------------------------------------------|
High chorus/swell
     main                 background      main/background
e|---11--12--11--9----9-----------------------------------6--9--9------------|
B|-----------------12-----------------------7-----------9-7--7--9------------|
G|------------------------9-8-9--6---6----9---8---6-6-6-6--------------------|
D|---------------------------------9-7----------9-8-6-8----------------------|
A|---------------------------------------------------------------------------|
E|---------------------------------------------------------------------------|
Outro
    main
e|---------------------------------------------------------------------------|
B|---------------------------------------------------------------------------|
G|-----------------------------6---------------------------------------------|
D|--------------------------7--6---------------------------------------------|
A|---4--7--8---4--7---7--9-----4---------------------------------------------|
E|--------------------5--5---------------------------------------------------|
I waited years f

Polybridge – Track 3 intro Tabs – Misc Computer Games

 -------------------------------------------------------------------------------
                          Track 3 - Polybridge Soundtrack
-------------------------------------------------------------------------------
: Elliot Kempson
 elliotk25
Tuning:EADGBe
e|---------------------------------------------------------------------------|
B|---------------------------12---12h14-------------14-----------------------|
G|--------------9---13---11----------------------13-14---14--13--------------|
D|--------------9--------13-------------14----------14-----------------------|
A|---------9h11----------14-------------14--16-------------------------------|
E|-12--12--------------------------------------------------------------------|
NOTE: I do not own Polybridge or the song, I'm just a fan :)
I don't own the video either, but here it is: https://youtu.be/f4-pitkxPLw
************************************
| /   slide up
| \   slide down
| h   hammer-on
| p   pull-off
| ~   vibrato
| +   harmonic
| x   Mute note
| b   Bend
| pb  Pre-bend
| br  Bend release
| pbr Pre-bend release
| brb Bend release bend
************************************

Final Fantasy Vii – Victory Fanfare Tabs – Misc Computer Games

 -------------------------------------------------------------------------------
                             SONG NAME Victory Fanfare- Band Name FFVII
-------------------------------------------------------------------------------
:Oli :3
 x.oadversity
Tuning: half step down
eb|5-9-5---5--5-9-5---57975--6-9-6-6-6-9-6--67976-----------------------------|
Bb|------7----------7------7------7-------7------7----------------------------|
Gb|---------------------------------------------------------------------------|
Db|---------------------------------------------------------------------------|
Ab|---------------------------------------------------------------------------|
Eb|---------------------------------------------------------------------------|
eb|5-9-5-5-5-9-5-57975--5-9-5--5-5-9-5--57975---------------------------------|
Bb|-----7-------7------7------6-------6-------6-------------------------------|
Gb|---------------------------------------------------------------------------|
Db|---------------------------------------------------------------------------|
Ab|---------------------------------------------------------------------------|
Eb|---------------------------------------------------------------------------|
eb|5-9-5-5-5-9-5-57975-6-9-6-6-6-9-6-67976------------------------------------|
Bb|-----7-------7-----7-----7-------7-----7-----------------------------------|
Gb|---------------------------------------------------------------------------|
Db|---------------------------------------------------------------------------|
Ab|---------------------------------------------------------------------------|
Eb|---------------------------------------------------------------------------|
eb|7-10-7-7-7-10-7-791097-(x2)-7-11-7-7-7-11-7-791197-------------------------|
Bb|------8--------8------8-----------9--------9------9------------------------|
Gb|---------------------------------------------------------------------------|
Db|---------------------------------------------------------------------------|
Ab|---------------------------------------------------------------------------|
Eb|---------------------------------------------------------------------------|
************************************
| /   slide up
| \   slide down
| h   hammer-on
| p   pull-off
| ~   vibrato
| +   harmonic
| x   Mute note
| b   Bend
| pb  Pre-bend
| br  Bend release
| pbr Pre-bend release
| brb Bend release bend
************************************

Pokemon – Lavender Town intro Tabs – Misc Computer Games

 -------------------------------------------------------------------------------
                             Lavender Town Theme
-------------------------------------------------------------------------------
: AnonymousPi
Tuning: Standard
e|----3--7--2-----3--7--2-----3--7--2-----3--7--2--3--3--2--2--3--2--0--7----|
B|-1-----------1-----------1-----------1-----------------------------------2-|
G|---------------------------------------------------------------------------|
D|---------------------------------------------------------------------------|
A|---------------------------------------------------------------------------|
E|---------------------------------------------------------------------------|
e|----3--3--2--2--7--3--2--7--8--8-------------------------------------------|
B|-2-------------------------------------------------------------------------|
G|---------------------------------------------------------------------------|
D|---------------------------------------------------------------------------|
A|---------------------------------------------------------------------------|
E|---------------------------------------------------------------------------|

Super Mario Bros 3 – Grass Land Tabs – Misc Computer Games V2

 This is the overworld theme of world 1 in Super Mario Bros 3. Play along with youtube
to get a feel for it
E|-------------------------------------------------------------------------------
B|--8-----8--10--8--10--12--10--12--10-----12--10--8-----8--10--8--10--12--------
G|-----9----------------------------------------------9--------------------------
D|-------------------------------------------------------------------------------
A|-------------------------------------------------------------------------------
E|-------------------------------------------------------------------------------
E|---------------------------------------------------------------------------------------
B|--13--10--13--15--13--15--17--15--17--15-----17--15--13--10--13--15--13--15--17--------
G|---------------------------------------------------------------------------------------
D|---------------------------------------------------------------------------------------
A|---------------------------------------------------------------------------------------
E|---------------------------------------------------------------------------------------
E|-----------------------------------------------------------------
B|--8-----8--10--10--12--10--12--10-----12--10--13--13-----13--13--
G|-----9-----------------------------------------------------------
D|-----------------------------------------------------------------
A|-----------------------------------------------------------------
E|-----------------------------------------------------------------

Life Is Strange – End Credits Max And Chloe Tabs – Misc Computer Games

 -------------------------------------------------------------------------------
                        Jonathan Morali - End Credits (Life Is Strange)
-------------------------------------------------------------------------------
: Marta Mayer
After releasing my set of covers on YouTube (https://www.youtube.com/watch?v=waY8jaL-3Es), many
people asked for tutorials or tabs for particular songs. So here you are, here is the wonderful
music that can be heard in the end of the game! This tab is obviously not for the melodic line,
but for the accompanying guitar (in my vid it's the upper screen). I warn you, it's not
the easiest song. I tried to tab it in the simpliest way possible, but please - do read
carefully, before giving up :)
Tip: The best fingers positions for the first two chords are like this:
pinkie finger: A string, 5th fret
ring finger: D string, 4th fret
index finger: G string, 2nd fret
middle finger: B string, 3rd fret
Tuning: Standard
Position 1 (0:00 - 0:20)
e|------------------------------------------------------------------------------------------------------|
B|----------------3----------------------3-------------------------3-------------------------3----------|
G|-------------------2------2-----2----------2-----------2-----2-------2------------2-----2-------2-----|
D|------4------4---------------------4-----------4--------------------------4-------------------------4-|
A|--5------5------------5-------5--------------------5------5--------------------5------5---------------|
E|------------------------------------------------------------------------------------------------------|
Now, here comes the first change.
Position 2 (0:20 - 0:24)
Tip: The position is very similar to the first one. All you have to do, is to move your index finger to
the E string, 3rd fret.
e|----------------------------------------------------------------------------|
B|---------------3-----------------------3------------------------------------|
G|-----0-------------0----------0--------------0------------------------------|
D|-----------4-----------4------------4---------------4-----------------------|
A|----------------------------------------------------------------------------|
E|--3-----3------------------3----3-------------------------------------------|
And then go back to position 1.
Here comes the 3rd position (basically the Em chord)(in the song it's on 1:01)
e|------------------0---------------------------------------------------------|
B|----------------------0-----------------------------------------------------|
G|----------0---------------0-------------------------------------------------|
D|------2-------2---------------2---------------------------------------------|
A|----------------------------------------------------------------------------|
E|---0------------------------------------------------------------------------|
And right after is the 4th position (it's Bm barre chord) (1:03 approximately)
e|------------------------2---------------------------------------------------|
B|-----------------------------2----------------------------------------------|
G|---------3------------------------3-----------------------------------------|
D|-------------------4-------------------4------------------------------------|
A|----------------------------------------------------------------------------|
E|----2---------2-------------------------------------------------------------|
AND THEN SWITCH TO POSITION 1 AGAIN.
Now, I don't play this part in my video since I cut it out accidentally, but in case you want to continue
with the song (and obviously you do), the chords are basically the same, until 2:13.
5th position (G chord, but the barre version) (it comes roughly on 2:14)
e|---------------------------------------------------------------------------------|
B|-----------------------3-------------------------------------------3-------------|
G|----------------------------4--------------

Games People Play chords – Joe South V3

 SONG:   GAMES PEOPLE PLAY
ARTIST: JOE SOUTH
TAB BY: DON CZARSKI
EMAIL:  GUITARZAN7@HOTMAIL.COM
                     GAMES PEOPLE PLAY
                         JOE SOUTH
CAPO: 2nd FRET - (In videos Joe South has a capo on the 2nd fret)
INTRO:
DANELECTRO ELECTRIC SITAR (FEEL FREE TO IMPROVISE)
    G D C D7 G
E --------------|-----------------|------------|-----------|
B -----3--------|------3----------|-------3-5--|-----------|
G -2/4---0-0-0--|--2/4---4-2-2-2--|--2/4-------|--2/4-2-0--|
D --------------|-----------------|------------|-----------|
A --------------|-----------------|------------|-----------|
E --------------|-----------------|------------|-----------|
    G D
E ------------------|-------------------|
B ------------------|-------------------|
G -2/4-4-2-0-0-0-0--|--2/4-4-2-0-2-2-2--|
D ------------------|-------------------|
A ------------------|-------------------|
E ------------------|-------------------|
             C D7 G
E -----------------|------------------|
B --------3-5-5-5--|--5-5\3-----------|
G --2-2/4----------|--------4-2-0-0-0-|
D -----------------|------------------|
A -----------------|------------------|
E -----------------|------------------|
VERSE:
 G
La da da da da da da
             D
La da da da da da de
          C
La-da da da da da
 D7 G
 La da da da
VERSE:
 G
Oh, the games people play now,
                        D
Every night and every day now
                          C
Never meaning what they say now,
 D7 G
 Never saying what they mean
VERSE:
   G
While they wile away the hours,
                 D
In their ivory towers
                               C
'Til they're covered up with flowers,
         D7 G
In the back of a black limousine, woah-ah
CHORUS:
 G
La da da da da da da
             D
La da da da da da de
                C
Talking 'bout you and me,
 D7 G
  And the games people play now
VERSE:
 G
Oh, we make one another cry,
                        D
Break a heart then we say goodbye
                          C
Cross our hearts and we hope to die,
 D7 G
 That the other was to blame, woah-ah
VERSE:
  G
Neither one will ever give in,
                    D
So we gaze at our eight by ten
                                 C
Thinking 'bout the things that might have been,
 D7 G
 And it's a dirty rotten shame, woah-ah
CHORUS:
 G
La da da da da da da
             D
La da da da da da de
                C
Talking 'bout you and me,
 D7 G
  And the games people play, now
INSTRUMENTAL:
      G D C
Oh yeah, alright, oh yeah
      D7 G
Come on, come on, come on, come on, come on
    G D
E ------------------|-------------------|
B ------------------|-------------------|
G -2/4-4-2-0-0-0-0--|--2/4-4-2-0-2-2-2--|
D ------------------|-------------------|
A ------------------|-------------------|
E ------------------|-------------------|
             C D7 G
E -----------------|------------------|
B --------3-5-5-5--|--5-5\3-----------|
G --2-2/4----------|--------4-2-0-0-0-|
D -----------------|------------------|
A -----------------|------------------|
E -----------------|------------------|
Let me hear i

The Hunger Games – The Hanging Tree chords – Misc Soundtrack

 From The Hunger Games movie Mockingjay: Part 1, I think this is more or less accurate. Sounds good either
fingerpicking or just plucking each chord once.
No capo
     Am G
Are you, Are you
 F Am
Coming to the tree
            Am G F Am
Where they strung up a man they say murdered three
 C Am
Strange things did happen here
    F Am
No stranger would it be
       Am G F Am
If we met up at midnight in the hanging tree
     Am G
Are you, Are you
 F Am
Coming to the tree
            Am G F Am
Where the dead man called out for his love to flee
 C Am
Strange things did happen here
    F Am
No stranger would it be
       Am G F Am
If we met up at midnight in the hanging tree
     Am G
Are you, Are you
 F Am
Coming to the tree
         Am G F Am
Where I told you to run, so we'd both be free
 C Am
Strange things did happen here
    F Am
No stranger would it be
       Am G F Am
If we met up at midnight in the hanging tree
     Am G
Are you, Are you
 F Am
Coming to the tree
        Am G F Am
Wear a necklace of hope, side by side with me.
 C Am
Strange things did happen here
    F Am
No stranger would it be
       Am G Am Am
If we met up at midnight in the hanging tree

The Hunger Games Mockingjay Pt 1 – The Hanging Tree chords – Misc Soundtrack

Hi, this was requested :)  I loved this part in the
movie!  I think Jennifer Lawrence did a great job!
As far as strumming goes, I single strum the entire
song. Here's the link I tabbed it to-
https://www.youtube.com/watch?v=lTiQRPQJR9E
Standard tuning
No capo
     Am F
Are you, are you
 Am Em
Coming to the tree
            Am F
Where they strung up a man
      Em Am
They say who murdered three.
 Am F
Strange things did happen here
    Am Em
No stranger would it be
       Am F
If we met up at mid-night
 Em Am
In the hanging tree
     Am F
Are you, are you
 Em Am
Coming to the tree
         Am F
Where a dead man called out
 Em Am
For his love to flee
 Am F
Strange things did happen here
    Am Em
No stranger would it be
       Am F
If we met up at mid-night
 Em Am
In the hanging tree
     Am F
Are you, are you
 Am Em
Coming to the tree
         Am F Am Em
Where I told you to run, so we'd both be free
 Am F
Strange things did happen here
    Am Em
No stranger would it be
       Am F
If we met up at mid-night
 Am Em
In the hanging tree
     Am F
Are you, are you
 Em Am
Coming to the tree
        Am F Em Am
Wear a necklace of hope, side by side with me
 Am F
Strange things did happen here
    Am Em
No stranger would it be
       Am F
If we met up at mid-night
 Em Am
In the hanging tree
     Am F
Are you, are you
 Am Em
Coming to the tree
         Am F Em Am
Where I told you to run, so we'd both be free
 Am F
Strange things did happen here
    Am Em
No stranger would it be
       Am F
If we met up at mid-night
 Em Am
In the hanging tree
     Am F
Are you, are you
 Am Em
Coming to the tree
            Am F
Where they strung up a man
      Em Am
They say who murdered three.
 Am F
Strange things did happen here
    Am Em
No stranger would it be
       Am F
If we met up at mid-night
 Em Am
In the hanging tree
     Am F
Are you, are you
 Em Am
Coming to the tree
         Am F
Where a dead man called out
 Em Am
For his love to flee
 Am F
Strange things did happen here
    Am D
No stranger would it be
       Am F
If we met up at mid-night
 E Am
In the hanging tree
Outro- 1 beat/strum each chord
 Am F Am E Am F G Am Am F Am D Am F E
Page 1 of 15312345...102030...Last »