Tag: genesis

Follow You Follow Me chords – Genesis Vsion 3

 FOLLOW YOU FOLLOW ME    -       Genesis

Intro:
e|-----------------------------/-----------------------------/
B|-----------------------------/-----------------------------/
G|--2-----0-----4-----2-----0--/--5-----4-----2-----0-----2--/
D|0---0-0---0-0---0-0---0-0---0/0---0-0---0-0---0-0---0-0---0/
A|-----------------------------/-----------------------------/
E|-----------------------------/-----------------------------/

 G  -  Gmaj7  - G6sus4 -  Gmaj7       2x 

 G                                               
     Stay 
       Am                                          
With     me 
     G Am7                         
My    love I hope you'll      always be
 Dm7                                               
     Right here 
         G7                                        
By my      side
           Cadd4        C                              
If ever I         need     you 
 C/D D                                         
     oh my     love
 G Am                                       
In your     arms 
    G Am7                           
I     feel so safe and      so secure
 Dm7                                               
     Every day 
     G7                                            
Is     such a perfect 
Cadd4         C                                       
       Day to    spend 
 C/D D                                    
     Alone with     you I will


Chorus:
 G Gmaj7                                       
    Follow         you will you 
 C/G D                                        
     Follow     me All the 
 G Gmaj7                                     
    Days and         nights that we 
 C/G D                                    
      Kn ow will     be I will 
 G Am7                                    
    Stay with       you will you
 D B7                                    
    Stay with     me just one
 Em Em9/D                                       
     Single         tear in each 
 C D                                      
    Passing     year


 G Am                                     
    With the      dark 
       G Am7                             
Oh I     see so very       clearly now
 Dm7                                               
      All my fears 
      G7                     Cadd4          C                  
Are     drifting by me so        slowly     now 
 C/D D                                   
      Fading a -    way
 G Am                                         
I can     see 
      G Am7                         
The     night is long but      you are here
 Dm7                                               
      Close at hand though 
      G7                   Cadd4            C                 
I'm      better for the        smile you     give, 
 C/D D                                   
     And while I     live I will


Chorus:
 G Gmaj7                                       
    Follow         you will you 
 C/G D                                       
      Follow     me All the 
 G Gmaj7                                     
    Days and         nights that we 
 C/G D                                    
      Know will     be I will 
 G Am7            

Uncertain Weather chords – Genesis

 Dm C 
A day of uncertain weather
 B F C 
Captured in a frame forever
 Gm C Dm 
A face in a faded photograph

 Dm C B F  }x2

 Dm C 
He must have had a life
 B C 
Maybe with a family
 B F 
People who meant everything to him
 A  sinner,  A  saint,  A  soldier
 B F C 
Caught up in a war he never
 Gm C Dm 
Had a chance to start or build a life

Chorus:
      B F 
All gone long ago
  B Gm F Dm 
Leaving no trace, disappearing like smoke in the wind
To become just a face without a name
Leaving no trace, disappearing like smoke in the wind

  Dm Gm Dm 
Hopes and fears, important plans, forgotten memories
Footsteps fading in the sand, ooh
Schemes and dreams small and grand, nothing left to see
Footsteps fading in the sand, ooh

 Dm C B F  }x2

Someone who cast a shadow 
Maybe just a lazy man
Doesn't make much difference now it's true
A day of uncertain weather
Captured in a frame forever
A face in a faded photograph

Chorus:
All gone long ago
Leaving no trace, disappearing like smoke in the wind
To become just a face without a name
One more to add to the total of those never heard of again

Chorus:
Yes he's gone, just a face without a name
Leaving no trace, disappearing like smoke in the wind
All gone, just a face without a name
Leaving no trace, disappearing like smoke in the wind

Sin From Genesis Tabs by Evangelion

 Sin From Genesis, by Shiro Sagisu - Evangelion 2.22: You Can (Not) Advance

e|--------------------------------------------------------------------------|
B|--------------------------------------------------------------------------|
G|--------------------------------------------------------------------------|
D|---------------------2-0-2-5-3-2-0-2--------------------------------------|
A|-3-2-0-2-5-3-2-0-2--------------------------------------------------------|
E|-------------------0-----------------0------------------------------------|

e|--------------------------------------12-10-12-15-13-12-10----------------|
B|-----------13-12-10-12-15-13-12-10-12----------------------12-------------|
G|-------9------------------------------------------------------------------|
D|---2-9--------------------------------------------------------------------|
A|-2------------------------------------------------------------------------|
E|--------------------------------------------------------------------------|

e|--------------------------------------------------------------------------|
B|--------------------------------------------------------------------------|
G|--------------------------------------------------------9-7-9-12-10-9-7-9-|
D|-------------------2-0-2-5-3-2-0-2-10-9-7-9-12-10-9-7-9-------------------|
A|-3-2-0-2-5-3-2-0-2--------------------------------------------------------|
E|--------------------------------------------------------------------------|

e|----------------------------12-10-12-15-13-12-10-12-12---12---19----------|
B|-13-12-10-12-15-13-12-10-12-----------------------------------------------|
G|--------------------------------------------------------------------------|
D|--------------------------------------------------------------------------|
A|--------------------------------------------------------------------------|
E|-----------------------------------------------------------------0--------|

e|--------------------------------------------------------------------------|
B|--------------------------------------------------------------------------|
G|--------------------------------------------------------------------------|
D|---------------------2-0-2-5-3-2-0-2--------------------------------------|
A|-3-2-0-2-5-3-2-0-2--------------------------------------------------------|
E|-------------------0-----------------0------------------------------------|

e|--------------------------------9-7-9-12-10-9-7---------------------------|
B|-----------10-9-7-9-12-10-9-7-9-----------------9-------------------------|
G|-------9------------------------------------------------------------------|
D|---2-9--------------------------------------------------------------------|
A|-2------------------------------------------------------------------------|
E|--------------------------------------------------------------------------|

e|--------------------------------------------------------------------------|
B|--------------------------------------------------------------------------|
G|--------------------------------------------------------9-7-9-12-10-9-7-9-|
D|-------------------2-0-2-5-3-2-0-2-10-9-7-9-12-10-9-7-9-------------------|
A|-3-2-0-2-5-3-2-0-2--------------------------------------------------------|
E|--------------------------------------------------------------------------|

e|--------------------------------------------------------------------------|
B|--------------------------------------------------------------------------|
G|--------------------------------------------------------------------------|
D|-10-10-10-10-10-10-10-10-10-10--------------------------------------------|
A|--------------------------------------------------------------------------|
E|--------------------------------------------------------------------------|