Tag: ghost

Ghost Of You piano chords by 5 Seconds Of Summer

[Instrumental]

Cadd9 G Em D
Cadd9 G Em D


[Verse 1: Luke]

Cadd9     G          Em                D
Here I am waking up, still can't sleep on your side
Cadd9        G           Em                 D
There's your coffee cup, the lipstick stain fades with time
Cadd9          G            Em            D           Cadd9   G    Em
If I can dream long enough, you'd tell me I'd be just fine
D            Cadd9  G  D
I'll be just fine


[Chorus: Luke]

G             D                 Am
So I drown it out like I always do
Am                  Cadd9                   G
Dancing through our house with the ghost of you
G              D                    Am
And I chase it down, with a shot of truth
Am                  Cadd9                   G
Dancing through our house with the ghost of you


[Instrumental]
Cadd9 G Em D

[Verse 2: Calum]

Cadd9    G         Em             D
Cleaning up today, found that old Zepplin shirt
Cadd9             G         Em               D
You wore when you ran away, and no one could feel your hurt
Cadd9            G         Em      D               Cadd9  G
We're too young, too dumb, to know things like love
G          Em          D
But I know better now, better now

[Chorus: Luke & All]

G             D                 Am
So I drown it out like I always do
Am                  Cadd9                   G
Dancing through our house with the ghost of you
G              D                    Am
And I chase it down, with a shot of truth
Am                  Cadd9                   G
Dancing through our house with the ghost of you


[Bridge: Calum]

G Cadd9
G          Cadd9
Too young, too dumb
G Em
D
To know things like love
G Cadd9
G          Cadd9
Too young, too dumb
G Em D

[Outro: Luke]

G             D                 Am
So I drown it out like I always do
Am                  Cadd9                   G
Dancing through our house with the ghost of you
G              D                    Am
And I chase it down, with a shot of truth
Am                 Cadd9                    G
That my feet don’t dance like they did with you

Ghost Of A Chance Chords by Rancid

[Verse]
Em                      C         G        D              Em
Well, these walls are just high enough to keep you locked in
C         G          D
Locked in for a lifetime
Em            C         G        D              Em
Well, you're one lousy step from not makin' it
     C          D            Em        D
You only got a ghost of a chance, my brother
     C          D            Em
You only got a ghost of a chance

[Verse]
Em     C       G            D              Em
Well, maybe someday we'll get a new start
C         G          D
You never grow too old to dream
Em            C         G        D              Em
Save the sermon for Sunday 'cause we'll be back one day
     C          D            Em        D
You only got a ghost of a chance, my brother
     C          D            Em
You only got a ghost of a chance

[Verse]
Em        C         G        D    Em
Well, follow your instincts always
C         G          D
Don't ever doubt yourself
Em            C         G        D              Em
When the odds are small, don't let 'em stop ya
            C          D            Em        D 
'Cause we only got a ghost of a chance, my brother
     C          D            Em
We only got a ghost of a chance
 
We only got a ghost of a chance, my brother
     C          D            Em
We only got a ghost of a chance

H intro Tabs – Ghost Runner on Third

 -------------------------------------------------------------------------------
                             H - Ghost Runner on Third
-------------------------------------------------------------------------------
: ethanc07

Tuning: Standard

I couldn't find any tabs for Ghost Runner on Third anywhere online and I'm a 
big fan of Jonny Craig and all his work so I decided to make my own. 
I know this isn't much but it's better than nothing.


Guitar I
e|-----------------------------------|
B|-----------------------------------|
G|--2-2--4--2--4h5p4p0---------------|   x8
D|-----------------------------------|
A|-----------------------------------|
E|-----------------------------------|


Guitar II
e|-----------------------------------|---------------------------------------|
B|-----------------------------------|---------------------------------------|
G|---2---4---5---4---7---5---4---5---|---2---4---5---4---7---5---4---5-------|
D|-----------------------------------|---------------------------------------|
A|-----------------------------------|---------------------------------------|
E|-----------------------------------|---------------------------------------|

e|-----------------------------------|---------------------------------------|
B|-----------------------------------|---------------------------------------|
G|---2---4---5---4---7---5---4---5---|---7---5---7---9---12------------------|
D|-----------------------------------|---------------------------------------|
A|-----------------------------------|---------------------------------------|
E|-----------------------------------|---------------------------------------|


e|---------------------------------------------------------------------------|
B|---------------------------------------------------------------------------|
G|---4---5---12-------4---5---12-------4---12----2------4---12----2----------|   x2
D|---------------------------------------------------------------------------|
A|---------------------------------------------------------------------------|
E|---------------------------------------------------------------------------|




************************************

| /   slide up
| \   slide down
| h   hammer-on
| p   pull-off
| ~   vibrato
| +   harmonic
| x   Mute note
| b   Bend
| pb  Pre-bend
| br  Bend release
| pbr Pre-bend release
| brb Bend release bend

************************************

Ghost In This House chords – Shenandoah

 C G7 C 
I don't pick up the mail I don't pick up the phone

                    G7 C 
I don't answer the door I'd just as soon be alone

                         Am C Dm 
I don't keep this place up I just keep the lights down

                       F G7 
I don't live in these rooms I just rattle around


                          C 
I'm just a ghost in this house I'm just a shadow upon these walls

    G7 C 
As quietly as a mouse I haunt these halls

 Am C 
I'm just a whisper of smoke

         C7 F 
I'm all that's left of two hearts on fire

                         C 
That once burned out of control

                       G7 
That took my body and soul

                          C 
I'm just a ghost in this house


                    G7 C 
I don't mind if it rains I don't care if it's clear

                      G7 C 
I don't mind staying in there's another ghost here

                       Am Dm 
She sits down in your chair and she shines with your light

                       F G7 
And she lays down her head on your pillow at night


                         C 
I'm just a ghost in the house I'm just a shell of the man I was

          G7 C 
A living proof of the damage heartbreak does

 Am C 
I'm just a whisper of smoke
 
         C7 F 
I'm all that's left of two hearts on fire

                         C 
That once burned out of control

                       G7 
That took my body and soul

                          C 
I'm just a ghost in this house


 G7 C 
I'm just a ghost in this house I'm just a shadow upon these walls

    G7 C 
As quietly as a mouse I haunt these halls

 Am C 
I'm just a whisper of smoke

         C7 F 
I'm all that's left of two hearts on fire

                         C 
That once burned out of control

                       G7 
That took my body and soul

                          C 
I'm just a ghost in this house

 G7 C 
I'm just a ghost in this house

Ghost From The Barrow Tabs – Paddy And The Rats

 -------------------------------------------------------------------------------
                             SONG NAME - Band Name
-------------------------------------------------------------------------------
: Malk



Tuning: D G C F A D 

INTRO : 00:02 - 00:49

e|---------------------------------------------------------------------------|
B|----7--9---7h9--9--7-----------7--9---7h9--9--7----------------------------|
G|-8--------------------8--6--8---------------------8------------------------|
D|---------------------------------------------------------------------------|
A|---------------------------------------------------------------------------|
E|---------------------------------------------------------------------------|

e|---------------------------------------------------------------------------|
B|----7--9--7h9--9--7--------------------------------------------------------|
G|-8-------------------8--6\4--4/6-8--6\4--6--4------------------------------|
D|---------------------------------------------------------------------------|
A|---------------------------------------------------------------------------|
E|---------------------------------------------------------------------------|

00:49 - 01:09 

étendonner que c'est compliqué de faire le rythme sur la tab je vous laisse l'écouter et faire par vous même.
it's difficult to make the rhythm with a tab , I let you do it alone.

e|---------------------------------------------------------------------------|
B|-------4-------------------------------------------------------------------|
G|-------4---3---------------------------------------------------------------|
D|---6---4---4---6-----------------------------------------------------------|  x3
A|---6-------4---6-----------------------------------------------------------|
E|---4-----------4-----------------------------------------------------------|

e|---4---4-------------------------------------------------------------------|
B|---5---5-------------------------------------------------------------------|
G|---4---4---3---------------------------------------------------------------| x1
D|-----------4---6-----------------------------------------------------------|
A|-----------4---6-----------------------------------------------------------|
E|---------------4-----------------------------------------------------------|

01:09 - 01:30

e|---------------------------------------------------------------------------|
B|---------------------------------------------------------------------------|
G|---------------------------------------------------------------------------|
D|-------------------x8-x8x8-x8x8-x8x8--x9-x9x9-x9x9-x9x9--------------------|
A|-x6-x6x6-x6x6-x6x6-x6-x6x6-x6x6-x6x6--x7-x7x7-x7x7-x7x7-x6-x6x6-x6x6-x6x6--|
E|-x4-x4x4-x4x4-x4x4--------------------------------------x4-x4x4-x4x4-x4x4--|

e|---------------------------------------------------------------------------|
B|---------------------------------------------------------------------------|
G|---------------------------------------------------------------------------|
D|-x9-x9x9-x9x9-x9x9--------------------x8-x8x8--x4-x4x4---------------------| x2
A|-x7-x7x7-x7x7-x7x7--x9-x9x9-x9x9-x9x9-x6-x6x6--x4-x4x4-x6-x6x6-x6x6-x6x6---|
E|--------------------x7-x7x7-x7x7-x7x7------------------x4-x4x4-x4x4-x4x4---|

pre chorus 01:30 - 01:44

e|--4-------------------------------4----------------------------------------|
B|--5-------------------------------5----------------------------------------|
G|--4--------------3----------------4------3---------------------------------|
D|-----------------4-----------------------4----------------8----------------|
A|-----------------4-----------------------4----------------8----------------|
E|----------------------------------------------------------6----------------|

chorus 01:44 - 01:58
étendonner que c'est compliqué de faire le rythme sur la tab je vous laisse l'écouter et faire par vous même.
it's d

You Or A Ghost chords – The Brobecks

 Seriously one of my favorite songs.
The * means to hit it twice.

 G Bm 
Is that you or a ghost?
 Am Bm D 
   'cause I can't tell.
 G Bm 
You've been such a gracious host,
 Am Bm D 
   But it's time to go.
 G Bm 
I take my show on the road,
 Am Bm D   
   I'll be famous in a day.
 G Bm 
But that won't mean a thing,
 Am Bm D 
   If my senses fail.

 Em *       Em *        G 
   Well cut me to pieces,
 Em *     Em *       G 
   And sort me out.
 C5 F#5 G5 D5 F#5 G5        
   Is this all that love is      about?

| G | Bm | Am | Bm D |

 G Bm 
Well I got a photograph,
 Am Bm D 
   In a box inside my room.
 G Bm 
With pieces left of you,
 Am Bm D 
   Beside my bed.

 Em *      Em *          G 
   Well cut me to pieces,
 Em *     Em *       G 
   And sort me out.
 C5 F#5 G5 D5 F#5 G5        
   Is this all that love is      
 C5 F#5 G5 D5 F#5 G5        
   Is this all that love is      
 C5 F#5 G5 D5 F#5 G5        
   Is this all that love is      about?

ok so this interlude has a guitar part so quiet that I can't even hear it so yeah

 G Bm 
   Well I'm not made of stone,
 Am Bm D 
   And I don't wanna be alone.
 G Bm 
   I think I'm on my way,
 Am Bm D 
   To the very thing that I'm afraid of.

 Em *      Em *          G 
   Well cut me to pieces,
 Em *     Em *       G 
   And sort me out.
 C5 F#5 G5 D5 F#5 G5        
   Is this all that love is      
 C5 F#5 G5 D5 F#5 G5        
   Is this all that love is      
 C5 F#5 G5 D5 F#5 G5        
   Is this all that love is      about?

Ghost Eye Tabs – Sword

 -------------------------------------------------------------------------------
                             GHOST EYE - The Sword
-------------------------------------------------------------------------------
: Jo Zeiler
 jo.zeiler@aon.at

Tuning: Half-Step Down at around 435Hz


INTRO

   Guitar 1 (Kyle Shutt)
e|-------------------------------------------------|------------------------------------------------|
B|-------------------------------------------------|------------------------------------------------|
G|--2---2----------------2-------------2-----------|--2--------------------2------------------------|
D|--2---2----------------2---7--5--7---2-----------|--2---2----------------2------------------------|
A|--0---0-----0--3p0-----0---5--3--5---0-----0--3--|--0---0-----0--3p0-----0---2--3--5--7--------3--|
E|---------3----------3-------------------3--------|---------3----------3------0--1--3--5--3--5-----|
 |                                                 |                                                |
 | Guitar 2 (J.D Cronise)                          |                                                |
e|-------------------------------------------------|------------------------------------------------|
B|-------------------------------------------------|------------------------------------------------|
G|--2----------------------------------------------|--2---------------------------------------------|
D|--2------------------------7--5--7---2-----------|--2---------------------------------------------|
A|--0------------------------5--3--5---0-----0--3--|--0------------------------2--3--5--7--------3--|
E|---------------------------------------3---------|---------------------------0--1--3--5--3--5-----|


   Git 1
e|-------------------------------------------------|------------------------------------------------|
B|-------------------------------------------------|------------------------------------------------|
G|--2---2----------------2-------------2-----------|--2--------------------2------------------------|
D|--2---2----------------2---7--5--7---2-----------|--2---2----------------2------------------------|
A|--0---0-----0--3p0-----0---5--3--5---0-----0--3--|--0---0-----0--3p0-----0---2--3--5--7--------3--|
E|---------3----------3-------------------3--------|---------3----------3------0--1--3--5--3--5-----|
 |                                                 |                                                |
 | Git 2                                           |                                                |
e|-------------------------------------------------|------------------------------------------------|
B|-------------------------------------------------|------------------------------------------------|
G|-------------------------------------------------|------------------------------------------------|
D|---------------------------7--5--7---2-----------|------------------------------------------------|
A|---------------3-----------5--3--5---0-----0--3--|---------------3-----------2--3--5--7--------3--|
E|--5---5--3--5----5--3--5----------------3--------|--5---5--3--5----5--3--5---0--1--3--5--3--5-----|


   Git 1
e|-------------------------------------------------|------------------------------------------------|
B|-------------------------------------------------|------------------------------------------------|
G|--2---2----------------2-------------------------|--2--2------------------------------------------|
D|--2---2----------------2---7--5--7--s9--------5--|--2--2------------------------------------------|
A|--0---0-----0--3p0-----0---5--3--5--s7--5--7-----|--0--0--3p0-----2--3--5--7--------3-------------|
E|---------3----------3----------------------------|-------------3--0--1--3--5--3--5----------------|
 |                                                 |                                                |
 | Git 2                                           |                 

Ghost chords – Andrew Garcia

 Andrew Garcia - Ghost
First Ever Tab (Don't Judge)
Key of Bâ™­m


   Bm  
  She was the one for me

  Everything that I need, oh
   G 
  God only knows I'm done
                       A 
  She messed around and now shes gone
     Bm 
  I guess she couldn't see
                          G 
  What she had in front of her, of her,
     D F# Bm 
  A ghost, a ghost of what we were
  (a gho,gho,ghost)


  If you're not ready for love
     G 
  I don't need your tears or damn hug
   Em 
  Girl you be playing

  You know what I'm saying
        F# 
  That bullshit you be all the time
   Bm G Bm  - (or Stop)
  Pulling off dem tricks, all cause u wan some dick (hold up)
   Em 
  I don't mean to be rude, you think I'm one of these dudes 
   F# 
  And that just ain't my shit
 Em F# 
  You think you got me twisted girl
                        G 
  Have everything your way
                             F# 
  Just know this ain't your world
           A 
  That I'm living in


   Bm 
  She was the one for me

  Everything that I need, oh
   G 
  God only knows I'm done
   C A 
  She messed around and now shes gone
     Bm 
  I guess she couldn't see
                            G 
  What she had in front of her, of her,
     D F# Bm 
  A ghost, a ghost of what we were
   Bm 
  (a gho,gho,ghost)

Short Instrumental ( G ,  Bm )
   Bm 
  If that's what you gonna choose
   G 
  Baby go ahead u gonna lose
   Em 
  Lose out on me

  Too blind to see
   F# 
  I was so down for you and anything
  Bm 
  Anything u wanted baby
  G 
  Anything u needed baby
  Em 
  Now u can call me
 F# 
  Cause I don't have a heart anymore

 Em 
  You think you got me twisted girl
 F# G 
  Have everything your way
                             F# 
  Just know this ain't your world
  A 
  That I'm living in

   Bm 
  She was the one for me

  Everything that I need, oh
   G 
  God only knows I'm done
                         A 
  She messed around and now she's gone
     Bm 
  I guess she couldn't see
                            G 
  What she had in front of her, of her,
     D F# G 
  A ghost, a ghost of what we were
  (a gho,gho,ghost)

   Em F# G 
  Don't you go running back (girl no oh)
   Em C Bm 
  But your hand I wont hold (no more)
 Em F# 
  Cause I wont be for u
         G Em 
  Cause you're so cold
     C 
  I don't want you, don't want you

   Bm 
  She was the one for me

  Everything that I need, oh
   G 
  God only knows I'm done

  She messed around and now she's gone
     Em 
  I guess she couldn't see
                            F# 
  What she had in front of her, of her,
              Bm 
  A ghost of what we were

   Bm 
  She was the one for me

  Everything that I need, oh
   G 
  God only knows I'm done
                         A 
  She messed around and now shes gone
     Bm 
  I guess she couldn't see
                            G 
  What she had in front of her, of her,
     D F# D 
  A ghost, a ghost of what we were
     F# E

Ghost Riders In The Sky chords – Stan Jones V2

 Ghost Riders In The Sky chords
Stan Jones (as performed by Vaughn Monroe)

Capo IV

 Am C Am Am C 
An old cowpoke went riding out one dark and windy day 
  Am C 
Upon a ridge he rested as he went along his way 
      Am C Am       
When all at once a mighty herd of red-eyed cows he saw 
   F Am 
A'plowin' through the ragged skies, and up a cloudy draw 

 C Am   
Yi-pi-yi-ay, Yi-pi-yi-o 
 F Dm Am 
Ghost herd in the sky 

       Am C 
Their brands were still on fire and their hooves were made of steel 
       Am C 
Their horns were black and shiny and their hot breaths he could feel 
   Am C Am 
A bolt of fear went through him as they thundered through the sky 
        F Am 
For he saw the riders coming hard and he heard their mournful cry 

 C Am   
Yi-pi-yi-ay, Yi-pi-yi-o 
 F Dm Am 
Ghost riders in the sky  

       Am C 
Their faces gaunt, their eyes were blurred, and shirts all soaked with sweat 
         Am C 
They're ridin' hard to catch that herd but they ain't caught them yet
         Am C Am 
They've got to ride forever on that range up in the sky 
    F Am 
On horses snortin' fire, as they ride on, hear their cry 

 C Am   
Yi-pi-yi-o, Yi-pi-yi-o 
 F Dm Am 
Ghost riders in the sky  

        Am C 
As the riders loped on by him, he heard one call his name 
         Am C 
"If you want to save your soul from hell a' ridin' on our range" 
       Am C Am 
"Then cowboy change your ways today or with us you will ride" 
    F Am 
"A-tryin' to catch the Devil's herd across these endless skies." 

 C Am   
Yi-pi-yi-ay, Yi-pi-yi-o 
 F Dm Am 
Ghost riders in the sky  
 C Am   
Yi-pi-yi-ay, Yi-pi-yi-o 

Bouquet Of Lies Ghost In Apt 8 chords – Paul Mcdonald And Nikki Reed

 Paul McDonald & Nikki Reed - "Bouquet of Lies (Ghost in apt. 8)
 "I'm Not Falling"

Capo 2nd Fret.

Intro:  D Bm G D Bm G D 
The ghost in apartment 8
              A 
She likes to stay up late
 Bm G D A 
She keeps my back against the wall
 Bm G D A 
If only she talked to me like the way that she quietly creeps
 Bm G D A 
In her sequined dress with her high heels on.


 G 
If I could get some sleep tonight
 D 
Then maybe I could make things right
 A G 
And I wouldn't be living with all your ghosts
 G 
If only I could shake my head
 D 
And forget all the things that you said.
 A G D 
Then maybe I'd feel better about letting you go.

                       Bm G D 
You've got me falling apart.
                       Bm G D 
You've got me falling apart.


 Bm G D 
The ghost on 1st Avenue
 A 
She never sings in tune.
 Bm G D 
She keeps my head up in the clouds
 Bm G D 
If only she stayed up late
                      A 
Like her friends in apartment 8
 Bm G D 
Then maybe I could let go of all these sounds.


 G 
If I could get some sleep tonight
 D 
Then maybe I could make things right
 A G 
And I wouldn't be living with all your ghosts
 G 
If only I could shake my head
 D 
And forget all the things that you said.
 A G D 
Then maybe I'd feel better about letting you go.

                       Bm G D 
You've got me falling apart.
                       Bm G D 
You've got me falling apart.


 D G 
I can't keep on living with all the lights on.
 D 
I can't move on
                        G 
I've been spending all my time alone.
Oh God.


 E G 
Take me down to the riverside
 D G 
and walk with me through the bright street lights.
 E                                    
But not too close because I'm still afraid
    G 
of all the times that you've ran away
      D G 
and left me with your burnt out bouquet of lies.

                       Bm G D 
You've got me falling apart.
                       Bm G D 
You've got me falling apart.
                       Bm G D 
You've got me falling apart.
         Bm G D 
Falling apart.

Carrying intro Tabs – Jukebox The Ghost

 -------------------------------------------------------------------------------
                            CARRYING - Jukebox the Ghost
-------------------------------------------------------------------------------
: allegra rosenberg
@ginger_time / stopitsgingertime @ tumblr

this is my first tab ever idk what i'm doing

e|---------------------------------------------------------------------------|
B|---7-----------------------------------------------------------------------|
G|---------4-6-7-6-4-7-4-4---6-----------------------------------------------|
D|----7---7----------------7-------------7-7---9-7-9-11-11-------------------|
A|-----------------------------9--9-7-----9-9--------------------------------|
E|------------------------------------10-------------------------------------|

e|---------------------------------------------------------------------------|
B|--*7-----------------------------------------------------------------------|
G|---------4-6-7-6-4-7-4-4---7-6---------------------------------------------|
D|----7--7-----------------7--------------7-----9-7-9-11-11------------------|
A|--------------------------------9--9-7---9---------------------------------|
E|---------------------------------10----------------------------------------|


*slide up on G string


YEAH!!!! JUKEBOX THE GHOST RULES

Ghost chords – Charlene Soraia

 Intro:  Em C G D  ( Bm )

 Em C   
I'm the tap that keeps on dripping
 G D 
The dog that's scratching at your door
 Em C   
I'm the nagging guilty feeling
 G D 
You can't find a reason for

 Em C   
I'm the rattle of your window
 G D  
That always keeps you half awake
 Em C   
I'm the ink stain on her love letter
 G D  
I'm the cold you just can't shake

 C D  
And every day I cry for you
 C D  
And wish that you were crying too

      Em C G D   
But you don't feel my pain
 Em C G D   
You don't see my sorrow
              Em C G     
And the thing that hurts the most
     Bm                   
Is I'm just a ghost

 Em C G D Em C   
I'm the frayed thread on your jacket
 G D  
That always links you to the crime
 Em C   
I'm your victim and your accomplice
 G D  
Forever frozen here in time

 C D  
And I live in the shadow lands
 C D  
Of hopeless dreams and shifting sands, but

      Em C G D   
But you don't feel my pain
 Em C G D   
You don't see my sorrow
              Em C G     
And the thing that hurts the most
     Bm Am     
Is I'm just a ghost

                 G 
I miss the way you used to taste
                 Am 
I miss your touch and face
        Bm 
Your secret place but

      Em C G D   
But you don't feel my pain
 Em C G D   
You don't see my sorrow
              Em C G     
And the thing that hurts the most
     Bm Am C 
Is I'm just a ghost


      Em C G D   
But you don't feel my pain
 Em C G D   
You don't see my sorrow
              Em C G     
And the thing that hurts the most
     Bm                   
Is I'm just a ghost…

End: 
      Em C G D  ( Bm )
     
      Em (once)

When The Nights Get Long chords – Jukebox The Ghost

 When the Nights Get Long
Written by: Jukebox the Ghost

(For easier chords, transpose down 2, then use a capo on the 2nd fret if you want to be in the right key)

Try playing it along with the song to see how it sounds. Let me know if it needs changes!
I'm still iffy about a few parts, especially parts with the F#m

 D A E E  x2

 D A 
What do you see
 F#m E D 
When you're lit up next to me
 A E E 
But you feel so far

 D A 
And it's all so strange
 F#m E                                 
That you never saw the change
 D A E E 
You just felt something go missing in the dark

 D A 
I wanna write you a letter
 F#m E 
I wanna write you a song
 D A 
I wanna make it better
 D A 
I wanna write you a letter
 F#m E 
I wanna write you a song
 D A E E 
I wanna make it better, for when the nights get long
 D A E E 
                When the nights get long
 D A E E  
                When the nights get long

 D A F#m 
A couple of words
 E D 
Lit up on a screen
         A E E 
Yeah it's all just make believe

 D A F#m 
And from what I've heard
         E D 
There's miles between
         A E E 
What we say and what we mean

 D A 
I wanna write you a letter
 F#m E 
I wanna write you a song
 D A 
I wanna make it better
 D A 
I wanna write you a letter
 F#m E 
I wanna write you a song
 D A E E 
I wanna make it better for when the nights get long
 D A E E 
                When the nights get long
 D A E E 
                When the nights get long
 D A E E 
                When the nights get long
 D A E E F#m D E 
So I told myself if I'm given the chance
 E 
I won't hold back anymore
 F#m D 
I'm not gonna keep it all in
 E 
Not gonna keep it all in
 F#m D 
Then I close my eyes and try to hide
 E 
But all of a sudden
 F#m D 
It's you and me in the middle of it all

 D A 
I wanna write you a letter
 F#m E 
I wanna write you a song
 D A 
I wanna make it better
 D A 
I wanna write you a letter
 F#m E 
I wanna write you a song
 D A 
I wanna make it better
 D A 
So I wrote you a letter
 F#m E 
I'll turn it into a song
 D A E E 
Does that make it better for when the nights get long
 D A E E 
                When the nights get long
 D A E E 
                When the nights get long
 D A E E 
                When the nights get long
 D A</span

Fuck Shit Up chords – Ghost Mice

 Strum the intro then use palm muting for the rest of the song
Intro
 C G Am F  x2

 C G  
You left without saying goodbye
 Am F 
But that's okay and I know why
 C G 
I think that I would do it the same 
 Am F 
When no one was looking, I'd just slip away
 C G  
They took you to the Gulf of Mexico
 Am F 
They opened the lid they let you go 
 C G 
I might never see you again
 Am F  
But you'll always be my best friend and 

 C G Am F 
There's still trouble in the streets 
 C G Am F 
You left it there there for me 
 Am G F C 
There's still so much left to do
 Am G F  (Strum the  F )
And I won't dishonor you

 C G 
This world wasn't good enough for us
 Am F  
Just two young punks pissed off in love 
 C G 
We'd put that record on and sing 
 Am F 
"Tonight, we're gonna fuck shit up!" 
 C G 
And I still feel the same
 Am F 
But the kind of thinking drives you insane 
 C G 
I'd step back and I'd take breaks 
 Am F 
But you never quit, not for a day and

 C G Am F 
There's still trouble in the streets 
 C G Am F 
You left it there for me 
 Am G F C 
There's still magic to be found 
 Am G F (Strum the  F )
And I won't let you down 

 C G 
When I've had all that I could stand 
 Am F 
Please burn this body down to ash 
 C G 
Take me to the Gulf of Mexico 
 Am F 
Open the lid and let me go 
 C G 
Save a little bit in a can 
 Am F 
And strap it to the nose of a touring van 
 C G 
Then at last, we'll both feel free
 Am F                       
But please oh please, don't dishonor me
 C G                 (Strumming)
please oh please, don't dishonor me
 Am F                 (Strumming)
please oh please, don't dishonor me

You can also throw in the Am G F C thing in the end it all sounds good

Chasing A Ghost Ever Since chords – The Head And The Heart V2

 Intro:
 E E7 A E E B7 E 

Verse 1:
 E E7                
Ever since   
              A E  
I first laid eyes on you
                  B7                       
I don't know what, 
                      E 
I don't know what to do
             E E7 
I must be a fool 
 A E 
to go out and chase you
                 B7 E 
But that's just what, that's just what I'll do

Chorus:
   A E  
I am, chasing a ghost
   B7 E 
I  Am ,  A  fool
 A E 
Ooooooo
 B7 E A E 
Ooooooo, ooooo
 B7 E 
Ahhhahhh

Verse 2:
 E E7 
Ever since, 
                   A E 
you packed up and walked away 
            B7 E 
All my skies have all turned to gray

Chorus:
   A E 
I am, chasing a ghost
   B7 E 
I  Am ,  A  fool
   A E B7   
I am, falling, falling for you
 E A E 
Ever since I first laid eyes on you

This Old Ghost Town chords – The Fratellis

 Capo 5th Fret


Intro:
 G G7 G G7 D G C G D G C G D G C 
Come now honey
 G D 
I may be just a fool, but I've got my principles
 G C 
I'm unlucky
 G D 
You may be alive but you're not invincible
 G C 
It's just blindness
 G D 
Kicking up a fuss and it's not for the first time
 G C 
Oh, your highness
 G D Em 
Someone must've told you, you once were a friend of mine

 Em D D/B D Em Em7 
I've never been shy but I've kept my head down
 G G/F# Em 
Oh oh oh
 Em D D/B D Em Em7 
Knowing about enough to get by this old ghost town
 G G/F# Em 
Oh oh oh

 G C G D G C 
Put on your best dress
 G D 
I'll take you dancing under the street lights
 G C 
Oh you're charmless
  G D 
You ain't too pretty but I've seen you tonight
 G C 
It's just kindness
 G D 
I was brought up a way that I won't leave you crying
 G C 
Oh, your highness
 G D 
You ain't too bright but as long as you're trying

 Em D D/B D Em Em7 
I'll do my best to keep my head down
 G G/F# Em 
Oh oh oh
 Em D D/B D Em Em7 
Putting my brains to the test in this old ghost town
 G G/F# Em 
Oh oh oh

 G G7 G G7 D G C G D G C G D G C G D G C G D Em D D/B D Em Em7 
I've never been shy but I've kept my head down
 G G/F# Em 
Oh oh oh
 Em D D/B D Em Em7 
Knowing about enough to get by this old ghost town
 G G/F# Em 
Oh oh oh

 Em D D/B D Em Em7 
I'll do my best to keep my head down
 G G/F# Em 
Oh oh oh
 Em D D/B D Em Em7 
Putting my brains to the test this in old ghost town
 G G/F# Em 
Oh oh oh
 G G/F# Em 
Oh oh oh
 G G/F# Em 
oh oh oh

 D G C G D  (many times)

Ghost chords – Jeremy Messersmith

 Bm G 
One more night in Omaha.
 Bm G 
Bus stop just before the dawn
 Em C 
Cold wind followed me somehow

 Bm G 
Through parking lots and shopping malls
 Bm G 
Rinse my thoughts in alcohol 
 Em C 
black clouds rolling over me

 Bm G 
If there is a line I'll cross it
 Bm G 
     No lesson will I learn
 Bm G 
Even if I'm standing on it
 Em C 
    No bridge that I wont burn

(Repeat Chords)

Coming to back to where we started
Im only passing through
I've become a ghost in your garden
Faded into view

Broke my heart with sticks and stones
Swore I'm never coming home
Lasts words never written down

Been so long since Ive been gone
Doubt if you'll know me at all
Down pour, Did I make you proud?

 If there is a line I'll cross it
No lesson will I learn
Even if I'm standing on it
No bridge that I wont burn

Coming to back to where we started
Im only passing through
I've become a ghost in your garden
Faded into view

Day is short an my shadows long
one more out to Wichita 
sunlight never felt so kind

If there is a line I'll cross it
No lesson will I learn
Even if I'm standing on it
No bridge that I wont burn

Coming to back to where we started
Im only passing through
I've become a ghost in your garden
Faded into view

Ghost solo Tabs by Slash

 


e|-----------------------------7-----9-----9----b11---9-11---9h11p9----9----|
b|-------------------------------------b12---12--11-----------------12------|
g|---------------4h6p4-1----/8---/10----------------------------------------|
D|----4h6p4-1-/6------------------------------------------------------------|
A|-/6-----------------------------------------------------------------------|
E|--------------------------------------------------------------------------|



e|--12---9-----------------------------9------------------------------------|
b|b12--12---12-9-----------9-12------9----9-12-9----------------------------|
g|---------------b11-9-b11-------b11--------------12-11h12p11--9------------|
D|---------------------------------------------------------------11---------|
A|--------------------------------------------------------------------------|
E|--------------------------------------------------------------------------|



e|--------------------------------------------------------------------------|
b|-b9----------b9-----------------------------------------------------------|
g|-b9----------b9-----------------------------------------------------------|
D|----11-9--------11-9----9-------------------------------------------------|
A|---------11----------11---11-9-7-9-7-------b9-7----b7---9-7---------------|
E|------------------------------------9-7---------9-----------9-7-----------|



e|------------------------------------------------------12--b14-b14-12------|
b|-------------------12---------------------12----12-14----------------14---|
g|----------------9-b11--9-11 9-------11/13----13---------------------------|
D|------9----9-11---------------11-9----------------------------------------|
A|-9/11---11----------------------------------------------------------------|
E|--------------------------------------------------------------------------|



e|-12-14-b16--12-14-12------------9-----12----------------------------------|
b|---------------------14----/9-9---b12-----9h12p9----9---9--9-12---9-------|
g|-------------------------------------------------11----b11-------b11------|
D|--------------------------------------------------------------------------|
A|--------------------------------------------------------------------------|
E|--------------------------------------------------------------------------|



e|----------------------------------------------------------------------------|
b|--------------------------------10-0----12-0----10-0------------------------|
g|--b11-9-11-9-------------------------11------11------11---------------------|
D|-------------11-9-----------------------------------------------------------|
A|----------------------------------------------------------------------------|
E|----------------------------------------------------------------------------|

If You Have Ghosts chords – Ghost

 Ghost - If You Have Ghosts (Roky Erickson Cover)


i've been using this chording for this song and i think it sounds pretty good on a nice 
ole grandpa guitars
 D F#m A D F#m A 
If you have ghosts then you have everything
 D F#m A 
If you have ghosts then you have everything
 E 
You can say anything you want
 D 
And you can do anything you want to do
 F#m A Fm# 
If you have ghosts then you have everything
 D F#m A 
Wine never does that
 D F#m A 
Wine never does that
 E 
You can call it surprise, there it is
 D 
And a part of it is me
 F#m A F#m 
Wine never does that

Same chords as before

In the night I am real
In the night I am real
The moon to the left is a part of my thoughts
And a part of me is me
Forever is the wind
In the night I am real

Solo is just the versechords
Repeat verse chords

I don't want my fangs too long
I don't want my fangs too long
The moon to the left is a part of my thoughts
And a part of me is me
Forever is the wind
I don't want my fangs too long

 D F#m A E     (repeat 
till end)
If you have ghosts then you have everything
If you have ghosts then you have everything
If you have ghosts then you have everything
If you have ghosts then you have everything

pretty simple version of the song hope it's useful :)

The Ghost Of You chords – Michael Learns To Rock V2

 Ghost Of You

Intro:  Gsus    -    G   (2x) 

 G Am     - Am/B C             - Am / B 
Summer's ended and without a trace
 Am D G D G 
time goes by - while you remain
        Am       - Am/B C               - Am / B  -  Am 
Funny how I thought I walked on through
           G D 
with my heart in one

[Chorus:]
 G G/F# Em          -/ D 
Why do I still cry for you
 C C/B Am D 
dying to get close to you
 G G/F# Em A7 
Why do I still fear to face
       C D - G D 
the ghost of you


 G Am     - Am/B C             - Am / B 
How I tried to get you of my mind
 Am D G D G 
but you return - all the time
        Am       - Am/B C          - Am / B  -  Am 
I believed I could just let you go
           G D 
like the fool I am

Baby..

[Chorus:]

 G G/F# Em          -/ D 
Why do I still cry for you
 C C/B Am D 
dying to get close to you
 G G/F# Em A7 
Why do I still fear to face
       C D - G D 
the ghost of you

[Release:]
 Bm Em              / D  -  C 
I've been trying to release you
                              G 
to get my feet back on the ground
 Bm Em 
Still I need my hope to hold on to
 F 
even if I know i should back away
 C D Dsus D 
It's just a part of me that I can't erase (heeyeeeey)

Baby

[Chorus:]



 G G/F# Em          -/ D 
Why do I still cry for you
 C C/B Am D 
dying to get close to you
 G G/F# Em A7 
Why do I still fear to face
       C D - G D 
the ghost of you

[Outro:]

Baby, baby why
 G G/F# Em               -/ D 
Anyway I try I'm still reminded (the ghost of you)
 C C/B Am D     
Anywhere I go I keep coliding with  (the ghost of you)
 G G/F# Em A7 C   
I've given up I just can't fight it (the ghost of you)  
   D G 
of you

 G G/F# Em A7 C 
Everytime I look away I see 
             D - G 
the ghost of you


please rate / comment..