Tag: Girls

Girls Like You chords by Maroon 5 ft. Cardi B

[Verse 1]
       C                 G              Am  F
Spent 24 hours, I need more hours with you
                C              G     Am F
You spent the weekend getting even, ooh
               C                  G                  Am  F
We spent the late nights making things right between us

[Pre-Chorus]
             C
But now it's all good, babe
           G
Roll that back wood, babe
          Am       F
And play me close

[Chorus]
         C                              G
'Cause girls like you run 'round with guys like me
                   Am
'Til sun down when I come through
         F
I need a girl like you, yeah yeah
          C                            G
Girls like you love fun, and yeah, me too
                 Am
What I want when I come through
          F
I need a girl like you, yeah yeah

[Post-Chorus]
C                G
Yeah yeah yeah, yeah yeah yeah
Am       F
I need a girl like you, yeah yeah
C                G
Yeah yeah yeah, yeah yeah yeah
Am                 F
I need a girl like you

[Verse 2]
         C                 G              Am  F
I spent last night on the last flight to you
              C                 G      Am  F
Took a whole day up tryna get way up, ooh
                  C                 G              Am     F
We spent the daylight tryna make things right between us

[Pre-Chorus]
             C
But now it's all good, babe
           G
Roll that back wood, babe
          Am       F
And play me close

[Chorus]
         C                              G
'Cause girls like you run 'round with guys like me
                   Am
'Til sun down when I come through
         F
I need a girl like you, yeah yeah
          C                            G
Girls like you love fun, and yeah, me too
                 Am
What I want when I come through
          F
I need a girl like you, yeah yeah

[Post-Chorus]
C                G
Yeah yeah yeah, yeah yeah yeah
Am       F
I need a girl like you, yeah yeah
C                G
Yeah yeah yeah, yeah yeah yeah
Am                 F
I need a girl like you

[Bridge]
C
Maybe it's 6:45
G
Maybe I'm barely alive
Am                                   F
Maybe you've taken my shit for the last time
C
Maybe I know that I'm drunk
G
Maybe I know you're the one
Am                                   F
Maybe you're thinking it's better if you drive

[Chorus]
        C                               G
'Cause girls like you run 'round with guys like me
                   Am              F
'Til sun down when I come through
I need a girl like you, yeah
        C                               G
'Cause girls like you run 'round with guys like me
                   Am              F
'Til sun down when I come through
I need a girl like you, yeah
C                             G
Girls like you love fun, and yeah, me too
                 Am
What I want when I come through
           F
I need a girl like you, yeah yeah

[Post-Chorus]
C                G
Yeah yeah yeah, yeah yeah yeah
Am       F
I need a girl like you, yeah yeah
C                G
Yeah yeah yeah, yeah yeah yeah
Am                 F
I need a girl like you

[Outro]
C G Am F

Most Girls Piano Chords by Hailee Steinfeld

[Verse 1]
 A           F#m                     
Some girls, feel best in their tiny dresses
 D            E            
Some girls, nothin' but sweatpants, looking like a princess
A            F#m
Some girls, kiss new lips every single night
         D                                           E
They're stayin' out late cause they just celebrating life

[Pre-Chorus]
               A               F#M
You know some days you feel so good in your own skin
           D                           E
But it's okay if you wanna change the body that you came in
                  A                F#m      
'Cause you look greatest when you feel like a damn queen
                 D                                E
We're all just playing a game in a way, trying to win at life

[Chorus]
 A                F#m          
Most girls are smart and strong and beautiful
 D                          E
Most girls, work hard, go far, we are unstoppable
A                F#m
Most girls, our fight to make every day
     D          
No two are the same   
E                                  A    D
I wanna be like, I wanna be like, most girls
A                E                  A   D
I wanna be like, I wanna be like, most girls
A        D
A                E
I wanna be like, I wanna be like
A        D
A                E
I wanna be like, I wanna be like
A        D
A                E
I wanna be like, I wanna be like

[Verse 2]
 A           F#m
Some girls, like to keep their physique real private
 D                E        
Some girls, wear jeans so tight, 'cause it feels so right, yeah
A            F#m     
Some girls, every day searching, keep the page turning
 D                           E
Sleepin' in late cause they just celebrating life

[Pre-Chorus]
               A               F#M
You know some days you feel so good in your own skin
           D                           E
But it's okay if you wanna change the body that you came in
                  A                F#m      
'Cause you look greatest when you feel like a damn queen
                 D                                E
We're all just playing a game in a way, trying to win at life

[Chorus]
 A                F#m          
Most girls are smart and strong and beautiful
 D                          E
Most girls, work hard, go far, we are unstoppable
A                F#m
Most girls, our fight to make every day
     D          
No two are the same   
E                                  A    D
I wanna be like, I wanna be like, most girls
A                E                  A   D
I wanna be like, I wanna be like, most girls
A        D
A                E
I wanna be like, I wanna be like
A        D
A                E
I wanna be like, I wanna be like
A        D
A                E
I wanna be like, I wanna be like

[Bridge]
 A     D    A      E
Most girls, yeah
A      D
Most girls
        A                  E
Wanna be, wanna be, wanna be
A        D        F#m
Most girls, our fight to make every day
N.C.
No two are the same
N.C.
I wanna be like

[Chorus]
A     D
Most girls
A           E    A             D   A    E
I wanna be like, I wanna be like, most girls
A        D
A                E
I wanna be like, I wanna be like
A        D
A                E
I wanna be like, I wanna be like
A        D
A                E
I wanna be like,

Most Girls Chords by Hailee Steinfeld

[Verse 1]
 A           F#m                     
Some girls, feel best in their tiny dresses
 D            E            
Some girls, nothin' but sweatpants, looking like a princess
A            F#m
Some girls, kiss new lips every single night
         D                                           E
They're stayin' out late cause they just celebrating life

[Pre-Chorus]
               A               F#M
You know some days you feel so good in your own skin
           D                           E
But it's okay if you wanna change the body that you came in
                  A                F#m      
'Cause you look greatest when you feel like a damn queen
                 D                                E
We're all just playing a game in a way, trying to win at life

[Chorus]
 A                F#m          
Most girls are smart and strong and beautiful
 D                          E
Most girls, work hard, go far, we are unstoppable
A                F#m
Most girls, our fight to make every day
     D          
No two are the same   
E                                  A    D
I wanna be like, I wanna be like, most girls
A                E                  A   D
I wanna be like, I wanna be like, most girls
A        D
A                E
I wanna be like, I wanna be like
A        D
A                E
I wanna be like, I wanna be like
A        D
A                E
I wanna be like, I wanna be like

[Verse 2]
 A           F#m
Some girls, like to keep their physique real private
 D                E        
Some girls, wear jeans so tight, 'cause it feels so right, yeah
A            F#m     
Some girls, every day searching, keep the page turning
 D                           E
Sleepin' in late cause they just celebrating life

[Pre-Chorus]
               A               F#M
You know some days you feel so good in your own skin
           D                           E
But it's okay if you wanna change the body that you came in
                  A                F#m      
'Cause you look greatest when you feel like a damn queen
                 D                                E
We're all just playing a game in a way, trying to win at life

[Chorus]
 A                F#m          
Most girls are smart and strong and beautiful
 D                          E
Most girls, work hard, go far, we are unstoppable
A                F#m
Most girls, our fight to make every day
     D          
No two are the same   
E                                  A    D
I wanna be like, I wanna be like, most girls
A                E                  A   D
I wanna be like, I wanna be like, most girls
A        D
A                E
I wanna be like, I wanna be like
A        D
A                E
I wanna be like, I wanna be like
A        D
A                E
I wanna be like, I wanna be like

[Bridge]
 A     D    A      E
Most girls, yeah
A      D
Most girls
        A                  E
Wanna be, wanna be, wanna be
A        D        F#m
Most girls, our fight to make every day
N.C.
No two are the same
N.C.
I wanna be like

[Chorus]
A     D
Most girls
A           E    A             D   A    E
I wanna be like, I wanna be like, most girls
A        D
A                E
I wanna be like, I wanna be like
A        D
A                E
I wanna be like, I wanna be like
A        D
A                E
I wanna be like,

Some Girls Are Bigger Than Others chords – The Smiths Vsion 2

 Song:      Some Girls Are Bigger Than Others
Artists:   The Smiths
     The Queen Is Dead, 1986
Tempo:     4|4
Style:     Alt-Melodic
Tuning:    Standard

No Capo

Chords:                
           EADGBe      
 A           577655       
 B           799877       
 G#m         X66444       
 C#m         X46654       
 B           799877       
 E           022100              


INTRO:
(Fade In)              (Fade Out)   
|N.C.   | A B | G#m     | C#m    |
      (FadeIn)
| A B | C#m     | A B | E      |


BRIDGE 1:
| G#m     | C#m     | A B | C#m    |
| A B | C#m     | A B | E      |



VERSE 1:
 C#m B 
From the ice-age to the dole-age,
 E                     
There is but one concern.
 G#m                
I have just discovered:


CHORUS 1:
 C#m A B      
Some girls are bigger than others,
 C#m A B 
Some girls are bigger than others.
 E G#m 
Some girls mothers are bigger than other girls mothers.
 C#m A B      
Some girls are bigger than others,
 C#m A B 
Some girls are bigger than others.
 E G#m 
Some girls mothers are bigger than other girls mothers.


INSTRUMENTAL:
| C#m     | A B | C#m     | A B |
| C#m     | A B | E               |


VERSE 2:
 C#m B 
As Antony said to Cleopatra,
 E                      
As he opened a crate of ale.
 G#m  
Oh I say:


CHORUS 2:
 C#m A B       
Some girls are bigger than others,
 C#m A B  
Some girls are bigger than others.
 E G#m 
Some girls mothers are bigger than other girls mothers.
 C#m A B       
Some girls are bigger than others,
 C#m A B  
Some girls are bigger than others.  
 E G#m C#m                
Some girls mothers are bigger than other girls mothers.


SEMICHORUS 1:(Radio Vox)
 A B C#m  
"Send me your pillow, 
 A B C#m 
The one that you dream on”.
 E G#m C#m 
(No words)
 A B C#m  
"Send me your pillow,
 A B C#m  
The one that you dream on" 
 A C E 
And I'll send you mi-i-i-i-ne.


CODA & INSTRUMENTAL:(Repeat Lead over to Fade Out)
| C#m     | A B     | C#m     | A B     |
| C#m     | A B     | C#m     | A B     |
| C#m     | A       | C#m     | A       |
| C#m     | A       | C#m     | A       |

| C#m     | A       | C#m     | A       |
| C#m     | A       | C#m     | A       |
| C#m     | A       | C#m     | A       |
| C#m     | A       | C#m     | A       |

|C#m    |A     

Bad Girls Tabs – Peer Günt

 Intro:
                              x3
E||-----------------------------||--------------------|
B||-----------------------------||--------------------|
G||.---------------------------.||--------------------|
D||.------2-----2-----2--------.||-------2-----2------|
A||-----------------------------||--------------------|
E||-0--3-----3-----3-----3-2----||-0--3-----3---------|


Verse:

E||-----------------------------||
B||-----------------------------||
G||.---------------------------.||
D||.------2-----2-----2--------.||
A||-----------------------------||
E||-0--3-----3-----3-----3-2----||


Chorus:

E|------|------||-----------------------------||
B|--3---|------||-----------------------------||
G|--2---|--2---||.---------------------------.||
D|--0---|--2---||.------2-----2-----2--------.||
A|------|--0---||-----------------------------||
E|------|------||-0--3-----3-----3-----3-2----||


Bridge:

E||------|-----|-----|------||
B||------|-----|-----|------||
G||.--4--|-----|--5--|--7--.||
D||.--4--|--5--|--5--|--7--.||
A||---2--|--5--|--3--|--5---||
E||------|--3--|-----|------||

Miss You Bow Wow chords – Girls Aloud V2

 Capo 3rd Fret


The chords transcribed correspond to the tone of the chord, not the finger pattern:
(022000, from the capo, is written as Gm, not Em).

You can play these chords without a capo using the corresponding chord patterns: 
Using a capo is best (and easier) - the outro solo is definitely easier.

Fairly simple strumming pattern (listen to song for the rhythm), but has a fast pace.


3rd capo chord patterns
Chords used Gm; 022000, Bb; 320003, C; 002220, Eb; 032010, F; 000232


[Intro]

   G5 Bb5 C5 Eb5 
    |---------------------------------|
    |---------------------------------|
from|---------------------------------|
capo|----------------2--2---2--2------|
    |-2-2-2---2--2---0--0---3--3------|
    |-0-0-0---3--3--------------------|


[Verse] (x2)
(Chords:  Gm ,  Bb ,  C ,  Eb  = 'Chord Patterns'  Em ,  G ,  A ,  C ) 

 Gm Bb C Eb 
Everybody love-, love-, loves everybody
 Gm Bb C Eb 
Everybody love-, love-, loves everybody
 Gm Bb C Eb 
Everybody love-, love-, loves everybody
 Gm Bb C Eb 
Everybody loves  a lover


[Pre-Chorus Bridge]
(Chords:  Eb ,  Bb ,  F ,  C  /  Eb ,  Bb ,  Eb ,  F 
= Chord Patterns  C ,  G ,  D ,  A  /  C ,  G ,  C ,  D )

       Eb Bb 
All I do, do, do when my demons hit
        F C 
I dial 9-9-9 saying get a doctor
 Eb Bb Eb F 
So damn tired of your shadow breaking my heart in two oh baby
    Eb Bb 
At night, when my demons hit
        F C 
I dial 9-9-9 say I need a doctor
 Eb Bb Eb F 
So damn tired of your shadow making my heart and soul go crazy 


[Chorus]
(Chords:  Eb ,  Bb ,  F ,  C  /  Eb ,  Bb ,  Eb ,  F 
= Chord Patterns  C ,  G ,  D ,  A  /  C ,  G ,  C ,  D )

   Eb Bb 
I miss you now, now, now
    F C 
You're looking bow wow, wow
 Eb Bb 
I'm slipping down, down, down
   Eb F 
I miss you now, now, now
   Eb Bb 
I miss you now, now, now
        Eb Gm 
You're looking bow wow, wow
     D A 
I'm slipping down, down, down
   D E 
I miss you now, now, now


[Post-Chorus Bridge]

     Gm Bb 
I remember living the dream
                 Eb 
20 minutes in a hotel bar
                          F 
Then I slipped into your girlfriends jeans
         Gm Bb 
And I remember, sayin' baby hold tight
                 Eb 
20 hours in the twilight zone
                        F 
The only lovers in the world that night
      Gm         
Oh I(I,I,I,I)



[Second Verse] x2
(Chords:  Gm ,  Bb ,  C ,  Eb  = 'Chord Patterns'  Em ,  G ,  A ,  C )

        Gm Bb C Eb 
You're talking like you're gonna do the stupid thing
 Gm Bb <span

Baby Steps intro Tabs – Girls Generation

 -------------------------------------------------------------------------------
                             Baby Steps - TaeTiSeo
-------------------------------------------------------------------------------
: Angela Chibbi
DarkShadowDimension

Tuning:eBGDAE

e|-------2-0----------------------------2-0----------------------------------|
B|------------3-2-0---------------------3----3-2-0---------------------------|
G|-------4----------2------2----------2------------2-----2-------------------|
D|-----4-----------------0----------0-------------------2--------------------|
A|---2-------------------------------------------------0---------------------|
E|---------------------3-----------------------------------------------------|

e|-------2-0----------------------------------2-0----------------------------|
B|-------------3-2-0--------------------------3----3-2-0--------2------------|
G|-------4------------2-----2------0--------2---2--------2----2----2-2---2---|
D|-----4---4---------------0--0-0---------0----------0------0----------0-----|
A|---2-----------2-----------------------------------------------------------|
E|-----------------------3--------3------------------------------------------| 
************************************

| /   slide up
| \   slide down
| h   hammer-on
| p   pull-off
| ~   vibrato
| +   harmonic
| x   Mute note
| b   Bend
| pb  Pre-bend
| br  Bend release
| pbr Pre-bend release
| brb Bend release bend

************************************

When The Girls Get Here chords – Young Fresh Fellows

 When the Girls Get Here 
by Young Fresh Fellows
 Duke

*Just a little ditty about the stupid things guys do to attract the opposite sex.*

(spoken)
Hey everybody...the girls are here!

Intro:  D D 
When the girls get here
                             G 
We'll talk about integrated circuits and things
                  D 
To show them how smart we are
 G A D 
We'll set our hair on fire (that should impress them)
 G A D 
Spill beer all over our t-shirts (accidentally)
 E A 
We'll show them what kind of guys we are


          D 
When the girls get here
                   G 
We'll do a little funky dance
                  D 
To show them how cool we are
 G A D 
We'll throw our socks in the closet (where it keeps them warm)
 G A D  
We'll wear berets with dark glasses (kinda like a beatnik)
 E A 
We'll show them what kind of guys we are


     E A D 
And all of the guys that we know
         B G E A D 
Will be so envious of our charm and our wit
     E 
But we don't need them
           F#m 
We've got lots of good friends
        G A 
And we know that the real fun begins
          D A G 
When the girls get here 
          D A G 
When the girls get here 
          D A G 
When the girls get here 


 A  
(key change) 
 B E 
When the girls get here...
            A 
We'll pull out our guitars
                         E 
And tell them how we're gonna be stars
 A B E 
We'll put decals on our suitcase (when the girls get here)
 A B E 
We'll twist with all of their friends (when the girls get here)
 A B E 
We'll follow old people home (when the girls get here)
 A B E 
We'll play dead in the drug store (when the girls get here)
 A B E 
Do figure eights in our four-bys (when the girls get here)
 A B E 
We'll put mirrors on the ceiling (when the girls get here)
 A B E 
And we'll spin discs by the Aztecs (when the girls get here)
 A B E 
We'll swallow fish in a phone booth
 F#m A B 
We'll show them what kind of guys we are...


(spoken)
One, two, three!


          E A B 
When the girls get here 
          E A B 
When the girls get here 
          E A B 
When the girls get here (when the girls get here)
          E A B 
When the girls get here 
          E A B 
When the girls get here (when the girls get here)
          E A B 
When the girls get here (when the girls get here)
          E A B 
When the girls get here (when the girls get here)
 A B E 
Girls get here
 A B E 
Girls get here
 A B 
The girls get...

(spoken)
I think they're here now 


*Hope you enjoy playing it!
---Duke

Strut chords by The Cheetah Girls

 Em 
You can breathe in the music the city makes
 Cadd9 
Move by the rhythm the Gypsies play
 Am D 
Deep inside it comes alive.
 Em 
There is a whisper that feeds your soul
 Cadd9 
Words so beautiful like a Spanish rose
 Am D 
Til you're hypnotized that's when you've arrived

[Chorus:]
            Em 
You got to strut like you mean it

Free your mind
          Cadd9 
It's not enough just to dream it
 Am D 
Come on, come on.
 Em 
Get up when you feel it

It's your chance to shine
 Cadd9 
Strut like you mean it
 Am D Em 
Come on, come on, come on, yeah.
 Cadd9 Am D 
Oh, oh, oh, yeah.

 Em 
Poundin' the pavements kicking through the streets
 Cadd9 Am D 
To wonder like Picasso in the Barcelona heat.
 Em 
Passion is the fashion and life is poetry
 Cadd9 Am D 
Welcome to another world where every heart can beat 
 Em Cadd9 Am D 
In a different tempo there's never a wrong one (never a wrong one (never a wrong one))
 Em 
Building to a crescendo
 Cadd9 Am D 
You know the journey has just begun

[Chorus:]
            Em 
You got to strut like you mean it

Free your mind
          Cadd9 
It's not enough just to dream it
 Am D 
Come on, come on.
 Em 
Get up when you feel it

It's your chance to shine
 Cadd9 
Strut like you mean it
 Am D Em 
Come on, come on, come on, yeah.
 Cadd9 Am D 
Oh, oh, oh, yeah.

 Em                        
Hey feel the flow when you just can't move no more
 Cadd9 Am D 
The city wants to show you something, something 
 Em 
A heart unfolds that you will never know
 Cadd9 Am D Em 
Barcelona soul says something, something good is coming, is coming, yeah
 Cadd9 Am D 
Everybody knows that something good is coming on!

[Chorus:]
            Em 
You got to strut like you mean it

Free your mind
          Cadd9 
It's not enough just to dream it
 Am D 
Come on, come on.
 Em 
Get up when you feel it

It's your chance to shine
 Cadd9 
Strut like you mean it
 Am D Em 
Come on, come on, come on, yeah.
 Cadd9 Am D 
Oh, oh, oh, yeah.


I Lose Tabs – Girls Names

 Girls Names - I Lose
Track 6 "Dead To Me" (Slumberland 2011).

 Isaac Murguia, February 2015.
Originally uploaded to Ultimate-Guitar.com
Contact: www.youtube.com/user/Goadiroth

INTRO:
   C#   D#m   B
e|-9----11----7----|
B|-9----11----7----|
G|-10---11----8----|
D|-11---13----9----|
A|-11---13----9----|
E|-9----11----7----| [x4]

VERSE: (with fast strumming)
e|-9----9----11----7----|
B|-9----9----11----7----| (no lyrics here)
G|-10---10---11----8----|
D|-11---11---13----9----|
A|-11---11---13----9----|
E|-9----9----11----7----| [x2]

CHORUS: [x2]
  Guitar 1
e|-9----9----11----7----|
B|-9----9----11----7----|
G|-10---10---11----8----|
D|-11---11---13----9----|
A|-11---11---13----9----|
E|-9----9----11----7----|
  Guitar 2
e|-----------------------|---------------------|
B|-------9-------9-------|-------9-------9-----|
G|----10------10------10-|----10------10-------|
D|-11------11------11----|-11------11------11--|
A|-----------------------|---------------------|
E|-----------------------|---------------------|

e|-----------------------|----------------|
B|-------11-------11-----|-----7-----7----|
G|----11-------11--------|---8-----8------|
D|-13-------13-------13--|-9-----9-----9--|
A|-----------------------|----------------|
E|-----------------------|----------------|

Repeat VERSE [x4]

PRE-CHORUS:
e|-9---9--9---9----7-9--7-6-7-| "i don't miss my old life"
B|-9---9--9---9----7-9--7-6-7-|
G|-10--10-10--10---8-10-8-7-8-|
D|-11--11-11--11---9-11-9-8-9-|
A|-11--11-11--11---9-11-9-8-9-|
E|-9---9--9---9----7-9--7-6-7-| [x4]

Repeat CHORUS
Repeat VERSE [x4]

PRE-CHORUS VARIATION:
e|-9---9--9---9----7-9--7-6-7-|      |-9---9--9---9----7-9--7-6-4-|
B|-9---9--9---9----7-9--7-6-7-|      |-9---9--9---9----7-9--7-6-4-|
G|-10--10-10--10---8-10-8-7-8-|      |-10--10-10--10---8-10-8-7-5-|
D|-11--11-11--11---9-11-9-8-9-|      |-11--11-11--11---9-11-9-8-6-|
A|-11--11-11--11---9-11-9-8-9-|      |-11--11-11--11---9-11-9-8-6-|
E|-9---9--9---9----7-9--7-6-7-| [x3] |-9---9--9---9----7-9--7-6-4-|

BRIDGE:
e|-2--2-2--2---7-9--7-6-4-|
B|-2--2-2--2---7-9--7-6-4-|
G|-3--3-3--3---8-10-8-7-5-|
D|-4--4-4--4---9-11-9-8-6-|
A|-4--4-4--4---9-11-9-8-6-|
E|-2--2-2--2---7-9--7-6-4-| [x4]

Repeat CHORUS
Repeat VERSE [x4]
Repeat PRE-CHORUS VARIATION
Repeat BRIDGE
Repeat VERSE [x2]

OUTRO:
e|-9---9-/11--9----7-7-7-6-7-|      |-9---9-/11--9----7-7-7-6-4-|
B|-9---9-/11--9----7-7-7-6-7-|      |-9---9-/11--9----7-7-7-6-4-|
G|-10--10/12--10---8-8-8-7-8-|      |-10--10/12--10---8-8-8-7-5-|
D|-11--11/13--11---9-9-9-8-9-|      |-11--11/13--11---9-9-9-8-6-|
A|-11--11/13--11---9-9-9-8-9-|      |-11--11/13--11---9-9-9-8-6-|
E|-9---9-/11--9----7-7-7-6-7-| [x3] |-9---9-/11--9----7-7-7-6-4-|

e|-2-----|
B|-2-----|
G|-3-----|
D|-4-----|
A|-4-----|
E|-2-----|

End. Please rate! :D

Something New chords – Girls Aloud

 Capo 2
 Em G D Am 

Pre-chorus:
 Em G 
Go girls g-g-go, go, go
 D Am 
We girls gonna take control
 Em G 
You boys better know, know, know
 D Am 
We girls gonna run this show
 Em G 
Go girls g-g-go, go, go
 D Am Em 
We girls gonna take control
 G 
No, no
 D Am 
We girls gonna run this, run this

Chorus:
        Em G D 
All I want is something new
  Am Em G D 
Something I can hold on to
 Am Em 
I don't wanna talk
 G D 
I just wanna dance
 Am Em 
Baby let it drop
  G D Am 
Catch me if you can

Verse 1:
  Em G 
Down with the rhythm on another beat
        D Am 
Gotta take that back what you said to me
  Em G 
Never giving in when the sun's so high
        D Am 
Gotta feel that heat when you call, say bye
  Em G 
Down with the rhythm on another street
        D Am 
Gotta let this go cause I feel so free
  Em G D Am 
Never giving in cause I need you here, ah, ah

Pre-chorus:
 Em G 
Go girls g-g-go, go, go
 D Am 
We girls gonna take control
 Em G 
You boys better know, know, know
 D Am 
We girls gonna run this show
 Em G 
Go girls g-g-go, go, go
 D Am Em 
We girls gonna take control
 G 
No, no
 D Am 
We girls gonna run this, run this

Chorus:
        Em G D 
All I want is something new
  Am Em G D 
Something I can hold on to
 Am Em 
I don't wanna talk
 G D 
I just wanna dance
 Am Em 
Baby let it drop
  G D Am 
Catch me if you can

Cause we're the leaders of the pack

Verse 2:
 Em G D Am Em G 
   Take a walk on the wild side of life, life
   D Am 
(Head over heels, we're out of time)
 Em G D Am Em G 
   Take a walk on the wild side of life, life
 D Am 
   Bring it back to the other side
  Em G    
Feel the beat deep underground
  D Am 
Boy tonight it's getting loud
  Em G 
We can go, go anywhere
  D Am 
We don't care, let me take it higher
  Em G 
We can do, do anything
   D Am 
Play the game and maybe you'll win
  Em G 
Boy tonight you can't hold me back
  D Am 
Do what I want, yeah I like it that

We girls gonna run this show

Chorus:   x2
        Em G D 
All I want is something new
  Am Em G D 
Something I can hold on to
 Am Em 
I don't wanna talk
 G D 
I just wanna dance
 Am Em 
Baby let it drop
  G D Am 
Catch me if you can

Bridge:
                                 Em 
Cause we're the leaders of the pack
          G</spa

Every Now And Then chords – Girls Aloud

 Capo 4

 Am C G Dm 
All this time, looking for a light
 Am C G Am 
All this time, I’m still trying
    C G 
I gave you all my love
    Dm Am 
I took it back again
          C G 
But the candle in my heart
      Dm Am    
It flickers now and then
     C G 
I knew it from the start
     Dm Am 
I knew it at the end
     C G 
We said it never work
               Dm Am 
But I still think about you every now and then
      C G 
And you’re out of my heart
   Dm Am 
Swear I can’t pretend
           C G 
But the heart tears apart
              Dm Am 
As I still think about you every now and then
        C G 
Every now and then, 
  Dm Am 
Now, right then
        C G Dm 
Right now, right then, right now
Oh right now

(here you can just move to Capo 6 and continue with the same pattern)

  Bm D 
Never ever going back,
    A Em 
I said I never would again,
       Bm D 
it’s better now that we’re apart,
               A Em 
but I still think about you every now and then
  Bm D 
now and then, now and then, 'bout you every now and then
  A 
now and then,
                     Em 
but I still think about you every now and then
  Bm D 
now and then, now and then, 'bout you every now and then
  A 
now and then,
                     Em 
but I still think about you every now and then

  Bm D 
Never ever going back,
    A Em 
I said I never would again,
       Bm D 
it’s better now that we’re apart,
               A Em 
but I still think about you every now and then
  Bm D 
now and then, now and then, 'bout you every now and then
  A 
now and then,
                     Em 
but I still think about you every now and then
  Bm D 
now and then, now and then, 'bout you every now and then
  A 
now and then,
                     Em 
but I still think about you every now and then

                   Bm D 
I gave you everything,
                   A Em 
I even wore your ring,
                   Bm D 
you got under my skin,
                A Em 
and you know why.
                   Bm D 
you left me wondering,
                      A Em 
you left the shadows in,
                   Bm D 
the seven deadly sins,
                 A Em 
that you can't hide.
                             Bm D 
'Cause if the love is not enough,
                       A Em 
when I’m going gets tough,
                           Bm 
you give me all that you got, 
         D A Em 
but my heart won’t beat again

  Bm D 
Never ever going back,
    A Em 
I said I never would again,
       Bm D 
it’s better now that we’re apart,
               A Em 
but I still think about you every now and then
  Bm D 
now and then, now and then, 'bout you ever

Girls Und Panzer – Katyusha Tabs – Misc Cartoons

 -------------------------------------------------------------------------------
        Katyusha - Girls und Panzer (Anime version of a Russian folk song)
-------------------------------------------------------------------------------
:Seth Drake
sethdrake150@hotmail.com

Tuning:Standard

   Intro                       Second guitar enter
e|---10------9-------7-5-3-2-7~----3------2----------5-3-2-9-7~~~\---------------------|
B|-------12------10--------------------5-----------3-----------------------------------|
G|-------------------------------------------------------------------------------------|
D|-------------------------------------------------------------------------------------|
A|-- Guitar 1 -------------------------------------------------------------------------|
E|-------------------------------------------------------------------------------------|
                               Bm
e|-------------------------------------------------------------------------------------|
B|-------------------------------3---3---3---3---3---3---3---3---3---3---3---3---3---3-|
G|-------------------------------4---4---4---4---4---4---4---4---4---4---4---4---4---4-|
D|-------------------------------------------------------------------------------------|
A|-- Guitar 2 -----------------2-------2-------2-------2-------2-------2-------2-------|
E|---------------------------------2-------2-------2-------2-------2-------2-------2---|
 

   Vers
e|---------------------------------------------------------------------|
B|---------------------------------------------------------------------|
G|---4-----6-7-----4-7-7-6-4-6-------6-----7-9-----7-9-9-7-6-4---------|
D|-------------------------------4-------------------------------------|
A|---------------------------------------------------------------------|
E|---------------------------------------------------------------------|
     Bm                          F#                          Bm
e|---------------------------------------------------------------------|
B|-----3---3---3---3---3---3---3-------------------------------3---3---|
G|-----4---4---4---4---4---4---4---3---3---3---3---3---3---3---4---4---|
D|---------------------------------4---4---4---4---4---4---4-----------|
A|---2-------2-------2-------2-------4-------4-------4-------2---------|
E|-------2-------2-------2-------2-------2-------2-------2-------2-----|


   Ref
e|-------7---5---7-5-3-3-2---2---------3-----2-------------------------|
B|-------------------------5---------------5-------3-5-5-3-2-----------|
G|---4---------------------------4---------------------------4---------|
D|---------------------------------------------------------------------|
A|---------------------------------------------------------------------|
E|---------------------------------------------------------------------|
     Bm      D       Em      Bm      Em      Bm      F#      Bm
e|---------------------------------------------------------------------|
B|-----3---3---7---7---8---8---3---3---8---8---3---3-----------3---3---|
G|-----4---4---7---7---9---9---4---4---9---9---4---4---3---3---4---4---|
D|-----------------------------------------------------4---4-----------|
A|---2-------5-------7-------2-------7-------2-------4-------2---------|
E|-------2-------5-------7-------2-------7-------2-------2-------2-----|


Form:
-Intro
-Vers
-Ref x2
-Vers
-Ref x2
-Vers
-Ref x2
-Intro
-Vers
-Ref x2
-Vers
-Ref x2
-Intro


************************************

| /   slide up
| \   slide down
| h   hammer-on
| p   pull-off
| ~   vibrato
| +   harmonic
| x   Mute note
| b   Bend
| pb  Pre-bend
| br  Bend release
| pbr Pre-bend release
| brb Bend release bend

************************************

Ill Tell Me Ma chords – Traditional Irish V2

 CAPO 2

[Intro]
 C G C G C F C C            
I'll tell me ma, when I get home
 G C 
The boys won't leave the girls alone
 C                       
Pulled me hair, stolen me comb
       G C 
But that's alright, till I go home


[Chorus 1]

 C F 
She is handsome, she is pretty
 C G 
She is the belle of Dublin city
 C F 
She is a-courting one, two, three
 C G C 
Pray, can you tell me who is she?

[Chorus 2]

 C                         
Albert Mooney says he loves her
 G C 
All the boys are fightin' for her
 C 
Knock at the door, they're ringin' the bell
    G C 
"Hello, my true love are you well?"

[Chourus 3]

 C F 
Out she comes white as snow
  C G 
Rings on her fingers, bells on her toes
 C F 
Ol' Jenny Murray says that she'll die
          C G C 
If she doesn't get the fellow with the roving eye

          C             
Let the wind and the rain and the hail blow high
          G C 
And the snow come travelin' through the sky
  C               
She's as sweet as apple pie
  G C 
She'll get her own right by and by


 C F 
When she gets a lad of her own
      C G 
She won't tell her ma when she gets home
  C F 
Let them all come as they will
        C G C 
It's Albert Mooney she loves still


[:Repeat]

[Chorus 1]

 C F 
She is handsome, she is pretty
 C G 
She is the belle of Dublin city
 C F 
She is a-courting one, two, three
 C G C 
Pray, can you tell me who is she?

[Chorus 2]

 C                         
Albert Mooney says he loves her
 G C 
All the boys are fightin' for her
 C 
Knock at the door, they're ringin' the bell
   G C 
"Hello, my true love are you well?"

[Chourus 3]

 C F 
Out she comes white as snow
  C G 
Rings on her fingers, bells on her toes
 C F 
Ol' Jenny Murray says that she'll die
          C G C 
If she doesn't get the fellow with the roving eye

          C             
Let the wind and the rain and the hail blow high
          G C 
And the snow come travelin' through the sky
  C               
She's as sweet as apple pie
  G C 
She'll get her own right by and by


 C F 
When she gets a lad of her own
      C G 
She won't tell her ma when she gets home
  C F 
Let them all come as they will
        C G C 
It's Albert Mooney she loves still


[End:]


[Chorus 1]

 C F 
She is handsome, she is pretty
 C G 
She is the belle of Dublin city
 C F 
She is a-courting one, two, three
 C G D 
Pray, can you tell me who is she?

Snakes And Ladders chords – Scouting For Girls

 Bm G D A  x4

 Bm G             
It's always up and down with you
      D A 
This game you play is kinda twisted,
 Bm G 
Trying to guess your next move
    D A 
Is all I do cause I'm addicted
 Bm G 
I could leave it all behind
 D A 
Trouble is I know Id miss it


 Bm G 
Cause even though you play me like an xbox
 D A 
I dont want you to take your hands off
 Bm G 
Me me me
                    D A 
Cause Im all about you you you
                    Bm Bm 
Now Im starting to see see see
                     D A 
You aint ever gonna lose lose lose


         Bm G D A 
Here we are, playing this crazy game,
               Bm G D A 
We've come so far, but we're sliding down again
                 Bm G D A 
Like snakes and ladders, all that matters is trying to get back up,
                  Bm 
You making it so hard.
                    G A 
Why do you have to go and make this love
                 Bm G D A 
Like snakes and ladders
                 Bm G D A 
Like snakes and ladders


 Bm G         
Im running on adrenaline
     D A 
You always make my heart beat faster
 Bm G 
Im living on a fault line
      D A 
Just one step from disaster
 Bm G 
I used to get some sleep at night
     D A 
Now look at the before and after


 Bm G 
Cause even though you play me like an xbox
 D A 
I dont want you to take your hands off
 Bm G 
Me me me
                    D A 
Cause Im all about you you you
                    Bm Bm 
Now Im starting to see see see
                     D A 
You aint ever gonna lose lose lose


         Bm G D A 
Here we are, playing this crazy game,
               Bm G D A 
We've come so far, but we're sliding down again
                 Bm G D A 
Like snakes and ladders, all that matters is trying to get back up,
                  Bm 
You making it so hard.
                    G A 
Why do you have to go and make this love
                 Bm G D A 
Like snakes and ladders
                 Bm G D A 
Like snakes and ladders


 Bm A 
I dont want you to take your hands off
 G 
Me me me
              A Bm A 
Cause Im all about you you you
                    G 
Now Im starting to see see see
               A Bm A 
You aint ever gonna lose lose lose

                        G 
But you've only got to smile that smile,
                A Bm A 
And its like I never fell before,
                       G 
As long as you're the prize,
Im gonna throw the dice.
           A<

Ocean Cloud Tabs by Marillion

 As Marillionmusic has been down for a long time now, I thought of saving some brilliant
tabs of songs not found anywhere else by diving into the internet archives and posting
them here.
All the credits and props to the original transcriber. Thank your, whoever you are!

Marillion - Ocean Cloud
=======================

 Gary Jevon
====================

SECTION 1
=========

Intro

"He’s seen too much of life…
And there’s no going back…"


(Clean Gtr sound)

e|-------3---3--|-------3---3-----|-------3---3--|-------3----------0--|
B|-------3---3--|-------3---3-----|-------3---3--|-------3----------0--|
G|-------2---2--|-------0---0-2-0-|-------2---2--|-------0---2-/-4-----| x 2
D|---2---2---2--|---2---2---2-----|---2---2---2--|---2---2-------------|
A|---2---2---2--|---3---3---3-----|---2---2---2--|---3---3-------------|
E|---0---0---0--|-----------------|---0---0---0--|---------------------|


Verse 1
=======

“The loneliness calls him,
And the edge which must be sharpened…”

e|-------3---3--|-------3---3--|
B|-------3---3--|-------3---3--|
G|-------2---2--|-------0---0--| x 6
D|---2---2---2--|---2---2---2--|
A|---2---2---2--|---3---3---3--|
E|---0---0---0--|--------------|


e|---2---2---2-3-|-----------------------------|
B|---3---3---3---|---------3---------3---------|
G|---2---2---2---|------0---------0--------0---| x 2
D|---0---0---0---|-----------------------------|
A|---------------|---2---------3---------3-----|
E|---------------|-----------------------------|

Verse 2
=======

“The smell of the earth,
It's his favourite smell…”

e|-------3---3--|-------3---3--|
B|-------3---3--|-------3---3--|
G|-------2---2--|-------0---0--| x 8
D|---2---2---2--|---2---2---2--|
A|---2---2---2--|---3---3---3--|
E|---0---0---0--|--------------|

Chorus
======

"You can take all the boys and the girls in the world,
And I'll trade them this morning for my sweet Ocean Cloud…”

e|---2---2---2--|---0---0---0--|---3---3---3--|---3---2---2--|
B|---3---3---3--|---0---0---0--|---3---3---3--|---3---3---3--|
G|---4---4---4--|---2---2---2--|---0---0---0--|---2---2---2--| x 2
D|---4---4---4--|---2---2---2--|---2---2---2--|---0---0---0--|
A|---2---2---2--|---0---0---0--|---3---3---3--|--------------|
E|--------------|--------------|--------------|--------------|

Solo Build-Up
=============

(Overdiven Gtr Sound, with slide and volume control swell)

e|--------|--------|--------|--------|--------|--------|-------|---------|
B|--------|--------|--------|--------|--------|--------|-------|-10-/-12-|
G|--------|--------|--------|----2-/-|--4-----|----7-/-|--9----|---------|
D|--------|--------|--------|--------|--------|--------|-------|---------|
A|--------|--------|--------|--------|--------|--------|-------|---------|
E|--0-----|--------|--------|--------|--------|--------|-------|---------|

Solo (part 1)
=============

(Heavily Overdriven sound, with slide)

e|--12-----15--|--14----8---10--|---7--------------|------------------------|
B|-------------|----------------|-----7--8--7------|------------------------|
G|-------------|----------------|---------------7--|------7----------9--11--|
D|-------------|----------------|------------------|---7-----7-/-9----------|
A|-------------|----------------|------------------|------------------------|
E|-------------|----------------|------------------|------------------------|

e|-------------------------12-|---15---17--12----19--19--|-22---17---19--15-|
B|-------12--12---12---12-----|--------------------------|------------------|
G|--12------------------------|--------------------------|------------------|
D|----------------------------|--------------------------|------------------|
A|----------------------------|--------------------------|------------------|
E|----------------------------|--------------------------|------------------|

e|--17---14---10----------|--10-/-12-------10-/-12

Some Girls Are Bigger Than Others Tabs by Smiths V3

 Credit goes to http://www.youtube.com/watch?v=yh1nKVtjOg8

e|--------0-----------|-----0-----------­-|
B|-----------0-----0--|--------0--------­-|
G|--------------------|-----------4---4-­-|
D|-----6--------6-----|-------------4---­-|
A|--4-----------------|-/2--------------­-|
E|--------------------|-----------------­-|

e|-----------0-------|--------0---------­||
B|-------------------|-----4-----4------­||
G|--------8-------0--|-------------2----­||
D|-----7-------/6----|-/4------------4--­||
A|--0----------------|------------------­||
E|-------------------|------------------­||



e|--------0----------4-------|
B|-----4-----4---4-----4---4-|
G|-------------4---4-----4---|
D|-/6------------------------|
A|---------------------------|
E|---------------------------|

e|-----4--------------|----------------|   |--0-0-0-0-0-0-0-0-----|
B|--------5--4--------|----5-----7-----|   |--0-0-0-0-0-0-0-0-----|
G|--------------6-----|-------------8--|   |--1-1-1-1-1-1-1-1-----|
D|-----------------6--|-/7---/9--------|­x3   |--2-2-2-2-2-2-2-2----|
A|--4-----------------|----------------|   |--2-2-2-2-2-2-2-2-----|
E|--------------------|----------------|   |--0-0-0-0-0-0-0-0-----|

When You Cry chords – Girls Names

 When You Cry by Girls Names (off Dead to Me)

During the Intro Bridge and Bridge 1, the chords do not play. The lengths of the Intro 
Bridge and Bridge 1 are the same as Bridge 2.

Intro Bridge: Solo Guitar Plays  (x2)

Intro:   G G B A G G F F#   (x2)


Verse:

 G Am 
I wish that I told you

 Bm Am 
All the things that I meant

 G Am 
I wish you'd said that

 Bm C 
I was never sad


 G Am 
We've always been through all

 Bm Am 
Right across my bed

 G Am 
We're slight a step behind

 Bm C 
But I guess we're still my head


Chorus:

 C Am G 
I couldn't say what was on my mind

 C Am G 
I tried but ........ ceased to be kind

 C Am G 
I could've found the truth but a contact lies

 C Am G 
This is what it looks like when you cry



Bridge 1: Solo Guitar plays (x2)


Bridge 2:   G G B A G G F F#   (x2)


Verse:

 G Am 
I had a premonition

 Bm Am 
I took to the death

 G Am 
To see this hand

 Bm C 
if I left late too late


 G Am 
I had ..............

 Bm Am 
oh so many days

 G Am 
It's not that I'm honest

 Bm C 
It's just I've lost my ways


Chorus:

 C Am G 
I couldn't say what was on my mind

 C Am G 
I tried but ........ ceased to be kind

 C Am G 
I could've found the truth but a contact lies

 C Am G 
This is what it looks like when you cry


Bridge 1: Solo Guitar Plays (x1)


Solo:   C D Am   (x3)
        C D G 


Bridge 1: Solo Guitar Plays (x2)


Bridge 2:   G G B A G G F F#   (x2)

Thunder Acoustic chords – Boys Like Girls V7

                              Thunder (Acoustic)
                              Boys Like Girls
                                  Chords


 - Big_D

Email - Davidson_Dalton93

Ok. So many tabs of this song, and NONE are correct. The song is
Definitely a full step down. 

Tuning -
 
 D -||-
 A -||-
 F -||-
 C -||-
 G -||-
 D -||-

   
 
     E E/D# A/E B/E C#/E G#/E B A F#m/E 
 D -0-   D -0-   D -5-   D -2-   D -X-   D -4-   D -0-   D -0-   D -2-
 A -0-   A -0-   A -5-   A -4-   A -9-   A -5-   A -4-   A -2-   A -2-
 F -1-   F -1-   F -6-   F -4-   F -6-   F -4-   F -4-   F -2-   F -2-
 C -2-   C -1-   C -7-   C -2-   C -6-   C -6-   C -4-   C -2-   C -4-
 G -2-   G -X-   G -7-   G -2-   G -7-   G -x-   G -2-   G -0-   G -4-
 D -0-   D -X-   D -X-   D -X-   D -X-   D -x-   D -X-   D -X-   D -0-

 E 
Today is a winding road
 E/D# A/E B/E 
Thats taking me to places that I didnt want to go, whoa
 E 
Today in the blink of an eye
    E/D# A/E B/E 
I'm holding on to something and I do not know why I tried
          C#/E 
I tried to read between the lines (I tried to look in your eyes)
          G#/E                           
I want a simple explanation; what I'm feeling inside
                A/E 
I gotta find a way out
                B/E 
Maybe there's a way out

 E B 
Your voice was the soundtrack of my summer
                   A 
Do you know you're unlike any other?
      C#m B 
You'll always be my thunder, and I said
 E B 
Your eyes are the brightest of all the colors
               A 
I don't wanna ever love another
    C#m B 
You'll always be my thunder
     A B 
So bring on the rain
                       E 
And bring on the thunder

 E 
Today is a winding road
 E/D# A/E B/E 
Tell me where to start and tell me something I don't know, whoa
 E 
Today I'm on my own
   E/D# A/E B/E 
I cant move a muscle and I cant pick up the phone, I don't know
             C#/E 
And now I'm itching for the tall grass (And longing for the breeze)
            G#/E 
I need to step outside, just to see if I can breathe
                A/E 
I gotta find a way out
                 B/E 
Maybe there's a way out

 E B 
Your voice was the soundtrack of my summer
                    A 
Do you know you're unlike any other?
        C#m B 
You'll always be my thunder, and I said
 E B 
Your eyes are the brightest of all the colors
               A 
I don't wanna ever love another
        C#m B 
You'll always be my thunder
    A B 
So bring on the rain
                         F#m/E 
And bring on the thunder

 F#m/E 
Yeah I'm walking on a tightrope
                       C#m/E 
I'm wrapped up in vines
 B/E A/E 
I think Ill make it out but you just gotta give me time
 F#m/E 
Strike me down with lightning
                            C#m/E 
Let me feel you in my veins
   B/E A/E B/E 
I wanna let you know how much I feel your pain

 E 
Today is a winding road
       D#/E A/E B/E  (Hold note)
That's taking m

Southland In The Springtime chords – Indigo Girls V2

 SOUTHLAND IN THE SPRINGTIME (Indigo Girls)
-------------------------------------------
capo at the 2nd fret.

 G F C D G F C D 
[intro]

 G C D 
Maybe we'll make Texas by the morning 
           G C D 
Light the bayou with our taillights in the night
       Em C G 
Eight hundred miles to El Paso from the state line
        F C Am7 D7  
And we never have the money for the flight

VERSE 2:
            G C D 
I'm in the back seat sleepy from the travel
            G C D 
Played our hearts out all night long in New Orleans
     Em C G C 
I'm dirty from the diesel fuel, drinking coffee black
          G Am7 D7 
When the first breath of Texas comes in clean

CHORUS:
             G C 
And there's something about the southland in the springtime
           G B7 Em C 
Where the waters flow with confidence and reason
          G C G C 
Though I miss her when I'm gone, it won't ever be too long
          Am7 G C D 
Till I'm home again to spend my favorite season
          Am7 G C D 
When God made me born a yankee he was teasing 
            Em7 G C 
There's no place like home and none more pleasing
          D G C F D C G 
than the southland in the springtime

Verse 3:
    G C D 
In Georgia, nights are softer than a whisper
           G C D 
Beneath a quilt somebody's mother made by hand 
          Em C G C 
With the farmland like a tapestry passed down through generations
         F C Am7 D7 
And the peach trees stitched across the land 

Verse 4:
             G C D 
There'll be cider up near Helen off the roadside
          G C D 
And warm peanuts in a bag to warm your fingers
         Em C G C 
And the smoke from the chimneys meets its maker in the sky
        F C Am7 D7 
With a song that winter wrote whose melody lingers

Chorus:
                   G C 
And there's something about the southland in the springtime
           G B7 Em C 
Where the waters flow with confidence and reason
          G C G C 
Though I miss her when I'm gone, it won't ever be too long
          Am7 G C D 
Till I'm home again to spend my favorite season
          Am7 G C D 
When God made me born a yankee he was teasing 
            Em7 G C 
There's no place like home and none more pleasing
          D G C F D C G 
than the southland in the springtime