Tag: gone

My Baby Gone Cold chords – Billy Roberts And The Rough Riders

 Billy Roberts and the Rough Riders
Song - My Baby Gone Cold
Album - The Last of the Originals (2014)
Capo 3
 G 
My Baby Gone Cold

My Baby Gone Cold
 D C G 
She's as cold as ice and she won't burn for me.
 G 
Well once upon a time 

Her little smile would light

The minute she see me walking down the aisle 
 D G 
she coming running to me.
 G 
She get a little nervous

She was a little shy
 D 
The nervous type my baby was
         C G 
My god she had a preety face

 G 
My Baby Gone Cold

My Baby Gone Cold
 D C G 
She's as cold as ice and she won't burn for me.

 D C G 
She's as cold as ice and she won't burn for me.

           EM        
She wont talk to me
               D 
She wont look at me
           EM D 
She's avoiding me like a sunday sinner
          EM D C 
Is there another man or something else


 G 
Well once upon a time 

Her little smile would light

The minute she see me walking down the aisle 

 D G 
she coming running to me.
 G 
She get a little nervous

She was a little shy
 D 
The nervous type my baby was
         C G 
My god she had a preety face

 G 
My Baby Gone Cold

My Baby Gone Cold
 D C G 
She's as cold as ice and she won't burn for me.
 D C G 
She's as cold as ice and she won't burn for me.

 G 
My Baby Gone Cold

My Baby Gone Cold
 D C G 
She's as cold as ice and she won't burn for me.
 D C G 
She's as cold as ice and she won't burn for me.






Shes Gone Gonegone chords – Glen Campbell

  She’s Gone Gone Gone  
 Glen Campbell  
 written by Harlan Howard
 1989 Walikin' In The Sun album
  
 Intro  A D E A 

 Verse 1
   
   A D          
 Well she said if I ever deceived her.
           E A    
 She'd be gone before I could count ten.
                 A7 D 
 I guess that I didn't believe her,
              E A         
 Cause just look at the trouble I'm in.
 
 Chorus 1

  A D                               
 Now she's Gone, Gone, Gone. Gone, Gone, Gone.
  E A 
 Crying won't bring her back.
                  A7 D  
 The more that I cry, the faster that plane flies,
  E A 
 Farther across the sky.

 riff   A D E A D E A 

 Verse 2
 
  A D 
 Well I lost every right to be happy.
          E A 
 When I lost the heaven I'd found.
                A7 D 
 She warned me she'd leave and she left me.
  E A 
 Before my first tear hit the ground.

 Chorus 2

  A D                                
 Now she's Gone, Gone, Gone. Gone, Gone, Gone.
  E A 
 Crying won't bring her back.
                  A7 D   
 The more that I cry, the faster that plane flies.
  E A                     
 Farther across the sky.

 riff   A D E A D E A 

 Verse 3

 
  A D  
 If I only knew where I could find her.
           E A 
 Well I'd crawl there on my hands and knees.
                         A7 D 
 cause each tick of the clock will remind her,
             E A 
 That she's one second farther from me.

 Chorus 3

  A D                              
 Now she's Gone, Gone, Gone. Gone, Gone, Gone.
  E A 
 Crying won't bring her back.
                  A7 D  
 The more that I cry, the faster the train flies.
  E A                     
 Farther across the sky.

 riff   A D E A D E A 

 Outro

  A D 
 Now she's Gone, Gone, Gone.  Gone, Gone, Gone.
  E A 
 Crying won't bring her back.
                  A7 D     
 The more that I cry, the faster that plane flies.
  E A E A 
 Farther across the sky.  Farther across the sky.

 flyinglibra51
 God Bless Glen Travis Campbell

My Babys Gone chords – Glen Campbell

 My Baby's Gone
Glen Campbell

Note: Barre Chords are best for this song.
unless you capo 1st fret.

Intro  C# 

Chorus 1

 C# F# 
Hold back the rushing minutes 
               D#m G G# 
make the wind lie still

Don't let the moonlight shine 
 F# G# C# D#m G# 
across the lonely hill
 C# C#7 F# 
Dry all the raindrops 
               D#m G G# 
hold back the sun 
               G#7 F# G# C# G 
the world has ended    my baby's gone

Verse 1

 G# G#7 C# 
I wake up almost every night
                         G G# 
and realize you're gone
            G#7 F# G# C# 
I toss and turn    and stare at darkness 

waiting for the dawn
 C# C#7         
I try to tell my lonely heart 
 F# D#m 
we'll make it all alone
 G G# G#7 
But it cries the world has ended 
 F# G# C#    
oh my baby's gone

Chorus 2
                               F# 
Hold back the rushing minutes 
               D#m G G# 
make the wind lie still
   
Don't let that moonlight shine 
 F# G# C# G#7 C# 
across the lonely hill
              C#7 F# 
Dry all the raindrops 
               D#m G 
hold back the sun
       G# G#7 F# 
Don't they know the world has ended
    G# C# 
my baby's gone

Outro

 G G# G#7      
Don't they know the world has ended 
 F# G#7 C# F# G#7 C# 
cause my baby's gone    ( my babys gone )


flyinglibra51
God Bless Glen Travis Campbell

This Carnival Is Dead And Gone chords – Current-93

 Artist: Current 93
Title: This Carnival Is Dead And Gone

 Am Am 
Dear sir dear lady

       G Em 
This carnival is dead and gone

 Am G Bm Am 
And never anyway alas this party never yet began

The chairs and tables dust of dust

 G Em Am  
Yes verydust of veryrust of verymust and farewelltrust

    G Bm Am  
I thought I saw you in the crowd dear heart

                               G Em 
You turned away from me and then you dissolved into light

      Am Bm 
The broken lights and faded buntings

 G Fmaj7 
Call to us all the inmost light
  
                                    G 
And don't glare wide your eyes in wonder

       Em Fmaj7 
They will flick back inside your mind

                        G 
And on the bonescreen of your skull

       Bm Am 
They watch no musical salutes

                G Em Am 
So thoroughly modern now we are

But the last reel of all time

 G Am 
The inmost night

Its frames are glared and slow and out of focus

 G Em Am 
Valentino Vallee Moss all dead!

The inmost night

           G Bm Am 
And the little bells go tinkle

And your eyes begin to twinkle
 
          G Em   
And the joints and sinews crack

 Am G 
It's the expansion of your mind death
Death
Death
Death

 Fmaj7 Am 
The inmost night

      G Em Am 
The cat's face glares from shiny card

The deadcat from my past

       G Bm Am 
You tumble you froth and fun forever

    Fmaj7 Am 
An orchestra from another time

 G Em 
Another world all dead

       Am G Bm Am 
The churchbells silent the rainstained glass of God is smashed

And you take your choice you sup with the devil

      G Em 
You choke on your pride for ever and ever

     Fmaj7 G Bm Am  
My memory of my inmost light it tumbles froth and fun forever

                                    G 
Vulvaic memories imagined of my would-be-life

       Em 
Well that won't be

      Am 
And that won't be

And that won't be

 G Bm    
And that won't be

 Fmaj7 
And for my troubles and my pain
 
 G Em 
And for the losses and the wains

    Am 
I get a picture in my mind

      G Bm Am 
The slyly smily smiling kiss

               G 
Of your sweet heart and face

 Em Am 
And your legs in some final benediction

                             G 
Your inmost warmheart says ta-ra

           Bm Am 
And I wished to die inside of you

                       G Em 
And push up into your heart so violently that

 Am G 
Face to face with matrix creatrix am

                Bm Am  
The inmost light

The inmost night


A last tip:
Intead of playing Bm Am, you can also play Bm Am G Am instead (all with short strums of course).

If Youre Gone chords – Matchbox Twenty V7

 I have a previous version of this tab on here, but I spotted some irregularities 
and found it a tad incomplete

Intro:

    A D F#m E D 

e-----5---7--5----------5---7--5-------------------|
B--------------------------------------------------|
G--------------7-----------------7-----------------|
D--7----7------------7----7-----------6-7----6-7---|
A-----------------------------------7------7-------|
E--------------------------------------------------|

    A D F#m E D 

e-----5---7--5----------5---7--5-------------------|
B--------------------------------------------------|
G--------------7-----------------7-----------------|
D--7----7------------7----7-----------6-7----6-7---|
A-----------------------------------7------7-------|
E--------------------------------------------------|


Verse 1:

 A D 
 I think I've already lost you

 F#m E D 
 I think you're already gone

 A A/C# D 
 I think I'm finally scared now

                   Bm E 
You think I'm weak - But I think you're wrong

 A D 
 I think you're already leaving

 F#m E D 
 Feels like your hand is on the door

 A A/C# D 
 I thought this place was an empire

                     Bm E 
But now I'm relaxed - I can't be sure


played with prechorus:

e------4-----4------4-----4------4-----4------4-----4------4-----4------4-3-|
B---------------------------------------------------------------------------|
G--5h6---5-6----5h6---5-6----5h6---5-6----5h6---5-6----5h6---5-6----5-6-----|
D---------------------------------------------------------------------------|
A---------------------------------------------------------------------------|
E---------------------------------------------------------------------------|

Prechorus 1:

                   Bm E 
I think you're so mean - I think we should try

                 A D 
I think I could need - this in my life

   D/C# Bm E 
I think I'm just scared - I think too much

   G 
I know this is wrong it's a problem I'm dealing


Chorus:

           A D E 
If you're gone - maybe it's time to go home

            Bm E 
There's an awful lot of breathing room

                  A 
But I can hardly move

           A D E 
If you're gone - baby you need to come home

               Bm E 
Cuz there's a little bit of something me

                 (1/2 of the intro)
In everything in you 


    A D F#m E D 
   
e-----5---7--5----------5---7--5-------------------|
B--------------------------------------------------|
G--------------7-----------------7-----------------|
D--7----7------------7----7-----------6-7----6-7---|
A-----------------------------------7------7-------|
E--------------------------------------------------|


Verse 2:

 A D 
 I bet you're hard to get over

 F#m E D 
 I bet the room just won't shine

A         A/#C        D
 I bet my hands I can stay here

           Bm E 
I bet you need - more than you mind


played with prechorus:

e------4-----4------4-----4------4-----4------4-----4------4-----4------4-3-|
B---------------------------------------------------------------------------|
G--5h6---5-6----5h6---5-6----5h6---5-6----5h6---5-6----5h6---5-6----5-6-----|
D---------------------------------------------------------------------------|

Wake Up Ma And Pa Are Gone chords – Bound Stems

 Db Ab  x6

 Db 
I shake 
 Ab 
my head 
 Db 
at how 
 Ab Db 
perfect some song will sound in my car, 
 Ab Db Ab 
driving toward the country for the month. 

 Db 
I am 
 Ab         
still on 
 Db 
the make,                    
      Ab Db 
and this place is full of friends that I've known, 
      Ab Db Ab 
they saw me too and laughed a warm laugh again.

 Fm Ab 
Lay on 
      Db Ab 
the warm grass of my lawn 
      Fm Ab 
and shake hands, 
       Db Ab 
"I've met you once before". 
 Fm Ab Db Ab 
Call to the neighbors down below, 
             Fm Ab Db Ab 
tell them "Wake up! Ma and Pa are gone!"

 Db Ab  x2

 Db 
Don't waste 
 Ab 
a breath. 
 Db 
How could 
 Ab Db 
you spent your life on something so cold?
        Ab Db Ab 
it's flickered out you're lost and you're scared now. 

     Db 
And I need 
 Ab 
this life, 
 Db 
these friends, 
 Ab Db 
my home. I'm on the curb smiling
 Ab Db 
remember this 'cause things are never that bad.

 Eb Db Fm  x2

 Eb Db Fm 
You feel right. 
 Eb Db Fm 
I was probably scared. 
      Eb Db Fm 
While I was gone, 
 Eb Db Fm 
you were sleeping upstairs. 
     Eb Db Fm 
When I first heard
 Eb Db Fm 
you barely made a sound. 
    Eb Db Fm 
And I fell first
 Eb Db Fm 
isn't it perfect how?
    Db Eb Ab 
it all comes down 
 Db Eb Ab 
to a moment like this
      Db Eb Ab 
when I'm leaving for 
   Db Eb Ab 
something bigger than us. 
 Db Eb Fm 
Remember that. 
 Db Eb Fm 
Remember that? 
    Db Eb Ab 
I called my mom and she said 
        Db Eb Ab 
she's never been so impressed.

 Ab Eb Db  x4

 Ab Bbm Db Ab Eb Db  x7

Shes Long Gone Tabs – The Black Keys

 The Black Keys – She’s Long Gone                                                        


Guitar 1 – Standard
Guitar 2 - Standard

Intro

Guitar 1
e|--------------------------------0----------------------------------0--|
B|--------------------------------0----------------------------------0--|
G|----------------------------------------------------------------------|
D|---2-(h)2---0-------0----------------2-(h)2---0-------0---------------|
A|--------------2p0h2---2-------------------------2p0h2---2-------------|
E|-0----------------------3--3(s5)--0-----------------------3----(s5)---|

e|----------------------------------------------------------------------|
B|---------------------------------0------------------------------------|
G|---------------------------------0--------------------------2b3--2-0--|
D|---2-(h)2---0-------0-----------------2-(h)2---0-------0--------------|
A|--------------2p0h2---2--------------------------2p0h2---2------------|
E|-0----------------------3--3(s5)---0----------------------------------|

Guitar 1
e|--------------------------------------0-----------------------------------0-----|
B|--------------------------------------0-----------------------------------0-----|
G|--------------------------------------------------------------------------------|
D|-----2--(h)2----0----------0-----------------2-(h)2---0-------0-----------------|
A|-------------------2p0h2-----2--------------------------2p0h2---2---------------|
E|-0-----------------------------3-3(s5)--0------------------------3----(s5)------|
Guitar 2***************************************************************************
e|--------------------------------------------------------------------------------|
B|--------------------------------------------------------------------------------|
G|--------------------------------------------------------------------------------|
D|---14-(12h)14--12----------12-------------14-(12h)14--12---------12h14-(12)-14--|
A|------------------14-12h14----14s10----------------------14---------------------|
E|--------------------------------------------------------------------------------|


Guitar 1
e|--------------------------------------0-----------------------------------0-----------|
B|--------------------------------------0-----------------------------------0-----------|
G|--------------------------------------------------------------------------------------|
D|-----2--(h)2----0----------0-----------------2-(h)2---0-------0-----------------------|
A|-------------------2p0h2-----2--------------------------2p0h2---2---------------------|
E|-0-----------------------------3-3(s5)--0------------------------3----(s5)------------|
Guitar 2*********************************************************************************
e|--------------------------------------------------------------------------------------|
B|-------------------------------------------------------------------15—15h17p15--------|
G|-------------------------------------------------------------14s16-------------16s14--|
D|---14-(12h)14--12----------12-----------------14-(12h)14------------------------------|
A|------------------14-12h14----14s10---12p10-------------------------------------------|
E|--------------------------------------------------------------------------------------|

Verse

e|--------------------------------0----------------------------------0--|x4     
B|--------------------------------0----------------------------------0--|
G|----------------------------------------------------------------------|
D|---2-(h)2---0-------0----------------2-(h)2---0-------0---------------|
A|--------------2p0h2---2-------------------------2p0h2---2-------------|
E|-0----------------------3--3(s5)--0-----------------------3----(s5)---|

Chorus

Guitar 1
e|--------------------------------------------------------------|
B|--------------------------------------------------------------|
G|-------------------------------------------------------------

Gravitys Gone chords – Drive-By Truckers V2

 A Blessing And A Curse‎  ‎
Gravity's Gone

Intro:   E F#m A D A 

Verse:
          E D A 
I went stumbling through the fog trying to find a reason for the things I told her
              E D A 
She woke up sunny side down and I was still thinking I was too proud to flip her over
               E D A 
Between the champagne hand jobs and the kissing ass by everyone involved
          E D A 
Cocaine rich comes quick and that's why the small dicks have it all

Chorus:
         F#m E 
So I'll meet you at the bottom if there really is one
              D A  
They always told me when you hit it you'll know it
                 Bm D A 
But I've been falling so long it's like gravity's gone and I'm just floating

 

Verse:
               E D A 
Those little demons ain't the reasons for the bruises on your soul you've been neglecting
               E D A 
You'll never lose you're mind as long as you're heart always reminds you where you left it
      E D A 
And don't ever let them make you feel like saying what you want is unbecoming
               E D A 
If you were supposed to watch you're mouth all the time I doubt you're eyes would be above it

Chorus:
          F#m E 
So I'll meet you at the bottom if there really is one
              D A  
They always told me when you hit it you'll know it
                 Bm D A 
But I've been falling so long it's like gravity's gone and I'm just floating

 

Instrumental Break:
 E F#m A D A  (like Intro)
½ Verse:  E D A  -  E D A 
Chorus

Verse: 
                E D A 
Between the champagne hand jobs and the kissing ass by everyone involved
        E D A 
What used to be is gone and what ought to be ought not to be so hard

Chorus:
          F#m E 
So I'll meet you at the bottom if there really is one
              D A  
They always told me when you hit it you'll know it
                  Bm D A 
But I've been falling so long it's like gravity's gone and I'm just floating
                  Bm D A 
But I've been falling so long it's like gravity's gone and I'm just floating
                 Bm D A 
But I've been falling so long it's like gravity's gone and I'm just floating

Mike Cooley / Drive-By Truckers ©Wayward Johnson's Music (BMI)



Sent from my iPad

Days Gone By chords – Jon Boden

 'Days Gone By' by Jon Boden, the ever so talented frontman of Bellowhead, half of Spiers and Boden, 
and one of Eliza Carthy's Ratcatchers.
This from his awesome Post-Apocalyptic-folk-concept-album 'Songs from the Floodplain'


 C 
Lying on the motorway this morning,
   C 
I thought I heard a distant thunder rolling,
    Am G C F 
So I lay so still on the motorway,
           C 
‘Till the cavalcade came screaming past like hellhounds in my ears,
        Am G C F 
It was over in a moment, the wind like a tornado,
     Am G C F 
The sweet perfume of petrol like a lovers parting kiss,
        Am G C F 
Then I closed my eyes on the motorway,
        C 
And I dreamed about the days gone by, brave boys,
    C 
I dreamed about the days gone by.

  C 
Lying on the motorway this evening,
     C 
The gypsies came up close while I was sleeping,
    Am G C F 
So quietly down the motorway,
 C 
Pulling their possessions in the cover of the night,
      Am G C F 
They too had seen the whirlwind, the shining black procession,
 Am G C F 
Screaming past like gods ascending through a tarmac sky,
    Am G C F 
So they hid themselves by the motorway,
     C 
And dreamed about the days gone by, brave boys,
      C 
They dreamed about the days gone by.

     Am G C F      
And what were they doing, those people from the government?
         Am G C F 
Burning sacrificial gasoline to keep the dogs at bay.
                Am G C F 
And there were shadows in the hedgerows and strange lights from the sliproads,
       C 
So we huddle on the motorway, brave boys,
    C 
We huddled on the motorway

Dont Change Gone chords – Jason Aldean

 Standard  A C#m B  (But I'll Be tabbing the Capo version. Very easy strum pattern.)

Capo 4  F Am G  

Intro:  F Am F Am 
[Verse:]
 F 
I can keep on changing the song
Keep on changing stations
 Am 
Til I finally land on one
I don't mind that they keep playing
 F 
I'd take a different road through town
I find another way around
 G 
Change it up, really shake it up
Yeah, I'm trying

[Chorus:]
         Am G F Am 
But it don't change gone, won't bring her back
             F G 
She's moved on, and I'm stuck with that
 Am G F Am 
I could change whatever I want
        Am G F    
But it don't change gone

 F Am 

[Verse 2:]
 F 
I can keep on hanging around
But I don't see me staying
 Am 
Strike a match and burn it down
Walk out and leave it laying
 F 
Don't think about a thing just drive
Far enough til I find 
 G 
A change of scene
A new routine, I'd try anything

[Chorus:]
         Am G F Am 
But it don't change gone, won't bring her back
             F G 
She's moved on, and I'm stuck with that
 Am G F Am 
I could change whatever I want
        Am G          
But it don't change 

[Outro:]
 F G Am G F 
Tailights fading, not ones breaking
 F            Solo:  Am F Am  
She's gone
      Am G F Am 
Yeah, I could change whatever I want
        Am G F 
But it don't change   gone
 Am F Am F  (single strum)
  No it don't change gone

Shes Gone For Good This Time Tabs by Carbon Leaf

 Standard tuning, no capo. There's way too many hammers/pull offs to include, so just 
listen to the song and it's pretty apparent when they're needed.

Intro
E|--0--2--------2--0--2-----0--3--2--0--------0-----0--------------0--3--2--0--|
B|--------3--3-----------3--------------3--2-----------------2--3--------------|
G|-----------------------------------------------2-----2--4--------------------|
D|-----------------------------------------------------------------------------|
A|-----------------------------------------------------------------------------|
E|-----------------------------------------------------------------------------|

E|--0--2--------2--0--2-----0--3--2--0--------------0--------------------------|
B|--------3--3-----------3--------------------2--3-----3--2--------------------|
G|--------------------------------------2--4-----------------4--2--------------|
D|-----------------------------------------------------------------4--2--4--0--|
A|-----------------------------------------------------------------------------|
E|-----------------------------------------------------------------------------|

Intro Part II

E|--------------------------------------------------------------------------|
B|--------------------------------------------------------------------------|
G|--2--------2-----------0--2--4--2--0-----2-----2--------------------------|
D|-----4--0-----0--2--4-----------------2--------------------0--2--4--2--0--|
A|--------------------------------------------2-----0--2--4-----------------|
E|--------------------------------------------------------------------------|

E|-----------------------------------------------------------------------------------|
B|-----------------------------------------------------------------------------------|
G|--2--------2-----------0--2--4--2--0--------4-----------2--------------------------|
D|-----4--0-----0--2--4-----------------5--5-----5--4--4-----4--2--4--2--0--------0--|
A|--------------------------------------------------------------------------2--0-----|
E|-----------------------------------------------------------------------------------|

Verse
E|--------------------------------------------------------------------------------|
B|--------------------------------------------------------------------------------|
G|--------------------------------------------------------------------------------|
D|--5--4--2--4--2--------0--5--4--2--4--2--0--------0--5--4--2--4--2--0--------0--|
A|-----------------2--0-----------------------2--0-----------------------2--0-----|
E|--------------------------------------------------------------------------------|

E|-----------------------------------------------|
B|-----------------------------------------------|
G|-----------0--2--4--2--0-----------------------|
D|--0--2--4-----------------2--4--2--0--------0--|
A|--------------------------------------2--0-----|
E|-----------------------------------------------|

The rest of the verse is DAGDAD

Halfway Gone chords – Lifehouse V5

 Verse 1:

Capo 4

 Am7 Fsus2 
You were always hard to hold
 C Gsus4 
So letting go aint easy
 Am7 Fsus2 
Im hanging on but growing cold
 C Gsus4 
While my mind is leaving


Pre Chorus:

 Fsus2 Gsus4 
Talk, talk is cheap
           Am7 Gsus4 
Give me a word you can keep


Chorus:

          Am7 Fsus2 
Cause Im halfway gone and Im on way
        C Gsus4 
And Im feelin feelin feelin this way
             Am7 Fsus2 
Cause youre halfway in but dont take too long
          C Gsus4 
Cause Im halfway gone Im halfway gone



Verse 2:

 Am7 Fsus2 
You got one foot out the door
 C Gsus4 
And choking on the other
 Am7 Fsus2 
Always think theres something more
 C Gsus4 
Its just around the corner


Pre Chorus:

 Fsus2 Gsus4 
Talk, talk is cheap
           Am7 Gsus4 
Give me a word you can keep


Chorus:

          Am7 Fsus2 
Cause Im halfway gone and Im on way
        C Gsus4 
And Im feelin feelin feelin this way
             Am7 Fsus2 
Cause youre halfway in but dont take too long
          C Gsus4 
Cause Im halfway gone Im halfway gone

        Am7 Fsus2 
If you want me out then Im on my way
        C Gsus4 
And Im feelin feelin feelin this way
             Am7 Fsus2 
Cause youre halfway in but dont take too long
          C Gsus4 
Cause Im halfway gone Im halfway gone


Bridge: 2x  Am7  |  Fsus2  |  C  |  Gsus4  (oohoo oohoo halfway gone)


Interlude:

     Dm Fsus2 
Dont take too long
      C Gsus4 
Dont take too long
         Dm Fsus2 
Cause Im on my way
        C Gsus4 
If you take too long


Chorus:

          Am7 Fsus2 
Cause Im halfway gone and Im on way
        C Gsus4 
And Im feelin feelin feelin this way
             Am7 Fsus2 
Cause youre halfway in but dont take too long
          C Gsus4 
Cause Im halfway gone Im halfway gone

        Am7 Fsus2 
If you want me out then Im on my way
        C Gsus4 
And Im feelin feelin feelin this way
             Am7 Fsus2 
Cause youre halfway in but dont take too long
          C Gsus4 
Cause Im halfway gone Im halfway gone


Outro: 2x  Am7  |  Fsus2  |  C  |  Gsus4

You Can Always Be Gone chords – Catie Curtis

 You Can Always Be Gone:  Catie Curtis Truth From Lies  1994

Intro:    F#m D F#m D F#m D E A E D 
She spent the summer in Chicago
   A E D 
Spent the winter in L.A.
 F#m D 
She can run faster than a river
    A E D 
Sometimes I still hear her say


 F#m D A 
You can always be gone
 F#m D A E 
But you can't always make the ride go on and on
 F#m D A 
You can always drive fast
 F#m D A E          
But you can't always make the long ride last

 F#m D F#m D F#m D E A E D 
She fell in love in Colorado
 A E D 
And drove out west to see the bay
 F#m D 
I'll feel sorry for him tomorrow
 A E D 
But he's a lucky man today


 F#M D A 
She will always be gone

 F#m D A E 
But she won't always make the ride go on and on

 F#m D A 
She will always drive fast
 F#m D A E     
But she won't always make the long ride last  

 F#m D F#m D F#m D E A E D 
One day she showed up at my house
  A E D 
She said, "Want to get away?"
 F#m D 
Want to go to Indiana
  A E D 
A lot of music there they say

 A E D A E D F#m D A E D A E D A 
I've never been back since
     A E D 
I bought a car and I call it home
    F#m D A 
I still miss the diner on main street
   A E D 
Miss walking down the old post road

 F#m D A 
You can always be gone
 F#m D A E 
But you can't always make the ride go on and on
 F#m D A 
You can always drive fast
 F#m D A E      
But you can't always make the long ride last

 F#m D F#m D F#m D A

Better When Youre Gone chords – Luke Conard

 Better When You're Gone by Luke Conard.
I love this song so when I couldn't find the chords for it I worked them out myself. 

No Capo

 G ,  C ,  G ,  C ,  Em ,  G 

Right now I wanna free fall

And not think of you anymore
    C 
But I cant help it
    D 
No I cant help it
 G 
Cause if I spoke the truth

The whole time I just wanted you
 C 
And that sweet smile
    D 
I'll miss your sweet smile

 Em G C 
Even when you tell me

         D 
I'll be strong
                      Em 
Stronger when you're gone
                      D 
I can't keep holding on
 G 
I can't hold on
     C D 
And when it hurts
                         Em 
Just think of what came first
                          D 
When we tried to make it work

         G C 
I'll be better when you're gone
                    D 
Better when you're gone
                    Em 
Better when you're gone
                    D G 
Better when you're gone
      
        
Why does all that I do

Always remind me of you?
 C 
I can't escape it
     D 
Don't want to escape it

 G 
Just give me one more day

One more day of you and me
 C 
When I close my eyes
  D 
I won't sleep tonight

 Em G C 
Cause your words ring in my ears

         D 
I'll be strong
                      Em 
Stronger when you're gone
                      D 
I can't keep holding on
 G 
I can't hold on
     C D 
And when it hurts
                         Em 
Just think of what came first
                          D 
When we tried to make it work

         G C 
I'll be better when you're gone
                    D 
Better when you're gone
                    Em 
Better when you're gone
                    D     
Better when you're gone

     G Am C 
The words you said are still haunting me
       Em D 
So tonight, I'll hope for better dreams
                Am C 
Where I'll be strong, and you'll be wrong
           Em D 
And I'll finally have the strength to say

                            C 
That I'm better now you're gone
                   D 
Better now you're gone
                            G    
So much better now you're gone
 Em D 
Better now you're gone

 C D 
I'll be strong
                      Em 
Stronger when you're gone
                      D 
I can't keep holding on
 G 
I can't hold on
     C D 
And when it hurts
                         Em 
Just think of what came first
                          D 
When we tried to make it work

         G C 
I'll be better when you're gone
                    D 
Better when you're gone
                    Em 
Better when you're gone
                    G     
Better when you're gone

         G C 
I'll be better when you're gone
                    D 
Better when you're gone
                    Em 
Better when you're gone
                    D G 
Better

Youre Gone intro Tabs by Something Corporate

 I REMEMBER SEEING THIS INTRO A WHILE AGO, THOUGHT I SHARE...

e|-------------------------------------------------|
B|------------------------------------8------------|
G|-----9--7---------------------7--9---------------|
D|-----------10--9--10~~-9--10-----------10--9--7--|
A|-------------------------------------------------|
E|-------------------------------------------------|

*taking steps back through the words i should of said to you
 they all got lost, you went away...

Since Youre Gone chords – Cars V2

 Transpose +5 steps with buttons on the left for original key, (or leave like this 
to sing with baritones!). Ask if you want chord fingering help.

Intro:  G/D Bm   (  G   / B D/A - D  )  x4

               G      / B D/A   -   D G            / B D/A - D 
Since you're gone, nights are gettin' strange, since you're gone, well, nothing's makin' sense
               G        / B D/A - D 
Since you're gone, I stumbled in the shade,
               G           / B D/A 
Since you're gone, everything's in perfect tense, well

 Bm C D Bm C D 
I can't help it, when you fall apart, and I can't help it, guess you better start
                                               G 
That is, forgettin' about you, (since you're gone)

              / B D/A    -     D G                    / B D/A      -    D G 
Since you're gone, nights are gettin' strange, since you're gone, thrownin' it all away
              / B D/A    -     D G                     / B D/A       -       Bm 
Since you're gone, the nights are gettin' strange, since you're gone, thrownin' it all away

                   C D Bm C D 
I can't help it, everything's a mess, I can't help it, you're so treacherous,
                                             G 
When it comes, to tenderness, since you're gone

Solo: (  G  / B D/A - D  ) x3    G  / B D /A  Bm C D Bm C D 
I can't help it, everything's a mess, I can't help it, you're so treacherous,
                                             G 
Oh, where's that tenderness? (since you're gone)

                      / B D/A   -  D G        / B D/A - D 
Since you're gone, I missed the peak sensation, since you're gone, I took the big vacation
               G            / B D/A - D 
Since you're gone, well, never feel sedate,
               G              / B D/A    -     D G 
Since you're gone, well, the moonlight ain't so great
              / B D/A - D G      / B D /A   -   D G 
Since you're gone,        well, I've thrown it all away 
 / B D/A - D G        / B D /A   -   D G 
Day and night,       strange, I've thrown it all away

Gone Gone Gone intro Tabs by Bad Company

 -----------------------------------------------------------------------------
                                  
                Gone, gone, gone  - Bad Company (GUITAR)
            
-----------------------------------------------------------------------------
: Scotto10

Tuning: Standard

Sorry, it's not the entire song but I have too much going on in my life to tab 
out all the solos now. for a couple of years I would sit and tab for days on a 
solo until I got on "paper" but I just don't have time for that now. Hop 
someone can enjoy this anyway.

=============================================================================

                                                         
Guitar



               PM PM PM                 PM PM PM                 PM PM PM       
     Q    Q    E  E  E  E     Q    Q    E  E  E  E     Q    Q    E  E  E    E   
E||------------------------|------------------------|--------------------------|
B||------------------------|------------------------|--------------------------|
G||-------2----------------|-------2----------------|-------2------------------|
D||--5----2-------------5--|--L----2-------------5--|--L----2-------------4g5--|
A||--5------------------5--|--L------------------5--|--L------------------4g5--|
E||------------0--0--0-----|------------0--0--0-----|------------0--0--0-------|


            PM PM PM                                              
  Q    Q    E  E  E  E     W                   H        H         
------------------------|-------------------|--------------------|
------------------------|-------------------|--------------------|
-------2----------------|--9----------------|--------------------|
--L----2----------------|--9----------------|--L-----------------|
--L---------------------|--7----------------|--L-----------------|
------------0--0--0--0--|--0----------------|--L--------L--------|


            PM PM PM                   PM PM PM                         
  Q    Q    E  E  E    E     Q    Q    E  E  E  E     W                 
--------------------------|------------------------|-------------------|
--------------------------|------------------------|-------------------|
-------2------------------|-------2----------------|--9----------------|
--5----2-------------4g5--|--L----2----------------|--9----------------|
--5------------------4g5--|--L---------------------|--7----------------|
------------0--0--0-------|------------0--0--0--0--|--0----------------|


                                 PM PM PM                   PM PM         
  H        H           Q    Q    E  E  E    E     Q    Q    E  E  E   E   
--------------------|--------------------------|-------------------------|
--------------------|--------------------------|-------------------------|
--------------------|-------2------------------|-------2--------------2--|
--L-----------------|--5----2-------------4g5--|--L----2--------------2--|
--L-----------------|--5------------------4g5--|--L-------------------0--|
--L--------L--------|------------0--0--0-------|------------0--0--3b-----|


  W                   W                   W                   W                 
-------------------|-------------------|-------------------|-------------------|
-------------------|-------------------|-------------------|-------------------|
--L----------------|--L----------------|--5----------------|--L----------------|
--L----------------|--L----------------|--5----------------|--L----------------|
--L----------------|--L----------------|--3----------------|--L----------------|
-------------------|-------------------|--3----------------|--L----------------|


  W                   W                   Q    Q    E   E  Q     
-------------------|-------------------|-------0-----------0----|
-------------------|-------------------|-------0-----------0----|
-------------------|--4----------------|--1----------------2---

Already Gone chords – Melanie C

 Bm  (x24432)
 G   (320033)
 A   (x03330)
 F#m (244222)
 Em  (022000)
 D   (xx0232)


intro:  Bm G A F#m  x2

 Bm Em 
  I can't forget your face
 A D 
  The day, the time, the place
 G 
  Your eyes so full of mystery
 Bm Em 
  Only a fool thinks twice
 A D 
  I lost my paradise
 G 
  You saw the good in me
       A 
  But I, I looked away
             Bm G D A 
I let you drive right by, I didn't realize I wanted you till you were gone
           Bm G A 
I wasted too much time, I learned that love keeps moving on
         F#m Bm G A F#m 
But you're already gone

 Bm G A F#m Bm Em 
   The one that got away
 A D 
   The one that makes you pay
 G 
   My karma's catching up with me
 Bm Em 
   I feel you in my veins
 A D 
   I won't see you again
 G 
   So scared to lose it all
       A 
   I lost it anyway

             Bm G D A 
I let you drive right by, I didn't realize I wanted you till you were gone
           Bm G A 
I wasted too much time, I learned that love keeps moving on
        F#m Bm Em A 
But you're already gone, already gone
                 Bm Em A 
you're already gone,  already gone
        F#m G A G 
But you're already gone

 Bm G A F#m  x2

             Bm G D A 
I let you drive right by, I didn't realize I wanted you till you were gone
           Bm G A 
I wasted too much time, I learned that love keeps moving on
       F#m 
But you're already gone
             Bm G D A 
I let you drive right by, I didn't realize I wanted you till you were gone
           Bm G A 
I wasted too much time, I learned that love keeps moving on
       F#m Bm Em A 
But you're already gone,       already gone
       F#m Bm Em 
But you're already gone 
          A 
Already gone
      F#m Bm 
But you're already gone 

Gone Crazy Tabs by Alan Jackson

 capo - 3

intro

  D                        G          A
e--------0h2------2p0------------------------0---------|
b-----3---------------3--------0-----------2-----------|
g---2--------------------------0-----------2-----------|
d-0------------0-------------0---0-------2-------------|
a-------------------------------------0----------------|
E--------------------------3---------------------------|

  D                        G          A
e-------0h2-------2p0----------------------------0-----|
b-----3---------------3--------0-------------0h2-------|
g---2--------------------------0-----------2-----------|
d-0------------0-------------0---0-------2-------------|
a-------------------------------------0----------------|
E--------------------------3---------------------------|


Continue same pattern for 1st verse but add this after the last A chord.

Second verse just strum.


  Em                   A
e------------------------------------------------------|
b-------0-----------0-------------2-----------2--------|
g-------0-----------0-------------2-----------2--------|
d----2-----2-----2-----2-------2-----2-----2-----2-----|
a-------------------------0----------------------------|
E-0-----------0-------------------------3--------------|


  Em                       A
e-------0----------------------------------------------|
b-------0-----------0------------2-----------0---------|
g-------0-----------0------------2-----------0---------|
d----2-----2-----2-----2------2-----2-----2-----2------|
a--------------------------0-----------0---------------|
E-0-----------0----------------------------------------|


1st verse


D                            G
Here I am alone again tonight
    A                        D     G     A
in this old empty house
     D                                             G
It's hard to learn what you don't think you need
A                            D     G     A
you can't live without
Em                                       A
Never leave the sound of the telephone
Em                               A
but ever since you left I've been gone


chorus

     G
Gone Crazy

goin' out of my mind
      D
I've asked myselfthe reasons

at least a thousand times
Em     G
goin' up and down this hallway
                                 D
tryin to leave the pain behind
Em                        A
ever since you left
         D
I've been gone


Repeat intro


2nd verse

D                                     G
I never saw your face this many times
     A                      D   G    A
when you where really here
     D                                 G
The things you said I never understand
A                     D    G    A
are now crsytal clear
Em                          A
I never spent this much time at home
    Em
but ever since you left
         A
I've been gone


Chorus 2x

then fade with this

     D        G
Gone   Gone
A        D       G
I've been gone       6x end on A chord

Halfway There Im Gone chords – Porter Hall Tennessee

 E E A B 
I made plans to leave this town
probably like every drunk around
There was no point in waiting
Blaming til I cant
I had to go and find my   other chance

 C#m E 
Im gone like the comfort in your voice
Im gone cause i thought i had no choice
Im gone from beeing cougth in your dead stare
 C#m E A B 
Im gone and im halfway there

If i leave the reason
I got a many ways
They never been different
if you wanna stay
I dont have to wonder, about
better  things to be
And no one gotta to worry about
worrying about, me

 C#m E 
Im gone like the comfort in your voice
Im gone cause i thought i had no choice
Im gone from beeing cougth in your dead stare
    E A B 
Im gone and im halfway there

------------------------------------------

Great band with magical singer Molly Conley. They have made some timeless classic 
country songs like Halfway im there, Middle Tennessee, Crosses to hang and some others. Enjoy!