Tag: good

Too Good At Goodbyes chords by Sam Smith

[Verse 1]
Am                         C
  You must think that I'm stupid
G                           Dm
  You must think that I'm a fool
Am                         C
  You must think that I'm new to this
G                            Dm 
  But I have seen this all before

[Pre-Chorus]
    Am
I'm never gonna let you close to me
C
Even though you mean the most to me
       G                        Dm
'Cause every time I open up, it hurts
       Am
So I'm never gonna get too close to you
C
Even when I mean the most to you
   G                               Dm
In case you go and leave me in the dirt

[Refrain]
               Am                         C
Every time you hurt me, the less that I cry
                   G                               Dm
And every time you leave me, the quicker these tears dry
                   Am                         C
And every time you walk out, the less I love you
                       G                           Dm
Baby, we don't stand a chance, it's sad but it's true

[Chorus]
                         Am                            C
I'm way too good at goodbyes (I'm way too good at goodbyes)
                         G                             Dm
I'm way too good at goodbyes (I'm way too good at goodbyes)

[Verse 2]
Am                            C
  I know you're thinking I'm heartless
G                             Dm
  I know you're thinking I'm cold
Am                        C
  I'm just protecting my innocence
G                         Dm
  I'm just protecting my soul

[Pre-Chorus]
    Am
I'm never gonna let you close to me
C
Even though you mean the most to me
       G                        Dm
'Cause every time I open up, it hurts
       Am
So I'm never gonna get too close to you
C
Even when I mean the most to you
   G                               Dm
In case you go and leave me in the dirt

[Refrain]
               Am                        C
Every time you hurt me, the less that I cry
                   G                               Dm
And every time you leave me, the quicker these tears dry
                   Am                         C
And every time you walk out, the less I love you
                        G                         Dm
Baby, we don't stand a chance, it's sad but it's true

[Chorus]
                         Am                            C
I'm way too good at goodbyes (I'm way too good at goodbyes)
                         G                             Dm
I'm way too good at goodbyes (I'm way too good at goodbyes)
                          Am                              C
No way that you'll see me cry (No way that you'll see me cry)
                         G                             Dm
I'm way too good at goodbyes (I'm way too good at goodbyes)
Am                                             C
  No, no, no, no, no (I'm way too good at goodbyes)
G                                                      Dm
  No, no, no, no, no, no, no (I'm way too good at goodbyes)
Am                            C
  (No way that you'll see me cry)
G                           Dm
  (I'm way too good at goodbyes)

[Outro]
               Am                        C
Every time you hurt me, the less that I cry
                   G                               Dm
And every time you leave me, the quicker these tears dry
                   Am                        C
And every time you walk out, the less I love you
                        G                         Dm
Baby, we don't stand a chance, it's sad but it's true
N.C.
I'm way too good at goodbyes

Too Good At Goodbyes Acoustic chords by Sam Smith Ver 2

[Verse 1]
Am                          C
   You must think that I'm stupid
G                           Fmaj7
   You must think that I'm a fool
Am                          C
   You must think that I'm new to this
G                           F
   But I have seen this all before

[Refrain]
 Am
I'm never gonna let you close to me
 C
Even though you mean the most to me
 G                               Fmaj7
'Cause every time I open up, it hurts
 Am
So I'm never gonna get too close to you
 C
Even when I mean the most to you
 G                                  F
In case you go and leave me in the dirt

[Pre-Chorus]
                   Am                       C
And every time you hurt me, the less that I cry
                   G                            F
And every time you leave me, the quicker these tears dry
                   Am                        C
And every time you walk out, the less I love you
                       G                         F
Baby, we don't stand a chance, it's sad but it's true

[Chorus]
                        Am
I'm way too good at goodbyes

(I'm way too good at goodbyes)
C                         G
  I'm way too good at goodbyes
                              F
(I'm way too good at goodbyes)

[Verse 2]
Am                            C
   I know you're thinkin' I'm heartless
G                             Fmaj7
   I know you're thinkin' I'm cold
Am                        C
   I'm just protectin' my innocence
G                         F
   I'm just protectin' my soul

[Refrain]
 Am
I'm never gonna let you close to me
 C
Even though you mean the most to me
 G                               Fmaj7
'Cause every time I open up, it hurts
 Am
So I'm never gonna get too close to you
 C
Even when I mean the most to you
 G                                  F
In case you go and leave me in the dirt

[Pre-Chorus]
                   Am                       C
And every time you hurt me, the less that I cry
                   G                            F
And every time you leave me, the quicker these tears dry
                   Am                        C
And every time you walk out, the less I love you
                       G                         F
Baby, we don't stand a chance, it's sad but it's true

[Chorus]
                        Am
I'm way too good at goodbyes

(I'm way too good at goodbyes)
C                         G
  I'm way too good at goodbyes
                              F
(I'm way too good at goodbyes)
                          Am
No way that you'll see me cry

(No way that you'll see me cry)
C                        G
  I'm way too good at goodbyes
                              F
(I'm way too good at goodbyes)

[Bridge]
No
Am
No, no, no, no, no
(I'm way too good at goodbyes)
C
No, no, no, no
G
No, no, no
                              F
(I'm way too good at goodbyes)
Am                           C
  (No way that you'll see me cry)
Ahhh~
 G                            F
(I'm way too good at goodbyes)

[Outro]
                    Am                      C
And every time you hurt me, the less that I cry
                   G                           Fmaj7
And every time you leave me, the quicker these tears dry
                   Am                        C
And every time you walk out, the less I love you
                       G                         F
Baby, we don't stand a chance, it's sad but it's true
                       C
I'm way too good at goodbyes

No Good In Goodbye Tabs – The Script Vsion 1

 NO GOOD IN GOODBYE      -       the Script

Capo 2

Intro:
     1           2           3           4
e|--/----------------------------------------------/
B|5s/10-10-10-10-10-10-10-10-10-10-10-10-10-10-10s8/
G|--/----------------------------------------------/
D|--/----------------------------------------------/
A|--/----------------------------------------------/
E|--/----------------------------------------------/

  1       2       3       4        
e|--------------------------------/
B|8-8-8-8-8-8-8-8-8-8-8-8-8-8-8-8s/
G|--------------------------------/
D|--------------------------------/
A|--------------------------------/
E|--------------------------------/

  1           2           3           4
e|-----------------------------------------------/
B|12-12-12-12-12-12-12-12-12-12-12-12-12-12-12s14/
G|-----------------------------------------------/
D|-----------------------------------------------/
A|-----------------------------------------------/
E|-----------------------------------------------/

  1           2           3           4
e|---------------------------------------------/
B|14s10-10-10-10-10-10-10-10-10-10-10-10s5-5-5s/
G|---------------------------------------------/
D|---------------------------------------------/
A|---------------------------------------------/
E|---------------------------------------------/

A  Aaa – Em7  aa – G  aa – D  aah     2x 


  Em/B                              C
  1       2       3       4       1       2       3       4
e|3-------3-------3-------3---5--/3-------3-------3-------3---5--/
B|----5-------5-------5----------/----5-------5-------5----------/
G|--4---4---4---4---4---4---4---4/--5---5---5---5---5---5---5---5/
D|-------------------------------/-------------------------------/
A|-------------------------------/-------------------------------/
E|-------------------------------/-------------------------------/
1  All the things that we've lost   Breaking up comes at a cost
2  Every word I try to choose       Either way I'm gonna lose


  G/D                               D
  1       2       3       4       1       2       3       4
e|7-------7-------7-------8---7--/5-------5-------5-------7------/
B|----8-------8-------8----------/----7-------7-------7-------7--/
G|--7---7---7---7---7---7---7---7/--7---7---7---7---7---7---7---7/
D|-------------------------------/-------------------------------/
A|-------------------------------/-------------------------------/
E|-------------------------------/-------------------------------/
1  I know i'll miss this mistake                                  
2  Can't take the ache from heart -  break           Oh but as you


  C                                 D
  1       2       3       4       1       2       3       4
e|3-------3-------3-------3---5--/5-------5-------5-------10-----/
B|----5-------5-------5----------/----7-------7-------7----------/
G|--5---5---5---5---5---5---5---5/--7---7---7---7---7---7--------/
D|-------------------------------/-------------------------------/
A|-------------------------------/-------------------------------/
E|-------------------------------/-------------------------------/
2  walk away          you don’t     hear me say


Chorus:
A 
    Where's the "good" in goodbye
Em7 
      Where's the "nice" in nice try
G 
    Where's the "us" in trust gone
D                                 A 
    Where's the "soul" in soldier     on
Now I'm the "low" in lonely
Em7 
     ‘Cos I don't own you only
G 
    I can take this mistake but
D 
    I can't take the "ache" from heartbreak

A        Em7
   No –        oh 
                                     G        D         
I can't take the "ache from heart –    break  


  Em/B                              C
  1       2       3       4       1       2       3       4
e|3-------3-------3-------3---5--/3-------3-------3-------3---5--/
B|----5-------5-------5----------/----5-------5-------5----------/
G|--4---4---4---4---4---4---4---4/--5---5---5---5---5---5-

Good Timin Man Tabs – Whitey Morgan and the 78s

 http://whiteymorgan.com

-------------------------------------------------------------------------------
        Good Timin' Man - Whitey Morgan and the 78's
-------------------------------------------------------------------------------
Tuning: Standard 


There aren't many tabs for this band on here, and I figured I try one. This is my first attempt at 
transcribing anything, so any suggestions are greatly appreciated. Thank you.

P.S. I have Am in the chorus, but I don't think it's what is played, but it's the only thing I could get
to sound even remotely close.


Intro:

    C                          F                        C
e|---------------------------------1-----------1------------------------------|
B|------1---1---------1---1----------1---1-------1---1------1---1-------------|
G|--------0---0---------0---0----x-----2-----2-----2----------0---0-----------|
D|----2-------------2----------3-----------3--------------2-------------------|
A|--3-------------3-------------------------------------3---------------------|
E|----------------------------------------------------------------------------|
    G           C
e|------3-------------------0-------------------------------------------------|
B|--------0---0-----1-------1-------------------------------------------------|
G|----------0-------------0-0-------------------------------------------------|
D|----0-----------2---0h2-----------------------------------------------------|
A|--------------3-------------------------------------------------------------|
E|--3-------------------------------------------------------------------------|

Verses:

Three nights in old Arizona 
    C                        F
e|-------------------------------1-----1---------1----------------------------|
B|------1---1-------1---1----------1-----1---------1--------------------------|
G|--------0---0-------0---0----2-----2---------------2------------------------|
D|----2-----------2----------3----------------3-------------------------------|
A|--3-----------3-------------------------------------------------------------|
E|----------------------------------------------------------------------------|

Gotta get me outta California
    C                        F
e|-------------------------------1------------1--------------------------------|
B|------1---1-------1---1----------1---1--------1---1--------------------------|
G|--------0---0-------0---0----2-----2------2-----2----------------------------|
D|----2-----------2----------3------------3------------------------------------|
A|--3-----------3--------------------------------------------------------------|
E|-----------------------------------------------------------------------------|

Yea she's        waitin' there for me
    C             G               C
e|--------------------3-------------------------------------------------------|
B|------1---1-----------0---0----------1---1----------------------------------|
G|--------0---0-----------0--------------0---0--------------------------------|
D|----2-------------0----------------2----------------------------------------|
A|--3------------------------------3------------------------------------------|
E|----------------3-----------------------------------------------------------|
   C                       G            C
e|------------------------------3--------------------0------------------------|
B|------1---1-------1---1---------0---0------1-------1------------------------|
G|--------0---0-------0---0---------0--------------0-0------------------------|
D|----2-----------2-----------0------------2---0h2----------------------------|
A|--3-----------3------------------------3------------------------------------|
E|--------------------------3-------------------------------------------------|

Feelin' wrong but I'll get right
    C                          F
e|-----------------------------1----1------------1------------------------------|
B|--1----1---1-------1---1-----1------1---1-------

Dont Threaten Me With A Good Time solo Tabs – Panic! At The Disco Vsion 2

 -------------------------------------------------------------------------------
               DON'T THREATEN ME WITH A GOOD TIME - Panic! At the Disco
-------------------------------------------------------------------------------
: thanic
 ethanrocketman2
Note:  so it might not be 10/10...
Tuning: Standard

Intro riff. 

e|---------------------------------------------------------------------------|
B|---------------------------------------------------------------------------|
G|----------------------6----------------------------------------------------|
D|--------------7676-6------7----------7676--------------------------7676-6--|
A|-----6-76---------------------76--------------------------6-76-------------|
E|--9--------9-----------------------9-------------------9--------9----------|

Rest of the parts with riff.

e|---------------------------------------------------------------------------|
B|---------------------------------------------------------------------------|
G|---------------------------------------------------------------------------|
D|--------------7676-6--------------7676-----------------------------------------|
A|------7-76--------------6-76-----------------------------------------------|
E|--9--------9---------9---------9------------------------------------------|

Take Good Care Of Him chords – Anita Carter

 G C G 
I suppose I ought to say congratulations

                                    D7 
For you've won the only boy I ever loved

                                    G 
But I hurt too much to face the situation

              D7 G 
Oh take good care of him take good care of him

 
                       C G 
Just to be around him was my greatest pleasure

                                     D7 
He was everything my future held in store

                                   G 
So remember when you take my only treasure

              D7 G 
To take good care of him take good care of him

 
        C G 
I must accept it he loves you more than me

            A7 D7 
So with my broken heart I'll bow out gracefully

 
 G C G 
Please don't send me any wedding invitations

                                           D7 
For I couldn't bear to see him there with you

                                    G 
If he's happy that will be my consolation

              D7 G C G 
So take good care of him take good care of him

The Best You Can Is Good Enough chords – Martin Almgren

 Martin Almgren - The Best You Can Is Good Enough

By: Banken

Capo: 4th fret

Intro:
 Em D A 

Verse 1:
 Em D A 
  Fought my way over the mountains just to have my say
 Em D A 
  Will tell my daughter tell my son that fight was not in vein
                       C Em 
  It's everyone's concern to make our voices heard

Chorus:
   G C 
  Over land and water, boarder after boarder
           Em 
  That'll everyday to make em' learn
                              C Em 
  The best you can is good enough

Verse 2:
 Em D A 
  Heaven knows it's not an easy thing to say goodbye
 Em D A  
  Even if the ones you leave behind are full of lies
                      C Em 
  It's everyones concern to make our voices heard

Chorus:
   G C 
  Over land and water, boarder after boarder
           Em 
  That'll everyday to make em' learn
                               C 
  The best you can is good enough, Ooh ooh
   G C 
  Treasures we uncover once the journey's over
           Em 
  That'll everyday to make em' learn
                               C 
  The best you can is good enough, Yeah yea

Stick:
   G C Em C 
  (Choirs) The best you can is good enough (Choirs)

   G C 
  Over land and water, boarder after boarder
           Em 
  That'll everyday to make em' learn
   C 
  Everyday to make em' learn, Ooh yeah

Chorus:
   G C 
  Over land and water, boarder after boarder
           Em 
  That'll everyday to make em' learn
                               C 
  The best you can is good enough, Ooh ooh
   G C 
  Treasures we uncover once the journey's over
           Em 
  That'll everyday to make em' learn
                               C 
  The best you can is good enough

       Em 
  The best you can is good enough
       C G 
  The best you can is good enough

Good Christian Men Rejoice Tabs – Misc Traditional

 -------------------------------------------------------------------------------
                good christian men rejoice - traditional
-------------------------------------------------------------------------------
:

key of F
Tuning:E-A-D-G-B-e

e|---------------------------------------------------------------------------|
B|-----------------------1-3-1-1-----------------------1-3-1-1---3---1-------|
G|----------------2---3----------------------2----3----------------------3---|
D|--3---3---3-----3---0--3---3-2---3-----3---3----0----3---3-3---3---2---5---|
A|------3---3----------------------3-----------------------------------------|
E|---------------------------------------------------------------------------|
  good christian men rejoice with heart and soul and voice give ye heed to 
e|---------------------------------------------------------------------------|
B|----------------------------------------1---3----1-------------------------|
G|--2---0-------0-0---2-----0-------0--2----------------3--2---0-----------0-|
D|--3---2--3----0-----3-----2---3---3--3--3---3----2----5--3---2---3---3---0-|
A|---------5-------------------------------------------------------5---------|
E|---------------------------------------------------------------------------|
  what we say Jesus Christ is born today man and beast before him bow and he
e|---------------------------------------------------------------------------|
B|---------------------------------------------------------------------------|
G|0---2--0------0---2------------------------2------2--0----0----------------|
D|0---3--2---3--3---3----0-----0---2---2-3---3------3--3----2-3--------------|
A|-----------------------------1---3---3-3-----------------------------------|
E|---------------------------------------------------------------------------|
  is in the manger now Christ is born today Christ is born today



************************************

| /   slide up
| \   slide down
| h   hammer-on
| p   pull-off
| ~   vibrato
| +   harmonic
| x   Mute note
| b   Bend
| pb  Pre-bend
| br  Bend release
| pbr Pre-bend release
| brb Bend release bend

************************************

Gimme The Good Stuff chords – Trisha Yearwood

 Trisha Yearwood - Gimme The Good Stuff


CAPO: 4th Fret




INTRO:  G C G C G Em7 
Black coffee and teardrops
                G 
Are all soaking through
                      Em7 
All over my pillow
                 G 
It ain't nothing new


                                D 
Something just crossed my mind
                                    Em7 
I been feeling like love's a crime
                                   C 
And if it is, well, I've done my time
N.C.           D 
I'm through


CHORUS:
     C G C G 
Hey____, gimme the good stuff, yeah
 D C G C G 
Hey____, I'm tired of this hard luck
 D C            ( G C )       G 
Hey____, gimme the good stuff


                             Em7 
I've settled for too long
                    G 
I've let the truth lie
                                 Em7 
It's gonna keep tripping me up
                  G 
'Til I kiss it goodbye


                               
Well, maybe its time to put it in drive
 D Em7 
Pull the top down and feel alive
                            C 
Let the sun take over my sky
N.C.           D 
How about it?


CHORUS:
     C G C G 
Hey____, gimme the good stuff, yeah
 D C G C G 
Hey____, I'm tired of this hard luck
 D C Bm 
Hey____, gimme the good stuff


BRIDGE:
             E7 
More than a taste
             C 
It ain't so tough
                    Cm 
I'm not asking for much
               D Cm 
I don't wanna wait, yeah


INSTRUMENTAL:  Cm G Cm G Cm D 


CHORUS:
     C G C G 
Hey____, gimme the good stuff, yeah
 D C G C G 
Hey____, I'm tired of this hard luck
 D C G C G 
Hey____, gimme the good stuff
 D C            ( G C )  
Hey____, gimme the good stuff


OUTRO:  G C G C G D Em7 C G

No Good intro Tabs – Kaleo

 -------------------------------------------------------------------------------
                               NO GOOD - Kaleo
-------------------------------------------------------------------------------
: phil


Tuning: standard eadgbe

this is basically the riff which is played throughout the song.

chords used are barred E, G and A

Song starts with simple chords:
(listen to the song for the timing, its pretty easy actually)

E G E   E G E    E G E    E E    E G E    E E    E G E

e|-3b4br0---------------------3b4br0---5b6--3---0---0-----3b4br0---------------------| 2x
B|-----------0----------------------------------3------------------0-----------------|
G|-------2-2---2p0---------------------------------------------2-2---2p0-----2-2p0---|
D|-----------------2p0-2-------------------------------------------------2p0-------2-|
A|-----------------------------------------------------------------------------------|
E|-----------------------------------------------------------------------------------|



************************************

| /   slide up
| \   slide down
| h   hammer-on
| p   pull-off
| ~   vibrato
| +   harmonic
| x   Mute note
| b   Bend
| pb  Pre-bend
| br  Bend release
| pbr Pre-bend release
| brb Bend release bend

************************************

Youll Lose A Good Thing chords – Freddy Fender

 You'll Lose A Good Thing:Freddy Fender.
#1 on US Country and #32 on BB HOt 100
on DOT Records in 1976.

INTRO:  Gbm Bm Em  A..Gbm  Bm Em A 

CHORUS:
 A D Bm Em A 
Well, if you lose me, oh, yes, you'll lose 
   D Bm Em A 
a good thing.
               Gbm Bm Em A 
If you should lose me, oh, yes, you'll lose 
   D Bm Em A 
a good thing.

#1.
 D Bm Em 
You know I love you, girl, but I want you 
       A 
to do right.
    D Bm Em 
If you would only straighten up, we'd have a 
      A 
good life.
 D Gbm Bm Em A 
And if you don't believe me, oh, yes, you'll 
        D Bm Em A 
lose a good thing.

#2.
 A Gbm Bm Em A 
Well, if you lose me, oh, yes, you'll lose a 
 D Bm Em A 
good thing.
     D Bm Em 
You do all your parading, with every man in 
 A 
town.
   D Bm Em 
I try to find you, woman, and you're nowhere 
       A 
to be found.

CHORUS:
 A D Bm Em A 
But, if you lose me, oh, yes, you'll lose 
   D Bm Em A 
a good thing.
               Gbm Bm Em A 
If you should lose me, oh, yes, you'll lose 
   D G D A 
a good thing.

#3.
     D Bm Em 
You know I love you, woman, I can't tell you 
    A 
anymore.
    D Bm Em 
If you don't straighten up, I'm gonna walk 
                   A 
right out of that door.
                  D Bm Em A 
And if you don't believe me, oh, yes, you'll 
        D Bm Em A 
lose a good thing, oh, yes, oh, yes.

OUTRO:
               D Bm Em 
You'll lose a good thing, just like that,
           A 
just like that.
               D Bm Em 
You'll lose a good thing, just like that,
           A 
just like that..(Fade.)



A seventies smash from Kraziekhat.


You Let A Good Man Go Tabs – Peer Günt

 Main Riff:
e:---------------------------------------------------------------------------|
B:-----8--7----5~------------------------------------------------------------|
G:-----7--7----5~------------------------------------------------------------|
D:------------------7--5-----------------------------------------------------|
A:--0----------------------7--5----------------------------------------------|
E:-------------------------------8--5----------------------------------------|


Bridge1:
e:---------------------------------------------------------------------------|
B:---------------------------------------------------------------------------|
G:-5--5--5--5--5----5--5--5--5-----------------------------------------------|
D:-4--4--4--4--4----4--4--4--4-----------------------------------------------|
A:-5--5--5--5--5----5--5--5--5-----------------------------------------------|
E:---------------------------------------------------------------------------|

                                                                
Bridge2:
e:--------------------------------------------------------------|
B:--------------------------------------------------------------|
G:--7--7--7--7--7----7--7--7--7------5--5--5--5--5----5--5--5--5|
D:--6--6--6--6--6----6--6--6--6------4--4--4--4--4----4--4--4--4|
A:--7--7--7--7--7----7--7--7--7------5--5--5--5--5----5--5--5--5|
E:--------------------------------------------------------------|


Alternate version:


Main Riff:
e:---------------------------------------------------------------------------|
B:-----8--7----5~------------------------------------------------------------|
G:-----9--7----5~------------------------------------------------------------|
D:------------------7--5-----------------------------------------------------|
A:--0----------------------7--6--5-------------------------------------------|
E:----------------------------------5----------------------------------------|

Makeshift Love chords – Good Charlotte V2

 No capo

Chords used:  D G Bm A Em  


Intro:

e|---2---2---3---5---2---2---7-5-----|
B|-----3---3---3-------3---3---------|
G|-----------------------------------|
D|-----------------------------------|
A|-----------------------------------|
E|-----------------------------------|


Verse I:

           D G 
I fucking hate these nights, the ones where you don't know me
            D G 
If I could get this right, if I could get away from the old me
      D G 
But I'll survive, right now I'm dying just to breathe in
         D G 
Just to be alive, just to get away from the old me


Pre chorus:

              Bm G 
There's only makeshift love tonight
           D A 
There's a triage in my living room
     Bm G 
She checks my vital signs
      D A 
Then opens up my wounds


Chorus:

           D A 
Like I'm dying tonight
         Em G 
And the whole world is laughing
       D A Em 
Like everyone I love has gone away
    G 
Whoaaa
     D A 
I'm dying tonight
     Em G 
But no one is crying
      D A Em 
It's not alright no matter what they say
    G 
Whoaaa


Verse II:

           D 
I fuckin' hate these fights
      G 
The ones where you just own me
            D 
We used to be so tight (yeah right)
     G 
But you just want the old me
              D 
Turn off the god damn lights (turn off the god damn lights!)
           G 
If you're really gonna get up and just leave
           D 
I used to get so high
     G 
But that was just the fucking old me


Pre chorus:

              Bm G 
There's only makeshift love tonight
           D A 
There's a triage in my living room
         Bm G 
She'll  check my vital signs
    D A 
To see what else she can do


Chorus:

           D A 
Like I'm dying tonight
         Em G 
And the whole world is laughing
       D A Em 
Like everyone I love has gone away
    G 
Whoaaa
     D A 
I'm dying tonight
     Em G 
But no one is crying
      D A Em 
It's not alright no matter what they say
    G 
Whoaaa


Bridge:

(Repeat intro x2)
e|---2---2---3---5---2---2---7-5-----|
B|-----3---3---3-------3---3---------|
G|-----------------------------------|
D|-----------------------------------|
A|-----------------------------------|
E|-----------------------------------|

 D A G 
All that she wanted was me broken hearted
 D A G 
I know it's sad but it's true
   D A G 
I won't get her started, now she's departed
         D A G 
There's no looking back me and you


Pre chorus:

              Bm G 
There's only makeshift love tonight
           D A 
There's a triage in my living room
         Bm G 
She'll  check my vital signs
    D A 
To see what else she can do


Chorus:

           D A 
Like I'm dying tonight
         Em G 
And the whole world is laughing
       D A Em 
Like every

My Names Sorrow chords – Good Old War

 e|-----|--------------------------|
B|-1p0-|-3------------------1-0---|
G|-----|------0---0-----0--2----2-|
D|-----|--------------4-----------|
A|-----|--------------------------|
E|-----|--------------------------|

 G Em 
Follow me back like a ride on a train 
 Am D 
Make it hard to remember the cold 
 G Em 
Take care of your money and stay out of the rain
 Am D 
Your bones could give out when you're old 
 G Em 
I get more of a feeling from words that have truth 
   Am D 
A feeling like something is wrong 

e|------------------|-2--------------------|
B|-0---3---1---0----|-3------3------5------|
G|-0---4---2---0----|--------4------5------|
D|------------------|---------------5------|
A|------------------|----------------------|
E|------------------|----------------------|

Let the door slide open, let the sunlight in

 G Am D G 
Call my name girl, Sorrow


 G Em 
All of the times that I heard you sing 
 Am D 
I hoped there parts there for me
 G Em 
I'd sing all the notes that stay out of your way
 Am D 
We can let all those melodies free 
 G Em 
I think I was meant for an uglier time 
    Am D 
My harmony's all out of tune 

e|------------------|-2--------------------|
B|-0---3---1---0----|-3------3------5------|
G|-0---4---2---0----|--------4------5------|
D|------------------|---------------5------|
A|------------------|----------------------|
E|------------------|----------------------|
Let the verse slide over let the chorus in

 G Am D G 
Call my name girl, Sorrow


 G Am Em C 
We'll be out of the dark when the seasons pass
 G Am D 
But you have to live now or you won't
 G Am Em C  
Put your gloves on your hands, wear your winter skin
 G Am D 
Cause it's over before you say August
 G Am D 
All your friends will await your return

e|------------------|-2--------------------|
B|-0---3---1---0----|-3------3------5------|
G|-0---4---2---0----|--------4------5------|
D|------------------|---------------5------|
A|------------------|----------------------|
E|------------------|----------------------|

With the car doors open and the radio on 
 G Am D G 
Call my name girl, Sorrow

Sorrow oooo

Something Good Tabs – Alt-J V5

 Hey guys, another song by Alt-J "Something Good",

I've included parts for Guitar 1(top half) and 2(lower half), giving a fuller sound to this song.
Alternatively, you can choose to play parts from Guitar 1 or 2 by combining sections. Enjoy!

: Scapeforce
http://profile.ultimate-guitar.com/scapeforce/

Tuning: Standard EADGBe

~~~~~~~~~~~~~~~~~~~~~~~~~~~~~~~~~~~~~~~~~~~~~~~~~~~~~~~~~~~~~~~~~~~~~~~~~~~~~~~~~~~~~~~~~~~~~~~~~~~~~~~~~~~~~

[Guitar 1]

E|------------------------------2--------------------------------------|
B|----0---0---0---0---0---0---0--3p2p0----0---0---0---0---0---0--0---0-|
G|---------------------------------------------------------------------|
D|---------------------------------------------------------------------| x2
A|--2--22---2--22---2--22---2------------------------------------------|
E|--------------------------------------3--33---3--33---3--33---3--33--|

"Something good..."
e|--------------------------------------|
B|----0--0-----0--0-----0--0-----0--0---|
G|--------------------------------------|
D|--2--22----0--00----------------------| x4
A|-----------------------------2--22----|
E|--------------------3--33-------------| 

e|----------17-14--------------------15p14----------|
B|-----15---------15----15------15---------15----15-|
G|---16--16----------16-------16--16----------16----|
D|--------------------------------------------------| x2
A|--------------------------------------------------|
E|--------------------------------------------------|

"Get high..."
e |--------------------------------------------------------------------------|
B |------0--0------1--1----0--1---0------------0--0----1--1----0--1----0--0--|
G |------0--0------0--0----0--0---0------------2--2----0--0----0--0----0--0--|
D |--------------------------------------------------------------------------| x2
A |--------------3--33-------------------------------3--33-------------------|
E |----0--00-------------3--33---3-----3--2--0--00-----------3--33---3--33---|

"Something good..."
e|--------------------------------------|
B|----0--0-----0--0-----0--0-----0--0---|
G|--------------------------------------|
D|--2--22----0--00----------------------| x4
A|-----------------------------2--22----|
E|--------------------3--33-------------| 

e|----------17-14--------------------15p14----------|
B|-----15---------15----15------15---------15----15-|
G|---16--16----------16-------16--16----------16----|
D|--------------------------------------------------| x4
A|--------------------------------------------------|
E|--------------------------------------------------|

"Forty-eight thousand..."
e |--------------------------------------------------------------------------|
B |------0--0------1--1----0--1---0------------0--0----1--1----0--1----0--0--|
G |------0--0------0--0----0--0---0------------2--2----0--0----0--0----0--0--|
D |--------------------------------------------------------------------------| x2
A |--------------3--33-------------------------------3--33-------------------|
E |----0--00-------------3--33---3-----3--2--0--00-----------3--33---3--33---|

e|----------17-14--------------------15p14----------|
B|-----15---------15----15------15---------15----15-|
G|---16--16----------16-------16--16----------16----|
D|--------------------------------------------------| x16
A|--------------------------------------------------|
E|--------------------------------------------------|

"Get high..."
e |--------------------------------------------------------------------------|
B |------0--0------1--1----0--1---0------------0--0----1--1----0--1----0--0--|
G |------0--0------0--0----0--0---0------------2--2----0--0----0--0----0--0--|
D |--------------------------------------------------------------------------| x2
A |--------------3--33-------------------------------3--33-------------------|
E |----0--00-------------3--33---3-----3--2--0--00-----------3--33---3--33---|

"Forty-eight thousand..."
e |---------------------------------

Good Intent chords – Kimbra

 CAPO 1

      Dm 
You heard the crickets of the early eve
       A7 
They lurk around the opening in twos and threes
  Dm 
Clementine told you not to move with the breeze
        A7 Dm 
It'll take you down to places where we dare not speak


     Dm Dm7 G7 
The red light in the doorway says she's armed
      A7 Dm 
But, boy, go try your luck and you might get past
                Dm7 G7 
Step into the dwelling of the liger's mouth
  A7 Dm 
Peer into the panic for a kick and swell
                        Dm7 G7 
You know you shouldn't be there but it's way past bed
          A7 Dm 
There's comfort in the fingers of your good intent
                        Dm7 G7 
You know you shouldn't be there but your money's all spent
        A7 Dm G 
You've got your reputation and your good intent
       A7 Dm 
Your good intent

 Dm A Dm 
Oooooooooooh


 Dm 
Out to feed that habit when you've sowed that seed
 A7 Dm 
Nothing made you feel out of the ordinary
         Dm 
But the air turns sombre and the night took heed
  A7 Dm 
Took you on a waltz of hypocrisy
      Dm 
She broke your bones, now you're lying in the dirt
      A7 Dm 
The shadow of a hunter under your torture
      Dm 
It's not enough to say, it's not what's in your heart
         A7 Dm 
You've tainted every moment till death do we part

    Dm Dm7 G7 
I know you didn't mean it, boy you meant so well
      A7 Dm 
The pennies are cascading down your wishing well
                   Dm7 G7 
I know you didn't mean it when you counted to ten
         A7 Dm 
You're slipping through the fingers of your good intent
                   Dm7 G7 
I know you didn't mean it, though you meant so well
      A7 Dm 
The pennies are cascading down your wishing well
                   Dm7 G7 
I know you didn't mean it when you counted to ten
        A7 Dm G 
You've got your reputation and your good intent
    A7 Dm 
Such a good intent


      Dm Dm7 G7 
It's not enough to hope for the best
      A7 Dm 
It's not enough to lie there on a breast
                     Dm7 G7 
The liger's on the prowl now you've pulled its strings
Dm                                                      G*    A7*
One false move and soon you're playing dice for a-

[Instrumental:]  Dm 


*One strum

Good Goes The Bye chords – Kelly Clarkson

 Good Goes The Bye by Kelly Clarkson
 Piece By Piece
Track 13
2015


Standard Tuning
Capo on the 1st fret


Chords:

C:      x32010
F:      x33211 or 133211
G:      320003 or 320033
Am:     x02210


 Intro:       C F C 


 Verse:
     C 
 They say Rome wasn't built in a day

 But you and I wouldn't build it anyway
          F C 
 And it only took a second to watch it all fall to dust
  C 
 I thought you hung up the moon

 And you thought I lit up the room
           F C 
 But the lights turned off and that was the end of us


 Chorus:
                 F 
 Slam goes the door
                  G 
 Hush goes the phone
                 Am 
 Out goes the flame
            C 
 And I'm standing here alone
                  F 
 Down goes the drink
                G 
 Down go the tears
                 Am 
 Drip goes the sink
           C 
 And I'm missing you like hell
                   F 
 Break goes the heart
                  G 
 Wrong goes the right
                 C F C 
 Good goes the bye


 Verse:
        C 
 It's like we pulled the pin out of a grenade

 It just didn't go off right away
       F C 
 But man did it go off when it finally did
  C 
 Everything's suddenly magnified

 It's loud and it's quiet at the same time
         F C 
 As the echo of it's all over, sets in


 Chorus:
                 F 
 Slam goes the door
                  G 
 Hush goes the phone
                 Am 
 Out goes the flame
            C 
 And I'm standing here alone
                  F 
 Down goes the drink
                G 
 Down go the tears
                 Am 
 Drip goes the sink
           C 
 And I'm missing you like hell
                   F 
 Break goes the heart
                  G 
 Wrong goes the right
                 Am 
 Good goes the bye


 Bridge:
 Am F 
 I can't go back
                  C 
 We can't be friends
                        G 
 And we can't be what we were then
 Am F 
 You can't be mine
                     C 
 And I can't be yours
                G 
 It's not love anymore


 Chorus:
                 F 
 Slam goes the door
                  G 
 Hush goes the phone
                 Am 
 Out goes the flame
            C 
 And I'm standing here alone
                  F 
 Down goes the drink
                G 
 Down go the tears
                 Am 
 Drip goes the sink
           C 
 And I'm missing you like hell
                   F 
 Break goes the heart
                  G 
 Wrong goes the right
        C F C 
 Goodbye


In Good Time chords – Beau Brummels

 In Good Time:Beau Brummels.
B-Side of Don't Talk To Strangers.
#52 on BB Hot 100 on Autumn Records
in 1965.

INTRO:  B E  G..E  D E  G..D  E G 

#1.
 E D E 
Sittin’ with a crowd around me, why do I feel lonely?
 E A D E 
People talkin’ lots around me, why do I feel lonely?
 E A D E 
I can go to congregation, still neglected by the nation.
              A D E 
I can get my fill–a-bration, still I’m feelin’ lonely.

CHORUS:
             A D E 
Time, time, in good time, oh, oh, I feel some better.
             A D E B E B E 
Time, time, in good time, oh, oh, I will forget her.

(Yeah!)

#2.
 E A D E 
I’m not one to start complainin’, why am I so sour?
 E A D E 
I’m not losin’ ground, I’m gainin’, why am I so sour?
 E A D E 
Everything is goin’ my way, traffic’s moving on the highway.
 E A D E 
Don’t mind eatin’ fish on Friday, still I’m feelin’ sour.

CHORUS:
             A D E 
Time, time, in good time, oh, oh, I feel some better.
             A D E B E B E 
Time, time, in good time, oh, oh, I will forget her.


#3.
 E A D E 
Now, doesn’t matter what I’m playin’, why do I get shaky?
 E A D E 
Doesn’t matter what I’m sayin’, why do I get shaky?
 E A D E 
Cannot figure why I’m bitter, folks call me a real go-getter.
 E A D E 
I ain’t never been no quitter, still I’m feelin’ shaky.

CHORUS:
             A D E 
Time, time, in good time, oh, oh, I feel some better.
             A D E        
Time, time, in good time, oh, oh, I will forget her.

OUTRO:
 E A D E 
Time, time, in good time, oh, oh, I feel some better.
 E A D E       
Time, time, in good time, oh, oh, I will forget her.



A Sixties Smash from Kraziekhat.

Good People chords – Little Big Town

 NO CAPO 

 G D G D G Em G 
They say you are who you hang with
 G Em G 
It's no coincidence I wanna hang with you
 G C G 
Rise and fall together, travel is better in twos


 G 
Sometimes it feels like a magnet
 G Bm 
The way that crazy always sticks with its own kind
 G C 
 Don't believe in ESP
 C G              
But you can read my mind


[Chorus]
 G D 
Good people know
 D C 
Good people know
 C G D Bm 
Good people


 Bm D 
Good people know
 D C 
Good people know
 C G      
Good people

SOLO:  D G D C G D G G 
A good friend would bail you out of jail
 G C 
But a better one would be handcuffed to you
 C G 
Everyone's a winner when all the winners loose


[Chorus]
 G D 
Good people know
 D C 
Good people know
 C G D Bm 
Good people


 Bm D 
Good people know
 D C 
Good people know
 C G      
Good people


[Bridge]
 G Em C 
They can always spot another one when they're nearby
    Em C 
No matter where you land you're gonna find

[Chorus]
 Em D 
Good people know
 D C 
Good people know
 C G D G 
Good people

 D C G D G Bm 
We're guilty by association
 Bm G D 
Keeping company with ornery company
 D C 
Running round with rogues and rounders
              G 
Cause we believe

[Chorus]+[Bridge]
 C D 
Good people know
 D C 
Good people know
 C G Bm 
Good people

 Bm D 
Good people know
 D C 
Good people know
 C G Bm 
Good people

 Bm Em C 
They can always spot another one when they're nearby
    Em G C 
No matter where you land you're gonna find

[Chorus](x2)
 C D 
Good people know
 D C 
Good people know
 C G D G 
Good people


 G D  
Good people know
 D C 
Good people know
 C G D G 
Good people


 G D  
Good people know
 D C 
Good people know
 C G D G 
Good people

[outro]
 D Bm C G D G

Good Girl Tabs – Carrie Underwood

 -------------------------------------------------------------------------------
                          Good Girl - Carrie Underwood
-------------------------------------------------------------------------------
: Tristsn S
Type: Personal Interpretation of Song
Tuning: Standard
Capo: No
# of Guitars: 2


   ***INTRO***:
e|---------------------------------------------------------------------------|
B|---------------------------------------------------------------------------|
G|-------5-------8/10--8----3-3-----5----------------------3-3----3/(5-------|
D|-------5-------8/10--8----3-3-----5-------1-3--3h4p3-1---3-3----3/(5)------|
A|-------3-------6/8---6----1-1-----3-----3----------------1-1----1/(3)------|
E|---------------------------------------------------------------------------|  X2


   ***VERSE*** (When Singing Starts): 
e|---------------------------------------------------------------------------|
B|---------------------------------------------------------------------------|
G|-------5-------8/10--8----3-3-----5-------8/10--8----3-3----3/(5)----------|
D|-------5-------8/10--8----3-3-----5-------8/10--8----3-3----3/(5)----------|
A|-------3-------6/8---6----1-1-----3-------6/8---6----1-1----1/(3)----------|
E|---------------------------------------------------------------------------|  X3

   Last Bar Before Chorus:
e|---------------------------------------------------------------------------|
B|---------------------------------------------------------------------------|
G|-------5---------8/10--8----3-3-----5----3----2----3-----------------------|
D|-------5---------8/10--8----3-3-----3----3----2----3-----------------------|
A|-------3---------6/8---6----1-1-----3----1----0----1-----------------------|
E|---------------------------------------------------------------------------|

   ***CHORUS***: 

   GUITAR 1 Lead:
e|---------------------------------------------------------------------------|
B|---------------------------------------------------------------------------|
G|---------------------------------------------------------------------------|
D|---------------------------------------------------------------------------|
A|-----------------------------6-------8/10---8~ ----------------------------|
E|----------------4----6-6/8-------8-----------------------------------------|  X3


   GUITAR 2 Rhythm played with G1:
e|---------------------------------------------------------------------------|
B|---------------------------------------------------------------------------|
G|-----------------------------8--8------------------------------------------|
D|----------------6---6--------8--8-----------8--8--8----8/10--10------------|
A|----------------6---6--------6--6-----------8--8--8----8/10--10------------|
E|----------------4---4-----------------------6--6--6----6/8---8-------------|  X3
  Down/Up Stroke  D   D        D  U           D  D  U    D U   D


  GUITAR 1&2 Last Bar:
e|---------------------------------------------------------------------------|
B|---------------------------------------------------------------------------|
G|---------------------------------------------------------------------------|
D|----------------6------------------------------8--8--8--8--8--8------------|
A|----------------6------------------------------8--8--8--8--8--8------------|
E|----------------4-----------------------------=6--6--6--6--6--6------------| 
   Strokes:       D                              D  D  D  D  D  D    



  *****Can do Palm Muted Up and Down Strokes during rest bar just 
       after chorus, then continue to this:










   ***Post Chorus Bridge***:

   GUITAR 1:
e|------------6--------------6-------------10--------------------------------|
B|--------4----------------8------------------11----13-------11--------------|
G|----------5------------8--------------10-------10----10-------10-----------|
D|-----------------------------------12-------------------12-------12--------|
A|------3-