Tag: goodbye

No Good In Goodbye Tabs – The Script Vsion 1

 NO GOOD IN GOODBYE      -       the Script

Capo 2

Intro:
     1           2           3           4
e|--/----------------------------------------------/
B|5s/10-10-10-10-10-10-10-10-10-10-10-10-10-10-10s8/
G|--/----------------------------------------------/
D|--/----------------------------------------------/
A|--/----------------------------------------------/
E|--/----------------------------------------------/

  1       2       3       4        
e|--------------------------------/
B|8-8-8-8-8-8-8-8-8-8-8-8-8-8-8-8s/
G|--------------------------------/
D|--------------------------------/
A|--------------------------------/
E|--------------------------------/

  1           2           3           4
e|-----------------------------------------------/
B|12-12-12-12-12-12-12-12-12-12-12-12-12-12-12s14/
G|-----------------------------------------------/
D|-----------------------------------------------/
A|-----------------------------------------------/
E|-----------------------------------------------/

  1           2           3           4
e|---------------------------------------------/
B|14s10-10-10-10-10-10-10-10-10-10-10-10s5-5-5s/
G|---------------------------------------------/
D|---------------------------------------------/
A|---------------------------------------------/
E|---------------------------------------------/

A  Aaa – Em7  aa – G  aa – D  aah     2x 


  Em/B                              C
  1       2       3       4       1       2       3       4
e|3-------3-------3-------3---5--/3-------3-------3-------3---5--/
B|----5-------5-------5----------/----5-------5-------5----------/
G|--4---4---4---4---4---4---4---4/--5---5---5---5---5---5---5---5/
D|-------------------------------/-------------------------------/
A|-------------------------------/-------------------------------/
E|-------------------------------/-------------------------------/
1  All the things that we've lost   Breaking up comes at a cost
2  Every word I try to choose       Either way I'm gonna lose


  G/D                               D
  1       2       3       4       1       2       3       4
e|7-------7-------7-------8---7--/5-------5-------5-------7------/
B|----8-------8-------8----------/----7-------7-------7-------7--/
G|--7---7---7---7---7---7---7---7/--7---7---7---7---7---7---7---7/
D|-------------------------------/-------------------------------/
A|-------------------------------/-------------------------------/
E|-------------------------------/-------------------------------/
1  I know i'll miss this mistake                                  
2  Can't take the ache from heart -  break           Oh but as you


  C                                 D
  1       2       3       4       1       2       3       4
e|3-------3-------3-------3---5--/5-------5-------5-------10-----/
B|----5-------5-------5----------/----7-------7-------7----------/
G|--5---5---5---5---5---5---5---5/--7---7---7---7---7---7--------/
D|-------------------------------/-------------------------------/
A|-------------------------------/-------------------------------/
E|-------------------------------/-------------------------------/
2  walk away          you don’t     hear me say


Chorus:
A 
    Where's the "good" in goodbye
Em7 
      Where's the "nice" in nice try
G 
    Where's the "us" in trust gone
D                                 A 
    Where's the "soul" in soldier     on
Now I'm the "low" in lonely
Em7 
     ‘Cos I don't own you only
G 
    I can take this mistake but
D 
    I can't take the "ache" from heartbreak

A        Em7
   No –        oh 
                                     G        D         
I can't take the "ache from heart –    break  


  Em/B                              C
  1       2       3       4       1       2       3       4
e|3-------3-------3-------3---5--/3-------3-------3-------3---5--/
B|----5-------5-------5----------/----5-------5-------5----------/
G|--4---4---4---4---4---4---4---4/--5---5---5---5---5---5-

Goodbye Supernova Tabs – Joe Satriani

 -------------------------------------------------------------------------------
                             Goodbye Supernova - Joe Satriani
-------------------------------------------------------------------------------
Tuning: Eb

Intro
e|-9----------5----------2----------------|
B|-7----------5----------0----------------|
G|-9----------7----------4----------------|
D|----------------------------------------|(x4)
A|----------------------------------------|
E|----------------------------------------|

Bridge
e|------------------------------------------|
B|--------------------------------------(7)-|
G|--------------------------------------(7)-|
D|-----------9-7----7-----------------------|(x2)
A|------7-9------9----9-7--9-7--------------|
E|-7-10------------------------10--7--------|

Verse 1
e|---------------------------------------------------------------|
B|---------------------------------------------------------------|
G|-(11)r9p7--9b11--9b11~~--(11)r9p7--9b11----9b11--9b11~~~~~~~~/-|
D|---------------------------------------------------------------|
A|---------------------------------------------------------------|
E|---------------------------------------------------------------|

e|---------------------------------------------------------------------------|
B|---------------------------------------------------------------------------|
G|-(11)r9p7--9b11r9b11----9b11--(11)r9--7--9b11------9b11--9b11--9b11~~~~~~\-|
D|---------------------------------------------------------------------------|
A|---------------------------------------------------------------------------|
E|---------------------------------------------------------------------------|

e|-----------------------------------------------|---------------------------------------------|
B|-----------------------------------------------|---------------------------------------------|
G|-----6--7~~--9--9~~--9--9/12~~~~~~--11br~~~~~~-|-4\2/4/7~~~~~~~~~~----4\2/4/9~~~~~~~~--------|
D|---7-------------------------------------------|---------------------------------------9p7-9-|
A|-7---------------------------------------------|---------------------------------------------|
E|-----------------------------------------------|---------------------------------------------|

Bridge
e|------------------------------------------|
B|--------------------------------------(7)-|
G|--------------------------------------(7)-|
D|-----------9-7----7-----------------------|(x2)
A|------7-9------9----9-7--9-7--------------|
E|-7-10------------------------10--7--------|

Verse 2
e|--------------------------------------------------------------------------------17-----------------|
B|-(19)r17p15--17b19r17b19---17b19-17-15----15-17-15-17b19--17b19--17b19--17b19------17b19~~~~r17p15-|
G|---------------------------------------16----------------------------------------------------------|
D|---------------------------------------------------------------------------------------------------|
A|---------------------------------------------------------------------------------------------------|
E|---------------------------------------------------------------------------------------------------|

e|-10b12--10~~~7----10-7----8b9~~~~7h9p7----7----------------------|
B|---------------7-------7---------------10---7-10-7---7-----------|
G|---------------------------------------------------9---9/11~~~~\-|
D|-----------------------------------------------------------------|
A|-----------------------------------------------------------------|
E|-----------------------------------------------------------------|

e|----------------------------------------------------------|------------------------------------------------|
B|-------14-15~~14--17~~15--17b20~~~~~~~~17b19~~~~~~~r17p15-|-12\10/12/15~~~~~~17b19--------12\10/12/15~~~~\-|
G|----14----------------------------------------------------|------------------------------------------------|
D|-14-------------------------------------------------------|--

Naruto – Long Kiss Goodbye chords – Misc Cartoons

 *all verses: same chords

Capo 4

intro:  G6 Asus2 Bm7 D G6 Asus2 Dsus2 D G6 
 Kondo wa itsu aeru ka nante 
 Asus2 
 Sonna kao shite yoku ieru tte 
  Bm7 
Omotteta yo nande darou
 Em 
 Nanimo ki ni naranai furi shite 
 Asus2 
 Iiwake suru nara kiku wa asa made 
 Dsus2 F# 
Tsunagattetai kara

     G6 
Mou kao mo mitakunai meguro gawasoi 
  Asus2 
Arienai tenkai odoru keetai 
 Bm7 
gubbai meeru naraba wasuretai 

"Hold me tight" but "dokka kietai" 
 Em 
any time shaberi sugi no KY 
 Asus2 
 Chirari miseru tsuyogari na "I cry" 
 Dsus2 
 Namida no kouka wa dore kurai?

Chorus:
         G6 Asus2 Bm7 D 
Watashi nari ni "ai saretai" afureru no ni kimi ga mienai 
         Em Asus2 D F# 
Nido to kimi ni aenai sonna ki ga surunda... 
       G6 Asus2 Bm7 
Tsutaetai no ni umai kotoba miataranai 
           D G6 Gm D 
Watashi tabun uso demo ii no ni "ikanai de" mo ienai yo

 G6 
Kushami suru to deru henna koe to 
 Asus2 
Kushakusha ni warau busaiku na kao 
   Bm7 
Tomaranai ase me wo kosuru kuse 

Dousetsu maranai aitsu no tokusei
 Em 
Nite mo nitsu kenai futari no sutairu 
 Asus2 
Muda ni Shy sensu wa yayanai 
 Dsus2 
Uso tsuku toki no fukumi warai uzai 
 F# 
Tokku ni barebare mendokusai

 G6 
 Tamatama kareshi ga inai taimingu de 
 Asus2 
 Hima tsubushi teido no koitte 
 Bm7 
Tomodachi ni mo iiwake shitete 

Masaka watashi ga oikaketeru... nande?
 Em 
Tsumaranai jooku wa ittsumo kudoku 
 Asus2 
Dokomademo tsudzuku akiaki na tooku 
 Dsus2 
Sono tabi rokku kondo wa watashi kara knock

Chorus:
         G6 Asus2 Bm7 D 
Watashi nari ni "ai saretai" afureru no ni kimi ga mienai 
         Em Asus2 D F# 
Nido to kimi ni aenai sonna ki ga surunda... 
       G6 Asus2 Bm7 
Tsutaetai no ni umai kotoba miataranai 
           D G6 Gm D 
Watashi tabun uso demo ii no ni "ikanai de" mo ienai yo

Bridge:
 Em Asus2 Bm7 Dsus2 
Nigittetate ga hanaretara 
         G6 Em 
Kimi wa itsuka wasurechau no? 
   Asus2 F# 
Watashi no koto

Chorus:
         G6 Asus2 Bm7 D 
Watashi nari ni "ai saretai" afureru no ni kimi ga mienai 
         Em Asus2 D F# 
Nido to kimi ni aenai sonna ki ga surunda... 
       G6 Asus2 Bm7 
Tsutaetai no ni umai kotoba miataranai 
           D G6 Gm D 
Watashi tabun uso demo ii no ni "ikanai de" mo ienai yo

Goodbye Agony Tabs – Black Veil Brides

 guitar1:(2x)
|----------------------------------------------------------------------------------------------------------|
|--------2---3-----------------2---------------------------2-----3-----------------------------------------|
|------4-------------------4-------4-----------------4-------------------------------3--------4-----/6-----|
|----------------------------------------------------------------------------------------------------------|
|----2-----------------------------------------------------------------------------------------------------|
|---------------------5--------------------2---------------------------------4-----------------------------|

guitar2:
|----------------------------------------------------------------------------------------------------------|
|------12----------------------------------------------------------------11----------12----------14--------|
|----------------11------12------11------12-------\9------------12-----------------------------------------|
|----------------------------------------------------------------------------------------------------------|
|----------------------------------------------------------------------------------------------------------|
|----------------------------------------------------------------------------------------------------------|

Intro/Chorus lead part 1:
|---------------------------------------------------------------------14-----------------------------------|
|---12---------12---14---15b----------12---14----15--15b--15b---14--------14----12------11---12------------|
|----------11-----------------------11---------------------------------------------------------------------|
|----------------------------------------------------------------------------------------------------------|
|----------------------------------------------------------------------------------------------------------|
|----------------------------------------------------------------------------------------------------------|

|---------------------------------------------------------------------14-----------------------------------|
|---12---------12---14---15b----------12---14----15--15b---15b---14--------14----12----11---12b------------|
|--------11-----------------------11-----------------------------------------------------------------------|
|----------------------------------------------------------------------------------------------------------|
|----------------------------------------------------------------------------------------------------------|
|----------------------------------------------------------------------------------------------------------|

Chorus Lead part2:
|----------------------------------------------------------------------------------------------------------|
|------12--------------------------------------------------------------11----------12------------14--------|
|-------------11------12------11-----12----11-----12------9-----12-----------------------------------------|
|----------------------------------------------------------------------------------------------------------|
|----------------------------------------------------------------------------------------------------------|
|----------------------------------------------------------------------------------------------------------|
solo:

|---14b---14b---12-10---14p10---------------------10------------------14p10--------------------------------|
|--------------------------------12--10--12-------------14--12--14------------12---------------------------|
|----------------------------------------------------------------------------------------------------------|
|----------------------------------------------------------------------------------------11----12b---------|
|----------------------------------------------------------------------------------------------------------|
|--------------------------------------------------------------------------------------------------

One Goodbye chords – The Milk Carton Kids

 One Goodbye - The Milk Carton Kids

Tuning is typically one step down for Joey's part, but that's only
if you want to play along with the song while it's on.

[Intro Chords]
 C/B Am D Em Am C G D C 
Your taxi waits on a Gotham night

 C G 
Your head is hanging, you still got some fight

 Em A 
You're far away in a lonesome land

 C D 
And you've left behind a lonesome man

 G D 
A shadow carries over you

 C G 
I never had a chance to do

 Em A 
The things you wanted, the things you would

 C D 
The things that haunt, I never could


 Am D G C      
I'm glad we met, and God we tried

 C D 
My one regret 

         C/B Am G 
We got one goodbye


 G D C 
I come in pieces, I always have

 C G 
I miss your face and the way you laugh

 Em A 
The world turns, you're holding still

 C D   
The music lifts your troubles will

 G D 
I've been around, you know it's true

 C G 
This old town gets the best of you

 Em A      
Mistaken footsteps foreign bound

 C D 
You sat and smiled your shaky crown.


 Am D G C 
I'm glad we met, and God we tried

 C D 
My one regret 

         C/B Am G 
We got one goodbye


 G D C 
I've got to go, there's work to do

 C G 
Growing old is something new

 Em A 
It's like you find another way

 C D 
Where day and night is night and day

 G D C 
Well so long, So long for good

 C G 
And if I had the guts we could

 Em A 
The things last they carry on

 C D   
They flicker fast and then they're gone


 Am D G C 
I'm glad we met, and God we tried

 C D 
My one regret

        C/B Am D Em G Am C D7 G 
We got one goodbye

The Last Goodbye Tabs – Billy Boyd

 -------------------------------------------------------------------------------
                         The Last Goodbye
-------------------------------------------------------------------------------
:Ange_

Okay, so its not the actual FULL song but its pretty darn close. Basically the rest is just different 
variations of the same melody.

Tuning: Standard
Capo 5th fret

e|---------------------------------------------------------------------------|
B|---------------------------------------------------------------------------|
G|---0---0--2--4--2--2--0--4---0--2--4--7--4--2--0---0-----------------------|
D|---------------------------------------------------------------------------|
A|---------------------------------------------------------------------------|
E|---------------------------------------------------------------------------|

e|--------------------------------------3--3--3--3--7--5--3--3---------------|
B|-----------------------------3--5--3---------------------------------------|
G|--0--2--4--7--4--2--0--2--4------------------------------------------------|
D|---------------------------------------------------------------------------|
A|---------------------------------------------------------------------------|
E|---------------------------------------------------------------------------|

e|---0--0------0--3------3--3-----------0--0--0--0--3---5--------------------|
B|----------3------------------0--3--3---------------------------------------|
G|---------------------------------------------------------------------------|
D|---------------------------------------------------------------------------|
A|---------------------------------------------------------------------------|
E|---------------------------------------------------------------------------|

e|----7---5--3---7--8--7--5--------0------0--3--5-----7--5--3--0-------------|
B|---------------------------0--3------3-------------------------------------|
G|---------------------------------------------------------------------------|
D|---------------------------------------------------------------------------|
A|---------------------------------------------------------------------------|
E|---------------------------------------------------------------------------|

e|--3--3--2--3-----------------------3--2------------0---0--3--5--7---5--3--0|
B|---------------0-0--3--5--3--0---------------0--3--------------------------|
G|-----------------------------2---------2-----------------------------------|
D|---------------------------------------------------------------------------|
A|---------------------------------------------------------------------------|
E|---------------------------------------------------------------------------|

e|--3--3--2--3--------------5--5--3--53--3--5--3--7--5--5-5--3--0------------|
B|--------------0--0--3--5---------------------------------------------------|
G|---------------------------------------------------------------------------|
D|---------------------------------------------------------------------------|
A|---------------------------------------------------------------------------|
E|---------------------------------------------------------------------------|

e|--7--8--7--7--5--0--0--3--0--7--0--3--0--7--7--8--7--7--7--5---------------|
B|---------------------------------------------------------------------------|
G|---------------------------------------------------------------------------|
D|---------------------------------------------------------------------------|
A|---------------------------------------------------------------------------|
E|---------------------------------------------------------------------------|

e|-----------------------------------------------0--3--3--3--7--5--3--3--3---|
B|--0--3--5--3--3-----------------------0--3--5------------------------------|
G|-----------------0--2--4--0--0--0--2---------------------------------------|
D|------------------------------------------

Lets Say Goodbye One More Time chords – Mickey Newbury

 Let’s Say Goodbye One More Time

Chorus:
 F# B 
Darling lets say goodbye one more time 
 C# F# 
Hold me and tell me you're mine 
               F#7 B G#m  
I know you're leaving but, oh, love is blind 
 C# F# C# 
Lets say goodbye one more time 

 F# B 
Castles of sand stand but not for too long 
 C# F# 
Whats here today tomorrow is gone 
                       B 
Yesterday’s over, one hand on the face 
     G#7 C#          
Has made the big circle to the same place 

Chorus

I sat and stared at the clock on the wall 
Patiently wait for the long night to fall 
Where in my arms once again face to face 
We'll make the big circle to the same place 

Oh the night is falling away 
But the dawn is not all that is breaking
 F# Bbm B G#m  
Hold me and tell me you'll always be mine 
 C# F#        
Lets say.. goodbye..

Its So Hard To Say Goodbye To Yesterday chords – Jason Mraz V3

 Jason Mraz – It’s So Hard To Say Goodbye To Yesterday

I felt the previous versions were good, but I also felt something was missing. 
So I added Am and changed G#m to G#, also I tried to put the chords in the correct places according to the song


 E B A E 
How do I say good bye to what we had
 A E E B 
The good times that made us laugh outweigh the bad
                E G# C#m B A 
I thought we'd get to see forever but forever's gone away
         E B A Am E 
It's so hard to say goodbye to yesterday

         E B A Am E 
I don't know where this road is going to lead
          A E E B 
All I know is where we've been and what we have been through
       E G# C#m B A 
If we get to see tomorrow, I hope it's worth all the wait
         E B A Am E 
It's so hard to say goodbye to yesterday

 E G#m C#m B A Am 
And I'll take with me the memories to be my sunshine after the rain
          E B A Am E 
It's so hard to say goodbye to yesterday
                          G#m C#m B A Am 
And I'll take with me the memories to be my sunshine after the rain
          E B A Am E 
It's so hard to say goodbye to yesterday
                          B A Am E 
It's so hard to say goodbye to yesterday



Hope you enjoyed it!

The Last Goodbye chords – Billy Boyd V5

 Billy Boyd plays this song with Capo on 5th, see movie clip of the song

Standard tuning – Capo 5


 G  
I saw the light fade from the sky

On the wind I heard a sigh
            Em C Em C 
As the snowflakes covered my fallen brothers
         G C G 
I will say this last goodbye
 
 
 Em C 
Night is now falling
 G D 
So ends this day
       Em C 
The road is now calling
       G D 
And I must away
       Em C 
Over hill and under tree
                     Am C      
Through lands where never light is shined
            G 
By silver streams
           C D 
That run down to the sea
 
 
        Em C  
Under cloud, beneath the stars
       Am C 
Over snow and winters moor
            G C D Am 
I turn it last to paths that lead home
                       C Em 
And though where the road then takes me
            D Am C 
I cannot tell, we came all this way
                   Em 
But now comes the day
             D  
To bid you farewell
 
 

        G C G 
Many places I have been
        G C G 
Many sorrows I have seen
       Em C 
But I don't regret
          Em C 
Nor will I forget
          G C G 
All that took that road with me
 
 
 Em C 
Night is now falling
 G D 
So ends this day
       Em C 
The road is now calling
       G D 
And I must away
       Em C 
Over hill and under tree
                     Am C      
Through lands where never light is shined
            G 
By silver streams
           C D 
That run down to the sea
 
                Em C 
Towards these memories I will hold
           Am C 
With your blessing I will go
            G C D Am 
To turn at last to paths that lead home
 
                      C Em 
And though where the road then takes me
          D Am C 
I cannot tell, we came all this way
                   Em 
But now comes the day
            D  
To bid you farewell
 
 
 C Em C Em C Em C G 
I'll bid you all a very fond farewell

Goodbye Tabs – Slipknot

 

SLIPKNOT


GOODBYE

B-F#-B-E-G#-C#


 andherembrace




arranged for gtr
------------------------------------------------|
------------------------------------------------|
11-----14-----------------11-----14-------------|
---------------12-------------------------12----|
------------------------------------------------|
------------------------------------------------|




0:55


1
----------------------------------------------------------------------------------------------|
----------------------------------------------------------------------------------------------|
11-----14-----------------11-----14------------------11----14----------------11----14---------|
---------------12-------------------------12----------------------12------------------------12|
----------------------------------------------------------------------------------------------|
----------------------------------------------------------------------------------------------|

2
17----------19\14---------17----------21\14---------17------------16-----------14-----------|
--------------------------------------------------------------------------------------------|
--------------------------------------------------------------------------------------------|
--------------------------------------------------------------------------------------------|
--------------------------------------------------------------------------------------------|
--------------------------------------------------------------------------------------------|




1:16

arranged for gtr
                                       ][
-----------------------------------------------------------------------17-------------|
--------------------------------------------------------------------------------------|
-9-----11-----14---13------14--------------9---------11-----13---14-16----------9-11--|
----------------------------------12--------------------------------------12----------|
--------------------------------------------------------------------------------------|
--------------------------------------------------------------------------------------|


                                       ][
------------------------------------------------------------------------------------|
-----------------------------------------------^------------------------------------|
-9-----11-----13----------14--------------9--9--11-----11-----13---14---14----------|
---------------------------------12-------------------------------------------------|
------------------------------------------------------------------------------------|
------------------------------------------------------------------------------------|


2:02

1
---------------------------------------------------------|
---------------------------------------------------------|
11-----14-------7---------11-----14-------7-------14-----|
---------------------------------------------------------|
---------------------------------------------------------|
---------------------------------------------------------|


2
17-------------16---------17----------21\14--------------|
---------------------------------------------------------|
---------------------------------------------------------|
---------------------------------------------------------|
---------------------------------------------------------|
---------------------------------------------------------|









2:12

1
------------------------------------------------------|
------------------------------------------------------|
------------------------------------------------------|
------------------------------------------------------|
------------------------------1--0--8--7--1--0--8--7--|
-0-----12~~~~\-0-----12~~~~\--1--0--8--7--1--0--8--7--|

2
------------------------------------------------------|
------------------------------------------------------|
------------------------------------------------------|
-----------------------------------------/8-7-/13

Goodbye Time chords – Blake Shelton V2

 Intro:  D A G   (2x)

Verse 1:
           D D/F# G 
It's your life. 
                    D D/F# G 
You say you need a change
               D D/C# Bm Em Asus4 A 
Don't all the dreams we've seen come true mean anything
              D D/F# G 
You say it's different now 
                             D D/F# G 
And you keep staring at the door
             D D/C# Bm Em A Asus4 
How can you walk away      don't I matter anymore


Chorus:
          D D/C# Bm Bm/A G Asus4 A 
If being free's worth what you leave behind
                 D D/C# Bm Bm/A G Asus4 A 
And if it's too late for love to change your mind
                   D A G 
Then it's goodbye time

 D A G 


Verse 2:
           D D/F# G 
If we had known
                        D D/F# G 
Our love would come to this
               D D/C# Bm Em Asus4 A 
We could have saved our hearts the hurt of wasted years
                D D/F# G 
Well it's been fun
                 D D/F# G 
What else can I say
        D D/C# Bm Em Asus4 A 
If the feeling's gone words won't stop you anyway


Chorus:
          D D/C# Bm Bm/A G Asus4 A 
If being free's worth what you leave behind
                 D D/C# Bm Bm/A G Asus4 A 
And if it's too late for love to change your mind
                   D A G 
Then it's goodbye time

          D A G 
Goodbye, baby


I love this song! I've made some slight changes to fit my style.
Thanks to AtamisPirateKng for the original contribution!

Goodbye chords – Glenn Morrison V2

 Glenn Morrison - Goodbye
Capo 1st 

Intro 
 Am         | F            | Gadd9       | Am7         ||x2
----------|------------|-----------|-----------|
----1---1-|------------|----0----0-|----1------|
---2---2--|----2---0-2-|---2----2--|---0---0-2-|
--2---2---|---3---3----|--0----0---|--2---2----|
-0---0----|--3---------|-----------|-0---0-----|
----------|-1----------|-3----3----|-----------|


Verse 1
        Am F G Am 
It's enough that I know our time had a home
             Am F G Am 
In your heart was a place but the glass always breaks
             Am F G 
From the start we were brave yet it all seemed amazing


Chorus 
 Am F C G 
Now I, I wanna know what it took to leave me
 Am F C G 
Now I, I wanna know how would you fall, how would you
  Am F C G 
Goodbye and it starts to snow in the streets of Mexico
 Am F C G 
Goodbye, I am left alone in the streets of Mexico


Interlude                       
  Am        | F          | G          |1st  Am      ||x2  |2nd  Am 
----------|----------|----------|----------|      ---------|
-----1----|----------|-----0----|-----1----|      -----1---|
---2--2-2-|-----2----|------0-0-|---2--2-2-|      ---2-----|
--2-2--2--|---3--3-3-|---0---0--|--2-2--2--|      --2-2----|
-0--------|--3-3--3--|--2-2-----|-0--------|      -0-------|
----------|-1--------|-3--------|----------|      ---------|


Verse 2
        Am F G Am 
Even now (even now) as I lay (as I lay), there's a space you used to take
                  Am F             
If I'd have known (if I'd have known) what we made (what we made) 
             G Am 
Would be gone like yesterday
               Am F             
I'd have loved (I'd have loved) you with grace (you with grace); 
               G Am 
I'd have fought the darkness away
             Am F G Am 
All your lies (all your lies) showed my way, now I'm lost between the faces

Chorus
  Am F C G 
Goodbye and it starts to snow in the streets of Mexico
  Am F C G 
Goodbye, I am left alone in the streets of Mexico
  Am F C G 
Goodbye and it starts to snow in the streets of Mexico
  Am F C G 
Goodbye, I am left alone in the streets of Mexico


Interlude  
  Am      | F          | C        | G          ||x2
--------|-1--0-----|--------|----------|
--------|-------1--|--------|-3--1--0--|
-2------|----------|-0------|----------|
--------|----------|--------|----------|
--------|----------|--------|----------|
--------|----------|--------|----------|


Chorus
  Am F C G 
Goodbye and it starts to snow in the streets of Mexico
  Am F C G 
Goodbye, I am left alone in the streets of Mexico
  Am F C G 
Goodbye and it starts to snow in the streets of Mexico
  Am F C G 
Goodbye, I am left alone in the streets of Mexico
  Am F C G<

I Still Cant Say Goodbye chords – Chet Atkins V2

 I Still Can’t Say Good-bye              Capo II

Intro :    G C D ,     G C D G D C D  
When I was young, my Dad would say
  G D G/B C     
Come on Son let's go out and play
 G D C Dsus4 D  ,  Am7 D /F#  G C D 
Sometimes it seems like yesterday     

 G D C D         
Then I'd climb up the closet shelf
  G D G/B C     
When I was all by my-self
 G D C Dsus4 D   
Grab his hat and fix the brim
 Am7/E D/F# G    
Pretending I    was him 

Chorus
 D C G 
No matter how hard I try
 D C G 
No matter how many tears I cry
 D Em D A/C# 
No matter how many years go by
     C D C Am7 D/F# G C D  
I still can't say good-bye




 G D C D         
He always took care of Mom and me.
 G D G/B C     
We all cut down a Christmas tree 
 G D C Dsus4 D Am7 D /F#    G 
 He always had some time for me      

Bridge
 C D Em Em/D 
  Wind blows through the trees
 C D Gmaj7 
Street lights, they still shine bright

 C D Em Em/D 
  Moon    still looks the same
           A/C# A C Dsus4 D  
but I miss my Dad to-night


 G D C D         
I walked by a Salvation Army store
 G D G/B C     
Saw a hat like my daddy wore       
 G D C Dsus4 D    
Tried it on when I walked in
 Am7/E D/F# G 
Still trying to be like him 

 D C G 
No matter how hard I try
 D C G 
No matter how many years go by
         D Em Em/D A/C# 
No matter how many tears   I     cry
     C D C Am7 D/F# G Am7 D/F# G 
I still can't say good-bye

Goodbye Old Friend chords – The Devil Makes Three

 The Devil Makes Three - Goodbye Old Friend

   C Am 
I need you and I want you 'cause I know you from before
   F G 
I hate you and I fear you but I hold open the door
   C Am 
I see you and you see me and we know what must be done
       F G 
So we draw knives and lock eyes 'cause it does no good to run


 C Am 
Goodbye old friend, farewell it seems
 F G 
We'll dance again in my dreams
 C Am 
Goodbye old friend, farewell it seems
 F G 
We'll dance again in my dreams


   C Am 
I've missed you, you know that's true and I've retraced every scar
    F G 
My head sings and the steel rings 'cause we've traveled, oh so far
   C Am 
I chased you to embrace you like the sun chases the moon
   F G 
I burn you and you burn me but I know I'll see you soon


 C Am 
Goodbye old friend, farewell it seems
 F G 
We'll dance again in my dreams
 C Am 
Goodbye old friend, farewell it seems
 F G 
We'll dance again in my dreams


      C Am 
I've watched you and I've seen you and known that you were there
      F G 
I've held and you've loved me but our lives cannot be spared
   C Am 
I trust you and despised you, shadowed your every move
 F G 
Scorned you and warned you, befriended everyone you've used


 C Am 
Goodbye old friend, farewell it seems
 F G 
We'll dance again in my dreams
 C Am 
Goodbye old friend, farewell it seems
 F G 
We'll dance again in my dreams

Goodbye To Yesterday chords – Incognito

 Incógnito - Goodbye to yesterday

Intro:    Am7 ,  Am9  x4

Verse:  Am7 ,  Am9  x4
Every day I say I'll try something new
Make some changes that are long overdue
Tryin' to wrap my head around it
Still remain surrounded
By walls that I can't seem to get through

 Fmaj9 Em7 
A part of me so keen to see
              Dm7 Dm7 Em7 Dmaj9 
What I will find if I leave it all behind

Verse:  Am7 ,  Am9  x4
I keep dreaming 'bout where I could be
About the places and the faces I'd see
This is bigger than myself
I know that no one else
Can do what's clearly up to me

                Fmaj9 Em7 
It's never too late to change your fate
                 Dm7 Dm7 Em7 Dmaj9 
Right here and now, I'm gonna turn my world around

Chorus
     A                          
I can't stop what I've started
          Dmaj7 
'Cos I'm finally on my way
          Fmaj7 Gmaj7 A 
And it's time to say goodbye to yesterday
[ A ,  Dmaj7 ,  Fmaj7 ,  Gmaj7 ,  A ]
If this goodbye hurts I'm sorry
But it's got to be this way
'Cos it's time to say goodbye to yesterday

 Am7 ,  Am9  x2

 Am7 ,  Am9  x4
Well, I used to think I was stuck on red
Now I know that it was all in my head
But I'm done making excuses
Can't fool myself, it's useless
I'll follow my own lead instead

          Fmaj9 Em7 
A part of me so keen to see
              Dm7 Dm7 Em7 Dmaj9 
What I will find if I just leave it all, leave it all behind

[Chorus]

Saying Goodbye chords – Joaftheloaf

 Eb Bb Cm Bb  x2

     Eb Bb 
I remember the times when we'd spend our 
               Cm Bb 
days laughing all of our little troubles away
 Eb Bb Cm 
Saving the world seemed like a task we'd do everyday
             Bb 
and all the time.

 Ab Bb Bdim Cm Bb 
Here I stand at the end of what we call life, and in time 
      Ab Bb Bdim Cm Bb 
I'll find my way to have my turn among the stars, and come home

    Eb Bb Cm 
To live in a world where the earth is still, kept in peace
     Ab Bb 
and live with harmony
 Eb Bb Cm 
Facing the facts, I've come to realize, I am all alone
 Ab Abm Eb 
so I guess it's time to say goodbye, it's time to say goodbye.

(Intro)

The words on the page from the things we learned,
and the lessons taught will never leave my heart.
The memories we've made, and the lessons shared,
time and time again, will continue on

Here I stand at the end of what we call life, and in time 
I'll find my way to have my turn among the stars, and come home

To live in a world where the earth is still, kept in peace
and live with harmony
Facing the facts, I've come to realize, I am all alone
so I guess it's time to say goodbye, it's time to say goodbye.

 Cm Bb Eb Bb Cm Bb Ab Bb Cm Bb 
And through these tough times
   Eb Ab Abm 
I know I must be strong, and carry on,
     Eb Bb 
without you

 Cm Bb6 Ab 

To live in a world where the earth is still, kept in peace
and live with harmony
Facing the facts, I've come to realize, I am all alone
Now I know that I must say goodbye, it's time to say goodbye.

Goodbye Horses Tabs by Q Lazzarus V2

 Artist: Q Lazzarus
Song: Goodbye Horses
Tuning: EADGBe

specific timings used with this youtube video:



Synth/Bass/Guitar
e|-------------------|
B|-------------------|
G|-------------------|
D|----------2--------|
A|--3----------------|
E|-------------------|

Guitar
e|---------------------------------------------------------------------|
B|---------------17b~--18b~--17b~--18b~--17b-18b------------17b~--17b~-|
G|--17b~--17b~-----------------------------------17b~--17b~------------|
D|---------------------------------------------------------------------|
A|---------------------------------------------------------------------|
E|---------------------------------------------------------------------|

e|-----------------------------------------------|
B|---------------17b~--18b~--17b~--18b~--17b-18b-|
G|--17b~--17b~-----------------------------------|
D|-----------------------------------------------|
A|-----------------------------------------------|
E|-----------------------------------------------|

Use your loop or share with another player. The exact same thing with additional notes 
on e string. You will have to get the timing right.
0:36
e|----15--17~--15-15--17~---15--15--17~------15-15--17---15-17--15-15-17--|
B|--------------------------------------17b~--------------17b~------------|
G|----17b~---------------17b~---------------------------------------------|
D|------------------------------------------------------------------------|
A|------------------------------------------------------------------------|
E|------------------------------------------------------------------------|


significant change 3:10 a turnaround in the chorus
e|----------------------|
B|----------------------|
G|--12-----9------------|
D|---------------10-----|
A|----------------------|
E|----------------------|




significant change 3:40 with Synth/Bass/Guitar
e|-------------------|
B|-------------------|
G|-------------------|
D|--3--2--3--2-------|
A|----------------3--|
E|-------------------|

also significant change at 3:40 with Guitar
e|---------------------------------------------------------|
B|---------------------------------------------------------|
G|--12-----9--------------9~-----------9~---12-----9-------|
D|---------------10~-----------10~----------------------10-|
A|---------------------------------------------------------|
E|---------------------------------------------------------|

Hello Goodbye chords – Lake Street Dive

 -----------------------------------------------------------------
Hello? Goodbye! - Lake Street Dive 
----------------------------------------------------------------- 
Song by: Bridget Kearney 
: Emmett Mills
Email: emills29
Tuning: Standard

Email me requests for Lake Street Dive tabs and I will eventually get around to it.

Riff 1
e|---------------------------------------------------------------|
B|---------------------------------------------------------------|
G|---------------------------------------------------------------|
D|--4-2-0--------------------------------------------------------|
A|--5-4-2-4------------------------------------------------------|
E|--------5------------------------------------------------------|

Intro
 A A D D/C# 
It feels good to be over you, but it felt good to be under you
    A E 
So maybe it’s just you that feels good.
   A D D/C# 
I feel like I should be over you, and good girls do what they should do
    A E          RIFF 1  A 
So maybe I’ll just do what I should.
 E D A 
I should tell my mind to stop remembering.
 E D A 
I should make my fingers stop their trembling.
 F#m E D 
And when I pass your doorway I should just walk right by.
 Bm A E 
When you say hello, I’ll say goodbye.

Interlude:
 D A D A D A E  x2

Trumpet solo over chords from the verse

 E D A 
I should tell my mind to stop remembering.
 E D A 
I should make my fingers stop their trembling.
 F#m E D 
And when I pass your doorway I should just walk right by.
 Bm A E 
When you say hello, I’ll say goodbye.

Interlude:
 D A D A D A E  x4

Break

Interlude:
 D A D A D A E  x2

End

Never Ever Say Goodbye chords – Nonoy Zuniga

 Never Ever Say Goodbye
Nonoy Zuñiga


   FM7 Em7 
   Night after night we stay together
   Dm7 Dm7 (/G)   C C7 
   Sharing lonely moments that's spell forever
   FM7 Em7 A7 (sus)  A7 
   Day after day our love gets stronger
   D7 (sus)           Dm7 G7 (sus)- G7 
   Growin' ev'ry minute that we get closer

   Fm7 Bb7 (sus)  Bb7 Gm7 Cm7 
   If we ever  have to say goodbye
   FM7 Bb7 (sus)- Bb7 Eb 
   And go on our own      separate ways
        G (/D)    D7 (sus)  G (/B)      E7 Am7 - Cm7 
   I wouldn't know how to get by on my own
          G (/D)       E  pause      Dm7 (/G)        G7 
   After all the lovin' passion you have shown

       ( G7sus )  CM7 Am7 
   I'll never say goodbye
          FM7 Dm7 - Dm7/G 
   No matter how they try
             Em7 A7 
   To show me love won't last
                               Fm7 G7 (sus)
   If we're prisoners caught in our past

                  CM7 Am7 
   Don't let your tears run dry
             FM7 Dm7 - Dm7/G 
   No need for you to cry
             Em7 A7 
   I promise I will stay
       CM7 FM7 Eb7 
   I'm with you all the way
    D (/G)                  G (/B)
   In time they'll soon forget
   Gm (/Bb)       F (/A)     Fm (/Ab)
   That you and I once met
        C (/G)           G7 (sus)
   As long as deep inside
       Em7 A7 (sus)  A7 
   I know it's love, not pride
               Dm7 
   Then I will never say 
    Dm7/G C G#7 
   Ever say goodbye

    G#7 (sus)    C#M7 A#m7 
   I'll never say goodbye
               F#M7 D#m7 
   There are no reasons why
   D#m7/G# Fm7 G#m7 
   Our souls are so entwined
             C#7 F#M7 E7 (9)
   There is us, not you and I

   Eb G# (/C)
   Our friends will soon regret
   G#m (/B)      F# (/A#)   F#m (/A)
   Regretting we once met
              C# (/G#)      G#7 (sus)
   Because we'll show them all
                    Fm7 A#7 (sus)- A#7 
   We're in love, we can walk tall
                 D#m7 Fm7 
   And we will never say
  F#M7 G#7sus   (coda)
   Ever say goodbye

   Coda:  F#M7 -C#(/F)- D#m7 ,  Fm7 ,  F#M7 -G#7(sus)- C#

Goodbye chords – Glenn Morrison

 Artist:Glenn Morrisson Ft. Islove
Song:Goodbye 
Chords:David Bellamy
Brooks was here. So was Red. 



Standard Tuning (EADGBE)
Capo 1

Intro:  Am ,  F ,  G ,  Am  (x2)

(0:15)
 Am F 
It's enough, that I know
      G Am 
Our time had a home
 Am F 
In your heart was a place
           G Am 
But the glass always breaks
           Am F     (mute)
From the start we were brave
        ( G )         
Yet it all seemed amazing

(0:39)
 Am F 
Now I
            C 
I wanna know
         G 
What it took to leave me
 Am F 
Now I
            C 
I wanna know
                 G 
How would you fall

How would you

( Am , F , C , G )
Goodbye and it starts to snow
In the streets of Mexico
Goodbye, I am left alone
In the streets of Mexico



( Am , F , G , Am )
Even now as I lay
There's a space you used to take
If I'd have known
What we made
Would be gone like yesterday

I'd have loved
You with grace
I'd have fought the darkness away
All your lies
Showed my way
Now I'm lost between the faces

( Am , F , C , G )
Goodbye and it starts to snow
In the streets of Mexico
Goodbye, I am left alone
In the streets of Mexico
Goodbye and it starts to snow
In the streets of Mexico
Goodbye, I am left alone
In the streets of Mexico
[x2]

Goodbye, goodbye
In the streets of Mexico