Tag: got

Ive Got To Stop Loving You chords – Patty Loveless

 Patty Loveless - I've Got To Stop Loving You (And Start Living Again)


## NOTE: ~ ~ = Walk-Up from  G  to  C  ##


CAPO: 2nd Fret



INTRO:  C G D G C G C 
The bright lights don't thrill me like they used to do
             G D 
They only remind me of time spent with you
     G C 
And every old memory rekindles the flame
                  G D G 
I've got to stop loving you and start living again


                                  ~    ~   C 
The people all tell me, with time I'll forget
                    G D 
The sweet love you gave me and there'll be no regret
     G                            ~    ~    C 
But each time I see you, it's always the same
                      G D G Gadd9 G  ~ ~
Oh, I've got to stop loving you and start living again


BRIDGE:
      C G 
I've got stop dreaming about all the times
                                                   D 
When you told me you loved me and would always be mine
     G                         ~ ~   C 
And maybe, one day, find somebody new
                  G D G    ~ ~
And start living over and stop loving you


INSTRUMENTAL:  C G D G 


                            ~    ~     C 
The rain on my window flows down like tears
             G D 
It seems to know that I'm lonesome in here
       G                                ~    ~    C 
Oh, I guess I should step out and see some old friends
                  G D G     ~ ~
I've got to stop loving you and start living again
          C G D G     ~ ~
Oh, I've got to stop loving you and start living again


OUTRO:  C G D G

Youve Got A Cold chords – 10cc

 
Intro E riff

  E 
You're nose is runnin', and your eyes are red.

You're head is achin', you'll be better in bed.
             A G F#m F 
From the bottom of your fever to the throbbin' in your tongue.
                G 
You've got a cold, you've got a cold.
 
  E 
You're searchin' madly, to find a cure.
 E 
But the mercury's risin', to a hundred and four.
                A G F#m F 
You've got a beauty, a badass, the mother of them all....
                G 
You've got a cold, you've got a cold.

   Em Bm A G D Am 
Ain't no use in fightin' it, better to bed and try to sweat it out.
  Am                               
Hot toddies (won't help you).  Warm blankets, (won't sweat it out)
  Am 
Inhalants, (just choke you).  Hot flushes, will tell you.
   G 
Anyway you've got it, ain't no doubt about it.

Nothin' new about it, you can't scream and shout it.  

   Em Bm A G D Am 
Ain't no use in fightin' it, better to bed and try to sweat it out.
   Am 
Hot toddies (won't help you).  Warm blankets, (won't sweat it out)

Inhalants, (just choke you).  Hot flushes, will tell you.
   G 
Anyway you've got it, ain't no doubt about it.
                        G F#m Eb Em 
Nothin' new about it, you can't fight it.

Instrumental  Verse chords

   E    
Foreign bodies in your Kleenex, you've got no taste at all.

While your system is dyin, the bugs are havin' a ball.
                A G F#m F 
You've got a beauty, a badass the mother of them all.
                G                                     
You've got a cold, you've got a cold, you've got a cold repeat and fade....

Weve Got Tonight Live chords – Bob Seger And The Silver Bullet Band

 We've Got Tonight (Live) - Bob Seger And The Silver Bullet Band
From: 'Nine Tonight' Album, 1981. ♫ Written By: Bob Seger, 1978. ♫
Recorded: June, 1980, in Cobo Hall, Detroit, MI, or
          or October, 1980, in Boston Garden, Boston, MA.
Chorded By: Skidaddy, Esq., G.Q.

2/4 TIME @ 64 BPM (4 Min. 40 Sec.) in 'A'.

Chords Used: (CAPO 2nd FRET to match original in 'B')
-----------
              GUITAR              KEYBOARD
          E A D G B   e     Bass|   Chord
        ------------------    ----------------
A     -  x  0  2  2  2  0      A    A-C#-E
E     -  0  2  2  1  0  0      E    G#-B-E
D     -  x  x  0  2  3  2      D    A-D-F#
E/G#  -  x  x  6  4  5  4      G#   G#-B-E
D/F#  -  x  x  4  2  3  2      F#   A-D-F#
A/C#  -  x  4  2  2  2  5      C#   A-C#-E
DM7   -  x  x  0  2  2  2      D    A-C#-D-F#
D6    -  x  x  0  2  0  2      D    A-B-D-F#
A/E   -  0  0  2  2  2  0      A    A-C#-E     -OR-
      -  x  x  2  2  2  0
C     -  x  3  2  0  1  0      C    G-C-E
F     -  1  3  3  2  1  1      F    A-C-F
As4   -  x  0  2  2  3  0      A    A-D-E
E7    -  0  2  0  1  0  0      E    G#-B-D-E

INTRO: [7 M]
-----

| A      | E      | A      | E      | A      | E      | D      |

VERSE #1: [8 M]
--------

| E                    | A        | E/G#                    | D/F#     |
     I know it's late…             I know you're wear-…  y…    

| E                     | A/C#     | DM7 D6              | A         |
     I know your plans…             don't… in-clude me…      

VERSE #2: [8 M]
--------

| E                      | A        | DM7 D6               | A          |
     Still here we are,…             both of us lone-…  ly,…    

| A                      | A          | DM7 D6           | A          |
     long-ing for shel-…    ter…      for all… that we see…

VERSE #3: [8 M]
--------

| E                      | A/C#       | DM7 D6                | A/E         |
     Why should we wor-…    ry?…       No one will care,…    girl…

| E                     | A/C#     | DM7 D6           | A/E      |
     Look at the stars…             so far a-way…

CHORUS #1: [10 M]
---------

| E                      | A       | DM7 D6                | A           |
     We've got to-night…            Who needs to-mor-…  row?…

| A                       | A/C#        | DM7 D6             | A            |
     We've got to-night,…    babe…       Why don't… you stay?… 

| A        | A        |

VERSE #4: [8 M]
--------

| A                   | A        | E/G#                   | D/F#        |
     Deep in my soul…             I've been so lone-…  ly…    

| E                   | A/C#     | DM7 D6          | A          |
     All of my hopes…             fad-… ing a-way…      

VERSE #5: [8 M]
--------

| E                        | A        | DM7 D6              | A           |
     I've longed for love…            like ev-'ry-one else…  does…    

| A                           | A          | DM7 D6           | A          |
    I know I'll keep search-…    in'…     e-ven af-… ter to-day…

VERSE #6: [8 M]
--------

|

We Got Used To Us Tabs – Riverside

 -------------------------------------------------------------------------------
                          We Got Used To Us - Riverside
-------------------------------------------------------------------------------
: David Benítez
 debml700

Tuning: EADGBe

Heys guys! Pretty sad song, which means that it is also insanely beautiful...
Its a pretty simple song, only a few leads, so it'll be a quickie to learn.
Have fun, and don't forget to rate!


Careful with the slides here, listen for the dynamics
e|------------------------------13h15--p13-------15--15----13----------|
B|-\8---(\6)----8\6---------------------------15--------------15-------|
G|-------------------7\5-----------------------------------------12----|
D|---------------------------------------------------------------------|
A|---------------------------------------------------------------------|
E|---------------------------------------------------------------------|

Rhythm ain't exact here...
e|------------------------------------------------------------------------------|
B|-8--8-8-8-8/10-10-10-10/11-11-11-11--11-11-11-11/13--13-13-13-13/15-15-15\----|
G|------------------------------------------------------------------------------|
D|-5--5-5-5-5/7--7--7--7-/8--8--8--8---8--8--8--8-/10--10-10-10-10/12-12-12\----|
A|------------------------------------------------------------------------------|
E|------------------------------------------------------------------------------|

e|-----------------------------------------|
B|-8h10----8-10-10b11-r10p8------8----\----|
G|---------------------------10------------|
D|-----------------------------------------|
A|-----------------------------------------|
E|-----------------------------------------|

Solo
e|------------------------------------------------------------------------------------------|
B|-16-15-13--13h15----------------------13------------13-15----13--------------11/13--11----|
G|------------------15--12----12-14-15------14---------------------12\9---------------------|
D|----------------------------------------------15-------------------------10---------------|
A|------------------------------------------------------------------------------------------|
E|------------------------------------------------------------------------------------------|

e|------------------------------------/13----13--/15------------------------|
B|-/15----15b16r15--------------------------------------13b14r13-11----\----|
G|------------------12--12/15--\12------------------------------------------|
D|--------------------------------------------------------------------------|
A|--------------------------------------------------------------------------|
E|--------------------------------------------------------------------------|

************************************

| /   slide up
| \   slide down
| h   hammer-on
| p   pull-off
| ~   vibrato
| +   harmonic
| x   Mute note
| b   Bend
| pb  Pre-bend
| br  Bend release
| pbr Pre-bend release
| brb Bend release bend

************************************

This Time I Got A Reason intro Tabs – Fuzz

 -------------------------------------------------------------------------------
                     This Time I Got A Reason - Fuzz
-------------------------------------------------------------------------------

Tuning: Standard

e|-------3-3-3--5-5-5-5-5----------------------------------------------------|
B|-------5-3-3--5-5-5-5-5----------------------------------------------------|
G|--1-1--5-4-4--6-6-6-6-6--7b------------------------------------------------|
D|--2-2--5-5-5--7-7-7-7-7----------------------------------------------------|
A|--2-2--3-5-5--7-7-7-7-7----------------------------------------------------| 4x
E|--0-0--3-3-3--5-5-5-5-5----------------------------------------------------|

e|--8--8--8--8---10--5---8--8--8--8---3--5--8--8--8--8---10--5---3-3-3-3-3---------------|
B|--8--8--8--8---10--5---8--8--8--8---3--5--8--8--8--8---10--5---3-3-3-3-3---------------|
G|--9--9--9--9---11--6---9--9--9--9---4--6--9--9--9--9---11--6---4-4-4-4-4---------------|
D|--10-10-10-10--12--7---10-10-10-10--5--7--10-10-10-10--12--7---5-5-5-5-5---------------|
A|--10-10-10-10--12--7---10-10-10-10--5--7--10-10-10-10--12--7---5-5-5-5-5---------------|
E|--8--8--8--8---10--5---8--8--8--8---3--5--8--8--8--8---10--5---3-3-3-3-3---------------|

e|-------3-3-3--5-5-5-5-5----------------------------------------------------|
B|-------5-3-3--5-5-5-5-5----------------------------------------------------|
G|--1-1--5-4-4--6-6-6-6-6--7b------------------------------------------------|
D|--2-2--5-5-5--7-7-7-7-7----------------------------------------------------|
A|--2-2--3-5-5--7-7-7-7-7----------------------------------------------------| 4x
E|--0-0--3-3-3--5-5-5-5-5----------------------------------------------------|

Give It All We Got Tonight Tabs – George Strait V2

 -------------------------------------------------------------------------------
                             SONG NAME - Band Name
-------------------------------------------------------------------------------
:Matt Prudhomme


Tuning:Standard

Couldn't find one with an intro, here is what I figured out

             G               D                   Am                  C
e|-----------3---------------2-------------------0-------------------0-------|
B|-----------3---------------3----2/4--2p0-------1----2/4--2p0-------1-------|
G|--------0--0--------0h2-0--2-------------2p0---2-------------2p0---0-------|
D|----0h2----0----0h2--------0-------------------2-------------------2-------|
A|-----------2---------------x-------------------0-------------------3-------|
E|-----------3---------------x-------------------0-------------------x-------|


G                       D
July moonlight shines
                                                 Am
Your pretty little head on my shoulder
        C   
Pull over on the side of the road
G                               D
Oh my God, you're something
           Am
Like nothing I've ever seen
            C
If I'm asleep girl, let me dream


G                           D
Baby fall into my kiss
                                   Am
It should just happen like this
                   C                                                 G         
Trust it so much that there's no one else but us and
                                           D
This moment that says it's so right
                                               Am
Cause that's all we have in this life
    C                                                              G     D    Am   C
Drink up this love, baby, give it all we got tonight


G                     D
Summer honeysuckle
                                             Am
Leaking through a rolled down window
          C     
We both know when that seat lays back
G                    D  
Anything can happen
      Am
So imagine it'll never end
        C 
Just close your eyes and you can see that we are where we're meant to be

G                        D
Baby fall into my kiss
                                       Am
It should just happen like this
               C                                                    G
Trust it so much that there's no one else but us and
                                             D
This moment that says it's so right
                                               Am
Cause that's all we have in this life
            C                                                 G       D     
Baby, drink up this love, give it all we got tonight
                          Am     C
Give it all we got tonight


G                        D
Baby fall into my kiss
                                       Am
It should just happen like this
                 C                                                  G
Trust it so much that there's no one else but us and
                                             D
This moment that says it's so right
                                     Am
That's all we have in this life
   C                                                           G        D    
Drink up this love, cmon, give it all we got tonight
                           Am   C     G
Give it all we got tonight



************************************

| /   slide up
| \   slide down
| h   hammer-on
| p   pull-off
| ~   vibrato
| +   harmonic
| x   Mute note
| b   Bend
| pb  Pre-bend
| br  Bend release
| pbr Pre-bend release
| brb Bend release bend

************************************

I Havent Got The Nerve chords – Left Banke

 The Left Banke - I Haven't Got The Nerve
song: https://www.youtube.com/watch?v=gk5Bx_CKbAc

INTRO
 Am7 D  \ 2x
 Am7 D  /

CHORUS
 Am7 D                          \
I                               \ 2x
 Am7 D Am7 D     /  
     haven't got the nerve     /
 Am7 D                         /

VERSE 1
 Am 
To tell you our love is over
And to say I'm through with you
I can't take much more of you, girl
You make all my days so blue
 C 
Leave me lonely and forget me
Days of May will soon be gone
Girl, I know you never loved me
 C Am 
It won't hurt to see me gone

 Am7 D Am7 D 

CHORUS
 Am7 D                          \
I                               \ 2x
 Am7 D Am7 D     /  
     haven't got the nerve     /
 Am7 D                         /

VERSE 2
 Am 
I have realized a lot, girl
Since the day that we first met
I'm not like I used to be, girl
I won't hide my fears no more
 C 
You won't hurt me anymore, girl
Listen to these words and leave
There's no more love left inside me
 C Am 
It's not me that you deceive

OUTRO
 Am7 D  \ 4x
 Am7 D  /

Ive Got Something On My Mind chords – Left Banke

 The Left Banke - I've Got Something On My Mind
song: https://www.youtube.com/watch?v=hWofSTyS52g

INTRO (2x)
 A D A E 

CHORUS
          A D 
I've got something on my mind
          A E 
It's no lie, I'm telling you why
          A D 
I've got something on my mind
          A E 
It's no lie, I'm telling you why

VERSE 1
 E Bm 
Up to now I've been afraid to say that
 A E 
You're the cause of all my pain
 E Bm 
If you keep this up my friend
   A E 
I think I'll go insane

CHORUS
          A D 
I've got something on my mind
          A E 
It's no lie, I'm telling you why

VERSE 2
 E Bm 
You've been treating me so bad
           A E 
Since the day that we met
 E Bm 
But now I am oh so glad
        A E 
And my girl you can bet

CHORUS
        A D 
I will say what's on my mind
           A E 
And this time there'll be no lie
          A D 
I've got something on my mind
          A E 
It's no lie, I'm telling you why

INTERLUDE
 G A G Csus4 C Bbsus4 Bb Absus4 Ab Gbsus4 

RE-INTRO
 A D A E 

VERSE 3
 E Bm 
You've been treating me so bad
           A E 
Since the day that we met
 E Bm 
But now I am oh so glad
        A E 
And my girl you can bet

CHORUS
   A D 
I will say what's on my mind
           A E 
And this time there'll be no lie
          A D 
I've got something on my mind
          A E 
It's no lie, I'm telling you why

OUTRO
 G A G Csus4 C Bbsus4 Bb Absus4 Ab Gbsus4

Peggy Sue Got Married Tabs – Buddy Holly

 PEGGY SUE GOT MARRIED

As recorded by Buddy Holly
(From the 1960 Album THE BUDDY HOLLY STORY, VOL. 2)


Words and Music by Buddy Holly
 Slowhand


Gtr I (E A D G B E) - 'Buddy Holly - Acoustic Guitar'
Gtr II (E A D G B E) - 'Don Arnone - Electric Guitar'


 Intro
  Q=144
  A       D/A               A       E
 4/4
  Gtr I
  E E E E  E   E   E   E    E E E E E E E E
|-0-0-0-0--2---2---2---2--|-0-0-0-0-0-0-0-0-|
|-2-2-2-2--3---3---3---3--|-2-2-2-2-0-0-0-0-|
|-2-2-2-2--2---2---2---2--|-2-2-2-2-1-1-1-1-|
|-2-2-2-2--0---0---0---0--|-2-2-2-2-2-2-2-2-|
|-0-0-0-0-(0)-(0)-(0)-(0)-|-0-0-0-0-2-2-2-2-|
|-------------------------|---------0-0-0-0-|


  A       D/A               A       E
  E E E E  E   E   E   E    E E E E E E E E
|-0-0-0-0--2---2---2---2--|-0-0-0-0-0-0-0-0-||
|-2-2-2-2--3---3---3---3--|-2-2-2-2-0-0-0-0-||
|-2-2-2-2--2---2---2---2--|-2-2-2-2-1-1-1-1-||
|-2-2-2-2--0---0---0---0--|-2-2-2-2-2-2-2-2-||
|-0-0-0-0-(0)-(0)-(0)-(0)-|-0-0-0-0-2-2-2-2-||
|-------------------------|---------0-0-0-0-||


 1st Verse
  A                  E
  Q  E E +E  E E E   Q  E E +E  E E E
|-0----0-(0)-0-0-0-|-0----0-(0)-0-0-0-|
|-2----2-(2)-2-2-2-|-0----0-(0)-0-0-0-|
|-2----2-(2)-2-2-2-|-1----1-(1)-1-1-1-|
|-2----2-(2)-2-2-2-|-2----2-(2)-2-2-2-|
|-0----0-(0)-0-0-0-|-2----2-(2)-2-2-2-|
|------------------|-0----0-(0)-0-0-0-|


  D/A                          A
   Q   E  E  +E   E   E   E    Q  E E +E  E E E
|--2------2--(2)--2---2---2--|-0----0-(0)-0-0-0--|
|--3------3--(3)--3---3---3--|-2----2-(2)-2-2-2--|
|--2------2--(2)--2---2---2--|-2----2-(2)-2-2-2--|
|--0------0--(0)--0---0---0--|-2----2-(2)-2-2-2--|
|-(0)----(0)-(0)-(0)-(0)-(0)-|-0----0-(0)-0-0-0--|
|----------------------------|-------------------|


  D/A                          A       E
   Q   E  E  +E   E   E   E    E E E E E E E E
|--2------2--(2)--2---2---2--|-0-0-0-0-0-0-0-0-|
|--3------3--(3)--3---3---3--|-2-2-2-2-0-0-0-0-|
|--2------2--(2)--2---2---2--|-2-2-2-2-1-1-1-1-|
|--0------0--(0)--0---0---0--|-2-2-2-2-2-2-2-2-|
|-(0)----(0)-(0)-(0)-(0)-(0)-|-0-0-0-0-2-2-2-2-|
|----------------------------|---------0-0-0-0-|


  A       D/A               A       E
  E E E E  E   E   E   E    E E E E E E E E
|-0-0-0-0--2---2---2---2--|-0-0-0-0-0-0-0-0--||
|-2-2-2-2--3---3---3---3--|-2-2-2-2-0-0-0-0--||
|-2-2-2-2--2---2---2---2--|-2-2-2-2-1-1-1-1--||
|-2-2-2-2--0---0---0---0--|-2-2-2-2-2-2-2-2--||
|-0-0-0-0-(0)-(0)-(0)-(0)-|-0-0-0-0-2-2-2-2--||
|-------------------------|---------0-0-0-0--||


 2nd Verse
  A                  E
  Q  E E +E  E E E   Q  E E +E  E E E
|-0----0-(0)-0-0-0-|-0----0-(0)-0-0-0-|
|-2----2-(2)-2-2-2-|-0----0-(0)-0-0-0-|
|-2----2-(2)-2-2-2-|-1----1-(1)-1-1-1-|
|-2----2-(2)-2-2-2-|-2----2-(2)-2-2-2-|
|-0----0-(0)-0-0-0-|-2----2-(2)-2-2-2-|
|------------------|-0----0-(0)-0-0-0-|


  D/A                          A
   Q   E  E  +E   E   E   E    Q  E E +E  E E E
|--2------2--(2)--2---2---2--|-0----0-(0)-0-0-0--|
|--3------3--(3)--3---3---3--|-2----2-(2)-2-2-2--|
|--2------2--(2)--2---2---2--|-2----2-(2)-2-2-2--|
|--0------0--(0)--0---0---0--|-2----2-(2)-2-2-2--|
|-(0)----(0)-(0)-(0)-(0)-(0)-|-0----0-(0)-0-0-0--|
|----------------------------|-------------------|


  D/A                          A       E
   Q   E  E  +E   E   E   E    E E E E E E E E
|--2------2--(2)--2---2---2--|-0-0-0-0-0-0-0-0-|
|--3------3--(3)--3---3---3--|-2-2-2-2-0-0-0-0-|
|--2------2--(2)--2---2---2--|-2-2-2-2-1-1-1-1-|
|--0------0--(0)--0---0---0--|-2-2-2-2-2-2-2-2-|
|-(0)----(0)-(0)-(0)-(0)-(0)-|-0-0-0-0-2-2-2-2-|
|----------------------------|---------0-0-0-0-|


  A       D/A               A
  E E E E  E   E   E   E    E E E E E E E E
|-0-0-0-0--2---2---2---2--|-0-0-0-0-0-0-0-0--||
|-2-2-2-2--3---3---3---3--|-2-2-2-2-2-2-2-2--||
|-2-2-2-2--2---2---2---2--|-2-2-2-2-2-2-2-2--||
|-2-2-2-2--0---0---0---0--|-2-2-2-2-2-2-2-2--||
|-0-0-0-0-(0)-(0)-(0)-(0)-|-0-0-0-0-0-0-0-0--||
|-------------------------|------------------||


   Bridge
    F                 A
    E E E E E E E E   E

Mel Blanc – The Hat I Got For Christmas Is Too Beeg chords – Misc Christmas

 The Hat I Got For Christmas Is Too Beeg
Mel Blanc

chords:  D G A Gbm D G D 
The hat I got for Christmas is too big
      G A D 
It's nice, but my sombrero is too big
       G A D G 
Is it raining, is it snowing, I can't see where I am going
            D G D 
`Cause the hat I got for Christmas is too big

              G 
But ring the bells and beat the drum
          D 
Ring the bells and beat the drum
               G 
I'll ring the bells to be polite
     A G Gbm D 
But if I see that Santé Claus I'm going to start a fight

     D G D 
The hat I got for Christmas is too big
          G A D 
Oh, it's nice, but my sombrero is too big
        G A D G 
If you wonder why I shiver, I fell three times in the river
            D G D 
`Cause the hat I got for Christmas is too big

              G 
But ring the bells and beat the drum
          D 
Ring the bells and beat the drum
               G 
I'll ring the bells, but I feel sick
        A G Gbm D 
`Cause Mr. Santé Claus you played on me a dirty trick

     D G D 
The hat I got for Christmas is too big
      G A D 
It's nice, but my sombrero is too big
        G A D G 
If you think it's hot in Siam, you should be in here where I am
     D G D 
The hat I got for Christmas is too big

     D G D 
The hat I got for Christmas is too big
      G A D 
It's nice, but my sombrero is too big
            G A D G 
Can't tell one thing from another, I got married to my brother
     D G D 
The hat I got for Christmas is too big

              G 
But ring the bells and beat the drum
          D 
Ring the bells and beat the drum
               G 
I'll ring the bells and say : "Olé"
     A G Gbm D 
But Mr. Señor Santé Claus you spoiled my holiday

     A G Gbm D 

Porqué sucha sombrero grande Santé Claus?

Youve Got It Wrong chords – Drowners

 Intro:
 E C#m E C#m A G#m C#m A G#m E C#m 
In a steamed, wet window of a public house,
 A G#m C#m C#m      
   I’m using it like a mirror and eyeing myself up.

 E A G#m F#m 
   And somewhere in the corner
       B  
He’s telling her a joke
 E A G#m F#m 
   And I had to stick the boot in
 B C#m 
Because that’s not how it goes.

 E C#m E C#m A G#m C#m 

She’s drinking down his laughter
And she don’t half love a drink.
For someone I never gave half a thought to
He don’t have make me think.

And somewhere in the corner
He’s telling her a joke
And I had to stick the boot in
Because that’s not how it goes.

Interlude and Bridge:
 C#m B A E 

You've got it wrong,
You've got it wrong,
Don't make me tell you girl.

She’s crying when I tell her
He won’t bother us no more
And it’ll give us time to wonder
If he’s ever lied before.

And somewhere in the corner
I’m telling her a joke
And she was crying laughing
Because that’s exactly how it goes.

Ends on C#m

Aint We Got Fun chords – Peggy Lee

 C 
Every morning, every evening
 Dm G7 
Ain't we got fun?
 G7               
Not much money, oh, but honey
 C                
Ain't we got fun?

 F 
The rent's unpaid, dear
 C 
And we haven't a sou
 Em B7 
But smiles were made, dear
                         Em 
For people like you

 C 
Tho’ there’s nothing in the larder
 Dm G7 
Don't we have fun?
 G7 
Times are hard and getting harder
 C                
Still we have fun

 F E7 Am 
There's nothing sure-er
 F B7 C F 
The rich get rich and the poor get poor-er
 C D7 
In the meantime, in between time
 G7 C 
Ain't we got fun?

Devils Got A Gun chords – Whitehorse

 "Devil's Got A Gun"
          by Whitehorse

Intro Riff:

v = vibrato

E|--------------------------------------------------------------|
B|--------------------------------------------------------------|
G|--------------------------------------------------------------|
D|---------0----------------------------------------------------|
A|-0---0-2---3-2-0-------0-2----0-------0-2-0---2-0---0-2-3v----|
E|---0-------------4-0-4----------4-0-4-------4-----0-----------|

E|--------------------------------------------------------------|
B|--------------------------------------------------------------|
G|--------------------------------------------------------------|
D|---------0------------------------------------------------0---|
A|-0---0-2---3-2-0-------0-2----0-------0-2-0---2-0---0-2-3---2-|
E|---0-------------4-0-4----------4-0-4-------4-----0-----------|

INTRO:  Am E E Am 

VERSE:
 Am E 
Look out, this thing is gonna blow
                                   Am 
I heard it from the people in the know
                                    E 
There's trouble in the tenements below
                                        Am 
There's fire where the flowers used to grow


CHORUS:
 C G Am 
I'm never going back
                      C 
I'm running from the sun
               F 
Bullets at my heels
                   C 
The Devil's got a gun

 C G Am 
I'm never going home
                  C 
I'll be the only one
                     F 
With daylight on my tail
                   C 
And Heaven on the run

VERSE:
 Am E 
Rain is jumping up into the clouds
                                      Am 
A girl has ceased to make her father proud
                      E 
Lovers wrapped up in cellophane
                                      Am 
The bitter fruit has fallen from its prey

CHORUS

BRIDGE:
 C G 
Help me, I know not who I see
       Dm C 
I'm a stranger to the face looking back at me
        F C G 
When a company of sisters is just like any mystery to me
 C G 
Hold me, I know not who I am
          Dm C 
If I'm a woman, you're a creature, not a man
 F C G 
The eyes of a lover- they look like any other to me

VERSE:
 Am E 
It's down to the second hand
                                    Am 
The tick-tock is more than you can stand
                                       E 
The grinders and the wheels they never see
                     Am (Strum once)
We're fighting to the bottom of the deep

CHORUS (Repeat last two lines)

If You Got The Money chords – Lefty Frizzell

 1.
     E 
If you've got the money honey I've got the time
                                              A 
we'll go honky tonkin and we'll have a time
 B7 
we'll make all the nights spots, dance,romance,and dine
                                              E 
if you've got the money honey I've got the time
2.
 E 
There ain't no use to tarry so lets start out tonight
                                                     A 
we'll spread joy oh boy oh boy and we'll spread it right
    B7 
we'll have more fun baby all way down the line
                                             E 
if you've got the money honey I've got the time
3.
   E 
If you've got the money honey I've got the time
                                         A 
we'll go honky tonkin and we'll have a time
 B7 
bring a long your Cadillac leave my old wreck behind
                                          E 
if you've got the money honey I got the time
4.
 E 
yes we'll go honky tonkin and we'll be pleasure bent
                                              A 
I'll look like a million but I won't have a cent
 B7 
but if you run short of money I'll run short of time
                                                  E 
cause you with no more money honey I've no more time

  Repeat verse 1.

Dudley Smith – Youve Got To Be Born Again chords

 SONG:   YOU'VE GOT TO BE BORN AGAIN
ARTIST: DUDLEY SMITH
TAB BY: DON CZARSKI
EMAIL:  GUITARZAN7@HOTMAIL.COM

            YOU'VE GOT TO BE BORN AGAIN
                    DUDLEY SMITH

NOTE: Depending on what version you are listening to
      a CAPO is used on the 1st Fret or not at all.

INTRO: 
 C E F F#m C G C  


VERSE:
  C F C 
Let me tell you about the comforter, 
                 D G 
That the Bible said would lead you on
                              
Jesus said that you'll have power, 
            F G C 
When the Spirit comes down from the Throne
                  E 
Now, I'm filled with that promise, 
            F D 
That has brought new life to me
    F D C Am          
I once was lost, but now I'm found, 
        Dm G C 
I was blind, but now I see
  

CHORUS:
  C F 
Let me tell you that you must have that fire and Holy Ghost,
              C 
With that prayer wheel turning that keeps the fire burning
       F 
That kind of experience that you can feel, 
                 G 
That makes you move, makes you shout,
                           G# 
Makes you cry cause it's real 
            C 
Well I've got my hand, oh, in the Master's hand,
         F D 
And my soul's been anchored in Jesus' name 
                C F G C 
I'm free from sin and I know that I'm born again
        F C G#  slide up to  C#  
Yes I aaa-am


VERSE:
 C# F# C# 
So many toils and dangers, 
          D# G# 
He has brought me through

Jesus opened blinded eyes and He made the lame to walk, 
                F# G# C# 
Well, there's nothing too hard for God to do
                             F 
Now the time that you must seek Him, 
  F# C# 
Let Him feel your soul with Him
        F# D# C# Bb  
He'll make you whole as His presence fills your soul,
           D#m G# C# 
And then you'll be born born again


CHORUS:
              F# 
Let me tell you that you must have that fire and Holy Ghost,
              C# 
With that prayer wheel turning that keeps the fire burning
       F# 
That kind of experience that you can feel, 
                 G# 
That makes you move, makes you shout,
                           A 
Makes you cry cause it's real 
       D 
I've got my hand, oh, in the Master's hand,
         G E  
And my soul's been anchored in Jesus' name 
                D G A D     
I'm free from sin and I know that I'm born again
   
    
CHORUS:
  G 
You must have that fire and Holy Ghost,
             D 
With that prayer wheel turning that keeps the fire burning
       G 
That kind of experience that you can feel, 
                 A 
That makes you move, makes you shout,
                           A# 
Makes you cry cause it's real 
       D 
I've got my hand, oh, in the Master's hand,
         G E 
And my soul's been anchored in Jesus' name 
  D G 
I'm free from sin and I'm born again
  D<

Ive Got Freedom chords – Lily And Madeleine

 I’ve got Freedom: Lily & Madeleine  capo 3

 Intro:  C C *  C C C/G C C/G 
I come calling at the stairs now
 G G G 
I’ve got leaving in my eyes
       G F F 
I realize your just waking up
                    F F C C/G C C/G 
and giving to the rising sun

 C C/G C C/G 
I’ve got something to tell you____
 G G G 
And I didn’t want to lie
        G F F 
But this is not a bitter goodbye
                          F F 
there are no tears left to dry
                            C C/G C C/G 
Now I’ve got  Freedom___
 G  (strijk)                        F F C C/G C C /g
Free from settling, free from wasting my time.______

 C C/G C C/G 
Finally it’s right before me__
 G G G 
Maybe it was always here
          G F F 
My mind has never been quiet this clear my love
 F F 
Maybe I will keep in touch
                                                    C C/G C C/G 
                                   I’ve got freedom___
  G G F F C C *  C C *
Free from settling, free from wasting my time.____
 G G F F C C/G C C/G 
Free from meddling free from changing my mind_____
 C C/G C C/G G G G G 
Oohoohoohoo  _____ Oohoohoohoo
 F F F F C C/G C C/G 
Oohoohoohoo__________________

 C  (strijk)                             C 
I’ve got something to tell you
 G (strijk)                                G 
And I  didn’t want to lie
        G (strijk)               F F 
But this is not a bitter goodbye
                           F F 
there are no tears left to dry
                      C C/G C C/G C C/G C C/G  …..enz.   fade out
Now I’ve got  Freedom_____(Oohoohoohoo improvisatie)

Jingle Jangle Jingle I Got Spurs chords – Tex Ritter

 Jingle Jangle Jingle (I Got Spurs)
Joseph J. Lilley and Frank Loesser (1942)

INTRO:
 D G A D D Bm A D 
Yippee yay, there'll be no wedding bells for today!

CHORUS:
       D G A D 
I got spurs that jingle, jangle, jingle
                G A D 
As I go ridin' merrily along
                     G A D 
And they sing, 'Oh ain't you glad you're single'
                        G A D D7 
And that song ain't so very far from wrong

          G D 
Oh Lily Bell, oh Lily Bell
                             Bm 
Though I may have done some foolin 
         E7 A7 
This is why I never fell
[CHORUS]

          G D 
Oh Mary Ann, oh Mary Ann
                               Bm 
Though we done some moonlight walkin'
         E7 A7 
This is why I up and ran
[CHORUS]

           G D 
Oh Sally Jane, oh Sally Jane
                            Bm 
Though I'd love to stay forever 
          E7 A7 
This is why I can't remain
[CHORUS]

           G D 
Oh Bessy Lou, oh Bessy Lou
                             Bm 
Though we've done a heap of dreamin'
         E7 A7 
This is why it won't come true
[CHORUS]
          D Bm G A D G D 
And that song ain't so very far from wrong.

All That Ive Got Acoustic chords – The Used V2

 Below are the chords that I have tabbed and that are used in the acoustic version of All
That I've Got by The Used which can be found and heard here:
http://www.youtube.com/watch?v=BTYw5NRy7yg. The tuning is in Drop C. Please listen to 
the song to learn the rhythm or strumming pattern. Rock on \m/


INTRO/CHORUS

D|-------------000--000------------000-----------|
A|---888--333--111--333--555--333--111--333~~----|
F|---777--222--000--000--444--222--000--222~~----|
C|---555--000--222--444--222--000--222--222~~----|
G|---555--000--333--555--222--000--333--000~~----|
C|---555--000------------222--000----------------|

VERSE

D|--------0------0---------0-------0---|
A|--------0------0---------0-------0---|
F|-12--12----1212---14--14----4--4-----|
C|-12--12----1212---14--14----5--5-----|  (However many times you need for
G|-10--10----1010---12--12----2--2-----|   the verse).
C|-10--10----1010---12--12----2--2-----|


The last part of every verse (usually when Bert says "I---" before the chorus comes in)
ends with Quinn strumming:

D|-----(0)------|
A|-----(0)------|
F|------12------|
C|------x-------|
G|------10------|
C|--------------|

BRIDGE

D|--------------0-0-0--=0-0-0----------------|
A|--------------0-0-0---0-0-0----------------|
F|--444----777--121212--141414---------------|
C|--222----555--121212--121212---------------|
G|--222--4/555--101010--121212---------------|
C|--222--4/555--101010--121212---------------|


If you have any comments or questions, even corrections, feel free to comment below and
I'll change it up! Thanks guys, hope you enjoy my first tab.

- Josh

Ive Got It Made chords – John Anderson

 I'VE GOT IT MADE
recorded by John Anderson


 D G D G D G 
A high dollar woman in a low cut dress
 A G D 
God never wanted me to have a woman like that I guess
                              G 
A forty room mansion sitting high on a hill
   A G D              
I ain't ever lived in a place like that and I never will


                  G D 
But I've got the mornin' sun, I've got the evenin' breeze
           A D 
I got the woman that I love lyin' close to me
            G D 
I've got a few good friends and all my bills are paid
           A D G D 
I got the moon and stars above and I've got it made


                               G 
I don't need a gold mine or a long limousine
     A G D 
I'm not the kind of man to surrender my soul to material things
                           G 
Just give me a capo and a shady spot to sit
    A G D 
To me that's about as close to heaven as a man can get

                  G D 
But I've got the mornin' sun, I've got the evenin' breeze
           A D 
I got the woman that I love lyin' close to me
            G D  
I've got a few good friends and all my bills are paid
           A D G D A D 
I got the moon and stars above and I've got it made


            G D  
I've got a few good friends and all my bills are paid
           A D 
I got the moon and stars above and I've got it made
           A D G D 
I got the moon and stars above and I've got it made

I Got You chords – Nick Carter V2

 F Dm C 
People tell me, you stay where you belong
 C Bb F 
But all my life I've tried to prove them wrong
 F Dm C 
They say I'm looking for something that can't be found
 C Bb F 
They say I'm missing out if my feet don't touch the ground
 F Dm C 
But there are moments When you can't deny what's true
 C Bb F 
Just an ordinary day Like when I met you

      C Bb F   
It's funny how life can take new meaning
     Am Bb C 
You came and changed what I believe in
     Am Bb Dm 
The world on the outside is trying to pull me in
  C Bb F C F Dm 
But they can't touch me 'Cause I... got you
  C Bb F 
I got you, oh yeah

 F Dm C   
I want to thank you For all of the things you've done
 C Bb F 
And most for choosing me To be the one

      C Bb F   
It's funny how life can take new meaning
     Am Bb C 
You came and changed what I believe in
     Am Bb Dm 
The world on the outside is trying to pull me in
  C Bb F C F Dm 
But they can't touch me 'Cause I... got you

        Bb Dm 
And it hits me when I reach for you
 Am Bb Dm 
That I'm afraid you won't be there
 Am Bb C F 
Maybe I am in too deep But I don't care
       Dm C 
I'm right Where I belong, I got you, 
          Bb F   
Yeah, I want to prove them wrong
 F Dm C 
I've got you, yeah, You can't deny what's true, no
 C Bb F Bb F 
They can't touch me, yeah yeah, I got you, I got you, I got you baby
 F Dm C 
You can't deny what's true, 
 C Bb F C         
No, they can't touch me, 'Cause I... got you