Tag: grave

Do Not Stand At My Grave And Weep chords – Libera V2

 Intro
 F#m F#m F#m7 Bm A 
   Do not stand at my grave and weep
 D C#m F#m 
   I am not there, I do not sleep
 D E C#m F#m 
   I am a thousand winds that blow
             D E C#m F#m 
   I am the diamond glint on snow
             D E C#m F#m 
   I am the sunlight and ripened grain
             D E C#m D 
   I am the gentle, gentle autumn rain

 F#m F#m7 Bm A 
   Do not stand at my grave and weep
 D C#m F#m 
   I am not there, I do not sleep
 D E C#m F#m 
   When you awake in the morning hush
             D E C#m F#m 
   I am the swift uplifting rush
       D E C#m F#m 
   Of quiet birds in circling flight
             D E C#m F#m 
   I am the soft, soft starlight, starlight at night

          D B 
  Do not stand at my grave and weep
            D E F# 
  I am not there, I do not sleep

Grave Of The Hero chords – Harris Fletcher

 D G 
In the trenches and out on the field,
 D A 
Unrelenting you never yield,
 D G 
To the fear and to the pain,
           D A D 
You’re a soldier who knows no shame.


Refrain:
 D 
Yours is the grave of the hero,
                               G 
Yours was the fight of the bold,
         D A G 
You died for the ones that you didn't know,
           D A D 
And you gave your life for them all.


Across the blue oceans   in faraway lands,
You spilt your blood on foreign sands,
To fight for the ones that you left behind,
So freedom they could find.

We treasure the stories you left us of old,
The thoughts and the memories forever we'll hold,
You put yourself last and you never regret,
How your face to the challenge you set.

There's many who left us and never came back,
The missing in action, while under attack.
We’ll never lose site of their sacrifice,
They willingly paid with their lives.

My Throat Is An Open Grave Acoustic Tabs by Demon Hunter V2

 Technically there are 3 guitars playing in the acoustic version, but you can do it with 
2 and it sounds pretty good - just have one guitar play the "power chords" of all of the riffs.

The whole song is in Drop C (CGCFAD)

INTRO/Verses:
D|-------------------------------------------------------------------|
A|-----0----------0----------0----------0----------0----------0------|
F|--5---5-5----5---5-5----5---5-5----5---5-5----5---5-5----5---5-5---|
C|-7-7--------7-7--------3-3--------3-3--------5-5--------5-5--------|
G|-------------------------------------------------------------------|
C|-------------------------------------------------------------------|

D|-------------------------|
A|------0-----------0------|
F|---5---5-5-----5---5-5---|
C|--4-4---------4-4--------|
G|-------------------------|
C|-------------------------|

VERSE 1:
(Same as intro)

CHORUS (chords - figure out placement/rhythm with song):
D|--0--|
A|--5--|
F|--0--|
C|--3—-|
G|--3--|
C|--3--|

D|--0--|
A|--0--|
F|--0--|
C|--6—-|
G|--6--|
C|--6--|

D|--0--|
A|--0--|
F|--0--|
C|--7—-|
G|--7--|
C|--7--|

VERSE 2:
(Same as intro)

(CHORUS)

BRIDGE/OUTRO chords – figure out placement with song:
D|-----|
A|-----|
F|-----|
C|--7—-|
G|--7--|
C|--7--|

D|-----|
A|-----|
F|-----|
C|--6—-|
G|--6--|
C|--6--|

D|-----|
A|-----|
F|-----|
C|--5—-|
G|--5--|
C|--5--|

D|-----|
A|-----|
F|-----|
C|--4—-|
G|--4--|
C|--4--|

SOLO over BRIDGE/OUTRO:
D|------------------------------------------------------|
A|------------------------------------------------------|
F|---9-7--9b^9---5--9-5--9b^9---4--5-4---5-4--1--2/4----|   2x
C|------------------------------------------------------|
G|------------------------------------------------------|
C|------------------------------------------------------|

Grave chords – Don Moen

 Dm Bbmaj7 
There's a step that we all take alone,
       Cmaj7 C6 A 
an appointment we have with the great unknown,
        Dm Bbmaj7 
like a vapor this life is just waiting to pass,
          Cmaj7 C6 A 
like the flowers that fade, like the withering grass,
     Dm Bbmaj7 
But life seems so long and death so complete &
     Cmaj7 C6 A 
the grave an impossible portion to cheat,
     Dm Bbmaj7 
but there is One who has been there & still lived to tell,
          Cmaj7 C6 A  
There is One who has been thru both Heaven & Hell,
         Dm Cmaj7 C6 
and the Grave will come up empty handed that day,
 F G 
Jesus will come and steal us away

Chorus:
 C                                     GaddD
Where is the sting, tell me where is the bite?
 C6                                           GaddD
When the Grave Robber comes like a thief in the night,
 C                                      GaddD
Where is the victory, where is the prize?
 C6                               GaddD              C6 
When the Grave Robber comes and death finally dies

Many still mourn, many still weep for those that they love who have 
fallen asleep,
But we have this hope tho our hearts may still ache,
just one shout from above & they all will awake
and in the reunion what Joy we will see, Death will Be swallowed in sweet 
Victory
(CHROUS)
When the last enemy is gone , from the dust will come a song,
those asleep will Be awakened, not a one will be forsaken
He will wipe away our tears, He will steal Away our fears
there will be no sad tomorrow,there will be no pain, no sorrow
(CHORUSx2)

Lemmings Tabs by 5 Star Grave

 Hey guys, I tried playing along with this underrated song and managed to figure out most 
sections of the rhythm guitar and the lead section of the verses.

I don't know the rhythm section for the bridge (The part where it's just "LEMMINGS" 
followed by a scream x2) but everything else seems to sound decent enough.

This tab will be very basic with little accuracy on how often a power chord is used, 
you'll probably have to listen to it to get it right.

Feel free to let me know if you find a better way or whatever cause I'd love to be able 
to play this right :)

5 Star Grave's official website can be found at http://www.5stargrave.com/
5 Star Grave are currently (20th November 2013) signed with Massacre Records


E standard tuning.




After the classical intro, when the guitar comes in:

e|--------------------|
B|--------------------|
G|--------------------|
D|-2-2--2-2--2-2--2-2-|
A|-2-2--2-2--2-2--2-2-|
E|-0-0--0-0--0-0--0-0-|

Intro/Chorus

e|-----------------------------------------|
B|-----------------------------------------|
G|---------------5-5-5---------------7-7-7-|
D|-----2-2-2-5-5-5-5-5-----5-5-5-7-7-7-7-7-|   x 4
A|-2-2-2-2-2-3-3-3-3-3-5-5-5-5-5-5-5-5-5-5-|
E|-0-0-0-0-0-----------3-3-3-3-3-----------|

Pre-verse (Let ring, you'll hear when to do it the second time)

e|----------|
B|----------|
G|----------|
D|-2--------|        x 2
A|-2--------|
E|-0--------|

Verse I (Three separate sections, Verse I features the quiet growled vocals)


      ^(let ring)
e|--------0-----------------|
B|------0-------------------|
G|----0-----------4-5-------|
D|--------------5-------4-5-|     x 2
A|--------------------5-----|
E|-0------------------------|

(note, could cut off the end of the second time with a pick slide)


Verse II (Louder screamed vocals, immediately after Verse I.  Let notes ring till next chord)

e|-----------------|
B|-----------------|
G|-----5-------7---|
D|-2---5---5---7---|       x 2
A|-2---3---5---5---|
E|-0-------3-------|

Verse III (No rhythm here, just this fill solo, very simple to do)

e|-7-0-0-3-0-0-5-0-7-0-8-0-10-0-8-0-7-0-0-3-0-0-5-0-7-0-5-0-3-0-5------|
B|---------------------------------------------------------------------|
G|---------------------------------------------------------------------|
D|---------------------------------------------------------------  x 2-|
A|---------------------------------------------------------------------|
E|---------------------------------------------------------------------|

Chorus (Same as intro, but I'll post here incase you're playing along trying to 
scroll quickly :) )

e|-----------------------------------------|
B|-----------------------------------------|
G|---------------5-5-5---------------7-7-7-|
D|-----2-2-2-5-5-5-5-5-----5-5-5-7-7-7-7-7-|   x 4
A|-2-2-2-2-2-3-3-3-3-3-5-5-5-5-5-5-5-5-5-5-|
E|-0-0-0-0-0-----------3-3-3-3-3-----------|





Song resets to Pre-verse and plays through to chorus, which again, I'll copypaste the whole thing.






Pre-verse (Let ring, you'll hear when to do it the second time)

e|----------|
B|----------|
G|----------|
D|-2--------|        x 2
A|-2--------|
E|-0--------|

Verse I (Three separate sections, Verse I features the quiet growled vocals)


      ^(let ring)
e|--------0-----------------|
B|------0-------------------|
G|----0-----------4-5-------|
D|--------------5-------4-5-|     x 2
A|--------------------5-----|
E|-0------------------------|

(note, could cut off the end of the second time with a pick slide)


Verse II (Louder screamed vocals, immediately after Verse I.  Let notes ring till next chord)

e|-----------------|
B|-----------------|
G|-----5-------7---|
D|-2---5---5---7---|       x 2
A|-2---3---5---5---|
E|-0-------3-------|

Verse III (No rhythm here, just this fill solo, very simple to do)

e|-7-0-0-3-0-0-5-0-7-0-8-0-10-0-8-0-7-0-0-3-0-0-5-0-7-0-5-0-