Tag: Half Step

Islands chords – Sara Bareilles

 Islands by Sara Bareilles
 The Blessed Unrest
Track 11
2013


Half Step Down Tuning


Chords:

Em:      x22000
G:       320003 or 320033
D:       xx0232
A:       x02220
C:       x32010
Bm:      x24432

(To play in standard tuning, put a capo on the 6th fret and replace the chords above by 
Am, C, G, D, F & Em)


  Intro:     Em      (G)  D        x 2


 Em                (G)    D 
 Waiting for the bus stop
 Em                          (G)    D 
 Waiting for the concrete black top to settle down
 Em                      (G)   D A C 
 Long enough for me to get off and get a little ground

 Em                  (G)     D 
 I'm ready for the sea change
 Em                   (G)             D 
 Helpless felt this coming from a mile away
 Em                         (G)   D A G 
 And now you're looking at me babe, and how we'll separate if we can
                              G Bm C 
 Cause I still count on one hand the number of good men I know


                  D Em 
 It's like I'm standing on the edge with just a telephone wire
             C 
 Trying to get to you first to say the world's on fire
 D Em 
 Holding my breath until I know you're alright
               C 
 Because the water will only rise

 When will you realize
 D Em 
 You must become an island
 C G 
 You must become an island
   D Em 
 You must become an island
       C 
 And see for yourself that that's what I am


 Em      (G)  D      x 2


 Em                        (G)   D 
 You always dirty up the windows
          Em 
 If you keep 'em at bay that way
          (G)         D Em 
 No one's gonna surprise you by getting too close
             (G)   D
 Anybody but me though
                 A G 
 You've made exceptions to your rules
                               G Bm C 
 And now we're staring down truth neither one of us wants to know


                  D Em 
 It's like I'm standing on the edge with just a telephone wire
             C 
 Trying to get to you first to say the world's on fire
 D Em 
 Holding my breath until I know you're alright
               C 
 Because the water will only rise

 When will you realize
 D Em 
 You must become an island
 C G 
 You must become an island
   D Em 
 You must become an island
       C G D Em 
 And see for yourself the horizon is all we have
       C G D Em C 
 And see for yourself the horizon is all we have


 D Em 
 Holding my breath until I know you're alright
               C 
 Because the water will only rise

The Trial chords – Phil Ochs

 Ochs plays this with his gutar tuned a half-step down.

 E 
   Outside the cats are scratching
 Dm 
   Inside the doors are latching
 C F 
   On the room, the greedy gloom
        Dm G 
   The trial is revealed
 E 
   Police are six feet deep
 Dm 
   With switchblades in their teeth
       C F 
   So no one leaves and they all believe
            Dm G 
   This is absolutely real
              Am 
   Yes, it's real
   And the Sergeant says, "Are you ready, boys?
   Get ready, boys
   Aim...
        G Am 
   And Fire...

Order in the court
People ready for the sport
They squirm and squeak and lick their beaks
And grease their feathers down
Everybody rise
Judge is here with bathroom eyes
A Grizzly bear, he hugs his chair
And the greedy gavel pounds
Yes, it pounds
And the Sergeant says, "Are you ready, boys?
Get ready, boys
Aim...
And Fire...

In the dungeon's falls
Writing appeals upon the wall
And the priest in prayers is not even there
So precious is his time
To the stake he's tied
The swallows sing the triggers slide
he bids goodbye to the wattery sky that plunges from his mind
From his mind
And the Sergeant says, "Are you ready, boys?
Get ready, boys
Aim...
And Fire...

Anywhere But Here Acoustic Chords – Aaron Lewis V2

 It's half step down tuning
The tab is based on this video - youtu.be/08wyz4ApRk4

I dont know the correct names for the chords so I decided to tab them out:
 
      G C Em D D2 
eb |-3--3--3---2--3--|
Bb |-3--3--3---3--3--|
Gb |-0--0--0---2--2--|
Db |-0--x--2---0--0--|
Ab |-x--3--2------x--|
Eb |-3------------2--|



Into: G-- C-- Em- D- C--

 G C 
  This road is going nowhere
        Em D C 
And these, these shoes are worn too thin
 G C 
  There's always should-haves where I'm going
            Em D C 
There's always could-haves where I've been.


               G 
And all the things that I've said
          D2 Em C 
And the road up ahead don't mean nothing don't mean nothing
           G D2 Em 
And the things that I've done and the man I've become disappear
              C G D2 Em C 
I wish I was anywhere but here.


 G C 
  There's always footsteps from behind me
                   Em D C 
Why don't they ever read the writing on the wall
 G C 
  And all the time I've spent rewinding
                Em D C 
It might mean nothing, it might mean nothing at all


               G 
And all the things that I've said
          D2 Em C 
And the road up ahead don't mean nothing don't mean nothing
           G D2 Em 
And the things that I've done and the man I've become disappear
              C            ( G D2 Em C )x2
I wish I was anywhere but here.


 G C 
  The bed next to me is empty
              Em D C 
Just like the, the shell I'm still trying to fill
 G C 
  The things put in life to tempt me
            Em D C 
They won't ever, they might break my will


               G 
And all the things that I've said
          D2 Em C 
And the road up ahead don't mean nothing don't mean nothing
           G D2 Em 
And the things that I've done and the man I've become disappear
              C G D2 Em C G D2 Em C G 
I wish I was anywhere but here-e-e      anywhere but here


Travelling Song Chords – Pentangle

 Travelling Song - Pentangle

Based off collection "The Time Has Come (1967 - 1973)
Live version on Youtube is a half-step down, I believe

Some notes:

- For the "die da de da" section, you should take the chords liberally. In the recorded 
version you can hear only two strings for every chord (I suggest you do the same).

- I'm not going to tab out the solo, it's more fun to improvise on an acoustic. It's in 
the key of C/Am, so concentrate on that. I also suggest using the mixolodyian scale over C.

- The F can be subbed for a Dm/Fsus2 (100230)

- As for the tab, I'm only tabbing the segmented patterns, not the whole damn thing.


Chords

(Intro)


 Am C Am 
Sittin' behind the front wheel             Got my woman beside me too
 F Am F Am 
Hey baby we're goin' home                  Hey baby we're goin home
 Am C Am 
I don't mind the drizzlin' rain            Insiiide where it's warm and dry
 F Am F Am 
Hey baby we're goin' home                  Hey baby we're goin home

 E D C B A E D C B A 
Diiee da da da daaaa                       Die da da da daaaa

 Am C Am 
Well faster baby let's gooo                Racin' on through the night
 F Am F Am 
Hey baby we're goin' home                  No baby we're goin home
 Am C Am 
And baby when we get there                 I'll do everythin' for you
 F Am F Am 
Because baby we'll be back home            No baby we'll be back home

 E D C B A E D C B A 
Diiee da da da daaa                        Die da da da daaaa

(Solo)
 Am C Am 
And I'll I hope is right down              Get stopped on this old highway
 F Am F Am 
Because baby we must get home              No baby we must get home
 Am C Am 
And I don't mind tellin' a good gal        Hey The policeman won't do us good
 F Am F Am 
Hey jailhouse will be our home             Hey jailhouse will be our home
 Am C Am 
So faster baby let's gooo                  Racin' on through the night
 F Am F Am 
Hey baby we're goin' home                  Hey baby we're goin home

 E D C B A E D C B A 
Dieee Da da da daaa                        Die da da da daaa

 E D C B A E D C B A 
Dieee da da da daaa                        Die da da da daaa

(Outro)



Tab (It's fingerstyle)

"Sittin' behind the front wheel...         My woman beside me too"       (On the hammer 
on, literally pluck twice as hard to get that effect)

e|-3-|                   e|-5-|            e|-/3-|                 e|------------------|
B|-5-|                   B|-2-|            B|-/5-|                 B|-1---1h3p1--------|
G|-2-|                   G|-2-|            G|-/5-|                 G|-2---------2------|
D|---|                   D|---|            D|-/5-|                 D|-2-----------2----|
A|---|                   A|---|            A|----|               

Hell Night Tabs by Misfits V2

 -------------------------------------------------------------------------------
                             Misfits - Hell Night
-------------------------------------------------------------------------------
Tabbed by:Subligar
Here's a proper tab tuned a half step down like it should be.
Listen to the song for the rhythm, especially the start of the verse and middle of the chorus.
The whole song should probably be downstrums(if you are a monster), but the Pre-
Chorus needs the heavy hits.

Tuning: 1/2 step down

Intro
eb|-----------:-----------------|
Bb|-----------:-----------------|
Gb|-----------:-----------------|
Db|-----------:-----------------|
Ab|9999999\7/-:---\4-4-4-5-5-7--|
Eb|7777777\5/-:---\2-2-2-3-3-5--|
    repeat 7x- then big slide to
Verse
eb|-----------:-----------------|
Bb|-----------:-----------------|
Gb|-----------:-----------------|
Db|-----------:-----------------|
Ab|9999999\7/-:---\4-4-4-5-5-7--|
Eb|7777777\5/-:---\2-2-2-3-3-5--|
    repeat 3x

Pre-Chorus  only downstrums
eb|---------------------------------|
Bb|---------------------------------|
Gb|---------------------------------|
Db|---------------------------------|
Ab|7-7-7-7-7-7-7\5/7-7-7-7-7-7-7-7--|
Eb|5-5-5-5-5-5-5\3/5-5-5-5-5-5-5-5--|

Chorus      Hell night, Whoa
eb|-------------------------------------|
Bb|-------------------------------------|
Gb|-------------------------------------|
Db|7-777777------7----------------------|
Ab|5-555555-7-77-5-7-5-555555-7-777777--|
Eb|---------5-55---5-3-333333-5-555555--|

End
eb|----------:------|
Bb|----------:------|
Gb|----------:------|
Db|----------:------|
Ab|9999999\7/:9--9--|
Eb|7777777\5/:7--7--|
   repeat 4x

Order:

Intro
Verse
Pre-Chorus
Chorus-4x
Verse-2x
Pre-Chorus
Chorus-4x
Verse-2x
Pre-Chorus
Chorus-6x
End

************************************

| /   slide up
| \   slide down
| h   hammer-on
| p   pull-off
| ~   vibrato
| +   harmonic
| x   Mute note
| b   Bend
| pb  Pre-bend
| br  Bend release
| pbr Pre-bend release
| brb Bend release bend

************************************

Dead Mans Party Chords – Oingo Boingo

 Just the basic chords here, but it gets the idea across.  Tune a half step down.

 Em 
I'm all dressed up with nowhere to go 
Walkin' with a dead man over my shoulder 
I'm all dressed up with nowhere to go 
Walkin' with a dead man over my shoulder

( Em ,  D ) x4

Waiting for an invitation to arrive 
Goin' to a party where no one's still alive 
Waiting for an invitation to arrive 
Goin' to a party where no one's still alive

 Em D 
I was struck by lightning 
 Em D 
Walkin' down the street 
                                   D Em                           
I was hit by something last night in my sleep 
 Em D 
It's a dead man's party 
 Em D 
Who could ask for more 
                                 D Em 
Everybody's comin', leave your body at the door 
             A B7 
Leave your body and soul at the door
 C Em D Em 
(Don't run away it's only me) 

Verse chords here:
All dressed up with nowhere to go 
Walkin' with a dead man (walkin' with a dead man)
Waitin' for an invitation to arrive 
With a dead man (dead Man)

Got my best suit and my tie 
Shiny silver dollar on either eye 
I hear the chauffeur comin' to my door 
Says there's room for maybe just one more

Chorus repeats here

 C Em D Em 
Don't run away it's only me 
Don't be afraid of what you can't see 
Don't run away it's only me

Ballad Chords – Molly Drake

 Molly Drake- http://www.squirrelthing.com/artists/molly-drake

This is a half step down from the album version, because the day i figured it out youtube
was being weird and playing a half step down. maybe someday i will change it. 
Figured out on a piano. 


if you can see the strong and wearied starlight
 Eb G# Bb 

riding on mountains of the night astride
 Cm G# Bb 

and as you stand alone within the breathing darkness 
 Cm D Gm Cm 

ill be at your side
        Bb F  

if you can look
 Eb 
                                     
on this unchanging sunlight
       G# Bb 

one second fully when the day is new
 Cm G# Bb 

and as the burning coin dazzles beneath your eyelids
 Cm D Gm Cm 

i shall look at you
          Bb F 

                   

and if you can run
 Eb Cm 

where wind may beat about you
        Gm Bb 

out on the hill where shadows race
 Cm F G 

touching grass, touching trees
 Gm Eb Dm Cm 

and the edge of water
 Cm 

i shall touch 
 F                   

your face
      Bb 



though all the lands of heaven and earth divide us
 Eb G# Bb 

though distance is a dark unbroken terror (?)
 Cm G# Bb 

if you can walk within the same remembered music
 Cm Gm Cm Gm 

we can walk, we can walk
         Cm F   

together
 Eb

Attached At The Hip Tabs by Cky V4

 Song:Attached At The Hip
Album:Infiltrate-Destroy-Rebuild
Artist:CKY
Genre:Alternative Metal
Year:2002
Tuning:Half-Step Down (Eb,Ab,Db,Gb,Bb,Eb)

Intro x4
Eb---------------------------|
Bb-------------------5-3-----|
Gb-------------2---2-------2-|
Db-44444444--4---4-------4---|
Ab-22222222------------------|
Eb---------------------------|

Verse 1 x1
Eb---------------------|
Bb---------------------|
Gb---------------------|
Db(   x4  )-(   x4  )--
Ab-22-2222---5x12--2---|
Eb---------------------|

Chorus 1 x4
Eb----------------------------|
Bb-------------------5-3------|
Gb-------------2---2-------2--|
Db-44444444--4---4-------4----|
Ab-22222222-------------------|
Eb----------------------------|

Then:
*Verse 2 x1

Pre-Chorus 1 x4
Eb--------------------------------------------------|
Bb--------------------------------------------------|
Gb-4~~--4~~-44--7-77--------------------7-77--6-66--|
Db-4~~--4~~-44--7-77-5-55--7~~--7~~-77--7-77--6-66--|
Ab-2~~--2~~-22--5-55-5-55--7~~--7~~-77--5-55--4-44--|
Eb-------------------3-33--5~~--5~~-55--------------|

Then:
*Chorus 2 x4

Bridge 1 x4
Eb--------------------------------------------------|
Bb--------------------------------------------------|
Gb-4~~--4~~-44--7-77--------------------7-77--6-66--|
Db-4~~--4~~-44--7-77-5-55--7~~--7~~-77--7-77--6-66--|
Ab-2~~--2~~-22--5-55-5-55--7~~--7~~-77--5-55--4-44--|
Eb-------------------3-33--5~~--5~~-55--------------|

Chorus 3 x4
Eb----------------------------|
Bb-------------------5-3------|
Gb-------------2---2----------|
Db-44444444--4---4-------4-2--|
Ab-22222222-------------------|
Eb----------------------------|

Song Order:
*Intro x4
*Verse 1 x1
*Chorus 1 x4
*Verse 2 x1
*Pre-Chorus 1 x4
*Chorus 2 x4
*Bridge 1 x4
*Chorus 3 x4

*Here Is A Link If You Wanna Play Along:


*Don't Forget To Rate And Comment If You Liked The Tab, And Comment Any
Corrections, I Welcome Corrections.

Hide And Seek Chords – Janet Devlin

 Hide And Seek by Janet Devlin
Album: Hide And Seek
Track 8
2013


HalF Step Down Tuning


Chords:

 C :      x32010
 Em :     x22000
 Am :     x02210
 F :      x33211 or 133211
 Fm :     133111
 Dm :     xx0231
 Bb :     x13331


(To play in standard tuning put a capo on the 4th fret and replace the chords 
above by G, Bm, Em, C, Cm, Am & F)


   Intro:        C C Em 
 I'm so tired of playing hide and seek with love
                             Am F 
 I won't close my eyes and count again to 10


  C Em Am F                      
 I don't mind if you take what you need from me
   C Em Am F 
 You always hide but I'm finding it hard to seek

  F Fm C Em Am 
 Oh I spy with my little eye some thing that begins with you
       F Fm 
 Oh why are you so hard to find


          C Em 
 I'm so tired of playing hide and seek with love
                             Am F 
 I won't close my eyes and count again to 10
            C Em 
 Sick and tired of playing hide and seek with love
                          Am 
 This time I'm going to hide my heart
 F 
 Were you will never find it


   C Em Am F 
 We've been here so many times before
             C Em 
 It's this game that I won't play
     Am F 
 No I won't no more

 F Fm 
 Oh I spy with my little eye
        C Em Am 
 Something that ends with you
       F Fm 
 Oh why are you so hard to find


          C Em 
 I'm so tired of playing hide and seek with love
                             Am F 
 I won't close my eyes and count again to 10
            C Em 
 Sick and tired of playing hide and seek with love
                          Am 
 This time I'm going to hide my heart
 F 
 Were you will never find it


 Dm Am 
 You won't find me
                 F 
 You give it up
          C 
 So easily
             Dm 
 I've had enough
                   Am 
 It's my turn to leave
                    F 
 I won't be caught
          Bb 
 So easily


          C Em 
 I'm so tired of playing hide and seek with love
                             Am F 
 I won't close my eyes and count again to 10
            C Em 
 Sick and tired of playing hide and seek with love
                          Am 
 This time I'm going to hide my heart
 F 
 Were you will never find it

Arrows Of Desire Chords – Matthew Good

 Matthew Good
Arrows Of Desire / Arrows Of Desire / 2013

Half-step down
All barred but its sounds better played bluntly and with the 4 bass strings.
 E  x799xx or x79900
 E * 022100

This is just the acoustic outline I've started with, input would be appreciated!

 E B G#m F#  (x2)

 E B 
On a ruined wind
    G#m F# 
To see our promise right in front of you
 E B G#m 
Silver barbs to crash the heart
                 F# 
Those gates so irremovable
 E B G#m F#      
Oh we can beg, we will bend again
 E B G#m F# 
Oh we can beg that we will bend again
 

 C#m B F# E *
Up in thin air we lie in wait
 C#m B F# E *
Up in thin air we lie in wait
 F# E *
We lie in wait

 E B G#m F#  (x2)

 E B 
Held to loose
              G#m F# 
Wait for the word to come and then to hell with you
 E B G#m F# E *
Over the fire a time to bear what those below await

( E *)  F# B E E *  F# B E E *      F# B E 
Here's my golden spear
 E *      F# B E 
Here's my cold despair
 
 C#m B F# E *
Up in thin air we lie in wait
 C#m B F# E *
Up in thin air we lie in wait
 F# E *
We lie in wait
 C#m B F# E *
Up in thin air we lie in wait
 C#m B F# E *
Up in thin air we lie in wait
 F# E *
We lie in wait 
 F# E *
We lie in wait


 E B G#m F#  (x2) 
 C#m G#m F# 

The strumming and transitions can prove difficult if you don't have a proper grasp 
of the song. BE CREATIVE! 
I'm still not 100% on this but hope you enjoy! 

It Goes Like This Chords – Thomas Rhett V3

 I love this song! I noticed the other tabs for this song all require tuning
your guitar a half step down which I personally hate doing so I thought I'd
share my version that allows standard tuning but still sounds awesome.

Capo 4

Verse 1:
 Em Cadd9 G D 
Hey girl, you make me wanna write a song,
 Em Cadd9 G D 
Sit you down, I'll sing it to you all night long,
 Em Cadd9 G D 
I've had a melody in my head since she walked in here and knocked me dead.
 Em Cadd9 G D 
Yea girl, you make me wanna write a song

Chorus:
                  Em Cadd9 G D 
And it goes like oooooooh, what I wouldn't doooo
             Em Cadd9                     
To write my name on your heart, get you wrapped in my arms 
      G D 
baby all around you.
                  Em Cadd9 G D 
And it goes like heeeeeey, girl I'm blown awaaay,
        Em Cadd9 G D 
Yea it starts with a smile and it ends with an all night long slow kiss,
                  Em Cadd9 G D 
Yea it goes like this.

(Continue Chord Pattern throughout)

Verse 2:
Hey girl, you make me wanna drive you home,
Get you outta here and get you all alone.
I don't know what it is about you, baby, But I'm all messed up and it might sound crazy,
But you make me wanna write a song.

Chorus:
And it goes like ooh, what I wouldn't do
To write my name on your heart, get wrapped in my arms baby all around you.
And it goes like hey, girl I'm blown away,
Yea it starts with a smile and it ends with an all night long slow kiss,
Yea it goes like this.


Bridge:       
Lookin' at you lookin' at me that way,
Makes me wanna grab my old guitar and play


Chorus:
Something like ooh, what I wouldn't do,
To write my name on my heart, get you wrapped in my arms baby all around you.
And it goes like hey, girl I'm blown away,
Yea it starts with a smile and it ends with an all night long slow kiss,
Yea it goes like this

And it goes like ooh, and it goes like hey,      
And it ends with a kiss,
Yea it goes like this.

Megumi The Milkyway Above Tabs by Connan Mockasin V2

                     Connan Mockasin - Megumi the Milkyway Above
                    from his 2011 album 'Forever Dolphin Love'

This is in incredible song. Really simple, but the chords and the rhythm are amazing.
This song is in E flat, so you have to tune down a half step. There's no way for me
to tab this song in standard because the chords rely on the open notes a lot.

Intro:
eb|-3--3--3-3-3-3--3--3--3-3-3--3--3--3-3-3-3--3--3--3-3-3--|
Bb|-3--3--3-3-3-3--3--3--3-3-3--3--3--3-3-3-3--3--3--3-3-3--|
Gb|-0--0--0-0-0-0--0--0--0-0-0--2--2--2-2-2-2--2--2--2-2-2--|
Db|-0--0--0-0-0-0--0--0--0-0-0--0--0--0-0-0-0--0--0--0-0-0--|
Ab|-X--X--X-X-X-X--X--X--X-X-X--X--X--X-X-X-X--X--X--X-X-X--|
Eb|-3--3--3-3-3-3--3--3--3-3-3--1--1--1-1-1-1--1--1--1-1-1--|

eb|-0--0--0-0-0-0--0--0--0-0-0--3--3--3-3-3-3--3--3--3-3-3--|
Bb|-0--0--0-0-0-0--0--0--0-0-0--3--3--3-3-3-3--3--3--3-3-3--|
Gb|-0--0--0-0-0-0--0--0--0-0-0--0--0--0-0-0-0--0--0--0-0-0--|
Db|-2--2--2-2-2-2--2--2--2-2-2--0--0--0-0-0-0--0--0--0-0-0--|
Ab|-3--3--3-3-3-3--3--3--3-3-3--X--X--X-X-X-X--X--X--X-X-X--|
Eb|-3--3--3-3-3-3--3--3--3-3-3--3--3--3-3-3-3--3--3--3-3-3--|


Verse:
"It's interesting, we ought to know, originally we all came from,
A place to test the nest beyond, to Megumi the milkyway,
Like sharks that wear the knife edge stone, to pull the fish to catch the wind,
Forever be good, no love making it all, with Megumi the milkyway above"
eb|-3--3--3-3-3-3--3--3--3-3-3--3--3--3-3-3-3--3--3--3-3-3--|
Bb|-3--3--3-3-3-3--3--3--3-3-3--3--3--3-3-3-3--3--3--3-3-3--| \
Gb|-0--0--0-0-0-0--0--0--0-0-0--2--2--2-2-2-2--2--2--2-2-2--|  \
Db|-0--0--0-0-0-0--0--0--0-0-0--0--0--0-0-0-0--0--0--0-0-0--|   \
Ab|-X--X--X-X-X-X--X--X--X-X-X--X--X--X-X-X-X--X--X--X-X-X--|    |
Eb|-3--3--3-3-3-3--3--3--3-3-3--1--1--1-1-1-1--1--1--1-1-1--|    |
                                                                 | x2
eb|-0--0--0-0-0-0--0--0--0-0-0--3--3--3-3-3-3--3--3--3-3-3--|    |
Bb|-0--0--0-0-0-0--0--0--0-0-0--3--3--3-3-3-3--3--3--3-3-3--|    |
Gb|-0--0--0-0-0-0--0--0--0-0-0--0--0--0-0-0-0--0--0--0-0-0--|   /
Db|-2--2--2-2-2-2--2--2--2-2-2--0--0--0-0-0-0--0--0--0-0-0--|  /
Ab|-3--3--3-3-3-3--3--3--3-3-3--X--X--X-X-X-X--X--X--X-X-X--| /
Eb|-3--3--3-3-3-3--3--3--3-3-3--3--3--3-3-3-3--3--3--3-3-3--|


Transitional bit:
eb|-------0-0---------0--0--------0-0--------0-0--0--0--0-0-0-0--0--0--0-0-0--|
Bb|-------6-6---------0--0--------0-0--------0-0--0--0--0-0-0-0--0--0--0-0-0--|
Gb|-------7-7---------9--9--------4-4--------2-2--0--0--0-0-0-0--0--0--0-0-0--|
Db|-------7-7--------10-10--------5-5--------3-3--2--2--2-2-2-2--2--2--2-2-2--|
Ab|-5--5--5-5--------10-10--------5-5--------3-3--3--3--3-3-3-3--3--3--3-3-3--|
Eb|------------8--8---8--8--3--3--3-3--1--1--1-1--3--3--3-3-3-3--3--3--3-3-3--|


Pre-verse:
Connan does this vocalisation;
I've tabbed it out for guitar:
eb|-3-----3-3------3---|
Bb|--------------------|
Gb|---0-0-----0-0----0-| x4
Db|--------------------|
Ab|--------------------|
Eb|--------------------|

The verse chords are played in the background of the vocalisation:
eb|-3--3--3-3-3-3--3--3--3-3-3--3--3--3-3-3-3--3--3--3-3-3--|
Bb|-3--3--3-3-3-3--3--3--3-3-3--3--3--3-3-3-3--3--3--3-3-3--|
Gb|-0--0--0-0-0-0--0--0--0-0-0--2--2--2-2-2-2--2--2--2-2-2--|
Db|-0--0--0-0-0-0--0--0--0-0-0--0--0--0-0-0-0--0--0--0-0-0--|
Ab|-X--X--X-X-X-X--X--X--X-X-X--X--X--X-X-X-X--X--X--X-X-X--|
Eb|-3--3--3-3-3-3--3--3--3-3-3--1--1--1-1-1-1--1--1--1-1-1--|

eb|-0--0--0-0-0-0--0--0--0-0-0--3--3--3-3-3-3--3--3--3-3-3--|
Bb|-0--0--0-0-0-0--0--0--0-0-0--3--3--3-3-3-3--3--3--3-3-3--|
Gb|-0--0--0-0-0-0--0--0--0-0-0--0--0--0-0-0-0--0--0--0-0-0--|
Db|-2--2--2-2-2-2--2--2--2-2-2--0--0--0-0-0-0--0--0--0-0-0--|
Ab|-3--3--3-3-3-3--3--3--3-3-3--X--X--X-X-X-X--X--X--X-X-X--|
Eb|-3--3--3-3-3-3--3--3--3-3-3--3--3--3-3-3-3--3--3--3-3-3--|


Verse:
"At three years old, the curly head, with teeth that grow before his hair,
A spotty nose, he love

Sweeter Than Fiction Chords – Taylor Swift

 I loved the clip so I tabbed the parts you can hear. I'll hopefully tab the rest later :)

tabbed from this: http://iloveudemi.tumblr.com/post/60837931027

So I tabbed this on a half step down tuned guitar and I think it sounds better 
that away; the chords for the 1/2 step down version are:
Capo 4th----> 1/2 step down
G   -------> C
D  --------> G
C ---------> F
A ---------> D
E ---------> A
F#m -------> Bm

Just click transpose "+5" if you want to play the 1/2 step down version :)


Capo on 4th

(...) 
 G      
Seen you fall, seen you crawl on your knees, eh-eh.   
 D     
Seen you lost in a crowd, seen your colors fade   
 C      
Wish I could make it better, someday you won’t remember   
 G                                              
This pain you thought would last forever and ever   
   
 A                        
There you’ll stand, 10 feet tall   
 E     
I will say, I knew it all along   
 D     
Your eyes, wider than distance   
 F#m E     
This love is sweeter than fiction   
   
(…)   
 G D     
The rain you thought would last forever and ever   
   
 A                        
There you’ll stand, 10 feet tall   
 E     
I will say, I knew it all along   
 D     
Your eyes, wider than distance   
 F#m E     
This love is sweeter than fiction   
 A     
There you stand, next to me   
 E     
All I (...)the rest is history   
 D     
Your eyes are brighter than kisses   
 F#m E     
This love is sweeter than fiction   
   
 A E D F#m E A F#m 
Now we won’t ever miss it, look at you now, look at you now, now   
 D      
I’ll be one of the many saying,   
 E     
You've made us proud, you’ve made us proud   
 A     
I’ll be one of the many saying   
 F#m    
Look at you now, look at you now, now   
 D     
I’ll be one of the many saying   
 E     
You’ve made us proud, you’ve made us proud   
 A F#m 
And when they cry your name and they put your picture in a frame   
                   D     
You’ll know that I’ll be there in time & again   
         E     
Cause I loved you then   
   
         A     
When you hit the ground, hit the ground, hit the ground, oh oh   
   E F#m    
(..) the sound of your hurt was low, now in this perfect weather   
                                 A 
It’s like we don’t remember the rain we thought would last forever and ever   
   
 A                        
There you’ll stand, 10 feet tall   
 E     
I will say, I knew it all along   
 D     
Your eyes, wider than distance   
 F#m E A     
This love is sweeter than fiction   
               E     
Sweeter than fiction   
             D F#m E     
Sweeter than, sweeter than, sweeter than fiction   

So Long Tabs by Donots

                              So Long - Donots
-------------------------------------------------------------------------------
Tabbed by: Dome16

Tuning:Half Step Down

Intro & Verse 

e|----------------------------------------------------------------------------|
B|----------------------------------------------------------------------------|
G|------5----5--------5----5---------5----5---------5----5--------------------|
D|------7p5--5--------7p5--5---------7p5--5---------7p5--5--------------------|
A|--0-------------8-----------------------------5-----------------------------|
E|-------------------------------8--------------------------------------------|


Chorus 

Am  ,  F  ,  C  ,  G

That Song Tabs by Big Wreck V3

 ================================================================
                       That Song - Big Wreck
================================================================
                    As recorded by Big Wreck
             (From the 1997 In Loving Memory Of...)

Words and Music by Big Wreck
Tabbed by Tanner Streeter

Tuning is in Drop D/Half Step. 

I saw the other tab on here wasn't quite right, so I decided
to make my own. The bass pretty much goes right along with
the guitars. You can figure out the order yourself, just listen.

Legend
b = Bend
~ = Vibrato
\ or / = Slide

Intro/Verse

Gb--11----11----11--11--11--14---14--14--13----13--13--11--|
Db---------------------------------------------------------|
Ab---------------------------------------------------------|
Db---------------------------------------------------------|

Gb--11----11----11--11--11/--14---14--14--13----13--13-----|
Db---------------------------------------------------------|
Ab---------------------------------------------------------|
Db---------------------------------------------------------|

Gb---------------------------------------------------------|
Db--11----11----12--11--11--14---14--14--12----12--12--11--|
Ab---------------------------------------------------------|
Db---------------------------------------------------------|

Gb---------------------------------------------------------|
Db--11----11----12--11--11--14---14--14--12----12--12--12--|
Ab---------------------------------------------------------|
Db---------------------------------------------------------|

Pre-Chorus:

Gb---------------------|
Db---------------------|
Ab---------------------|
Db--7--7--7--7--7--7---|

Chorus:

Gb---------------------------------------------------------------|
Db---------------------------------------------------------------|
Ab---------4b-------------4\-----0---0~-----0---0~---------------|
Db--0~------------0~-----------------------------------7--7--7---|
                                                                  
Gb------------------------------------------------------------------------------|
Db------------------------------------------------------------------------------|
Ab--------------------------------------4b--------------------------------------|
Db--0--4--5--0--2--4--0--0--2--0--0--0------0--4--5--0--2--4--0--0--2--0--0--0--|
                    
Gb--------------------------------|
Db--------------------------------|
Ab---4\-----0---0~------0---0~----|
Db--------------------------------|

Post-Chorus 

Gb-----------------------------------------------------|
Db-----------------------------------------------------|
Ab-----------------------------------------------------|
Db--4----2~~~-----4----0~~~-----4----7~~~-----4----2~~~|

Bridge:

Gb-----------------------------------------------------|
Db-----6---4-----6~-----4-------6---4-----6~-----4-----|
Ab-----------------------------------------------------|
Db--0---------0--------------0---------0------------0--|

Gb----------------------------------------------------|
Db---6---4-----6~-----4--------6---4-----6~-----4-----|
Ab----------------------------------------------------|
Db----------0---------------0---------0---------------|

Gb----------------------------------------------------------------------|
Db-----6--4-----6~----4------6--4-----6~----4-------6--4-----6~----4----|
Ab--0--------0------------0--------0-----------0----------0-------------|
Db----------------------------------------------------------------------|

Gb--------------------------|
Db-----6--4-----6~----4-----|
Ab--0--------0--------------|
Db-----------------------0--|

Chorus 2:

Gb----------------------------------------------------------------|
Db----------------------------------------------------------------|
Ab--------4b-------------4\-----0---0~~~------0---0~~~------------|
Db--0~~~--------

Jane Live Chords – Ben Folds

 ||||||| Ben Folds - Jane ||||||||

This is the version from Ben Folds Live but the song is 99% the same on the Ben 
Folds Five album TUBORM


this song is best played with a capo on the first fret, or just transposed down a half step. 
i'll give the original chords as if played with a capo so you can play along with the original.


 BbM7          X13231
Cm11 on  Bb    X15541
 DbM7          X46564
 AbM7          4X554X
 BM7           X24342
 EbM7          X68786
 Dm            X57765
 Cm            X35543
 Gm            355333
 Gm  on  F       155333
 Ab            4X654X
 G  #5         3X534X
 F#  6         2X434X
 Fsus4  7      1X3341

I suggest trying to use your thumb to play the notes on the low E for the two 
chords in the end of the chorus, the G #5, and the F# 6


Intro:
 BbM7    Cm11 on  Bb BbM7     Cm11 on  Bb    


Verse:
 BbM7 DbM7                          
Jane be jane       You're better that way 

 AbM7 BM7 BbM7               Cm11 on  Bb  
   Not when your trying     Imitating something you think you saw 

 BbM7 DbM7 
    Jane be jane      And if sometimes that might 

 AbM7 BM7 
    Drive them away     Let them stay there 

           BbM7 
You don't      need them anyway 


Chorus:
 EbM7 
   You're worried there might not be 

 Dm 
Anything at all inside

 Cm  
  That you're worried 

        Gm Gm  on  F 
Should tell you that's not right 

              Ab 
Don't try to see yourself 

     G  #5
The way that others do 

 F#  6            Fsus4  7
    It's no use 



Instrumental part follows the chords from the verse starting at the intro chords 
once then back to the...

Chorus:

then the outro verse:

 BbM7 
   But it's your life 

 DbM7 
    You can decorate it 

 AbM7 
    As you like 

 BM7 
    Beneath the pain and armour 

 BbM7 AbM7 
    In your eyes     the truth still shines 

          BbM7 
Jane be jane
 
 AbM7 BbM7 
    Jane be jane



Thanks to Ben Folds for another great song, always a joy and a challenge to 
transcribe his work.

The Prayer Of Franois Villon Molitva Chords – Regina Spektor

 Regina Spektor
What We Saw From The Cheap Seats (2012)
The Prayer of François Villon
(Cover of  Bulat Okudzhava - Molitva Fransua Viyona)

Easy to play having transposed these chords a half step down and with a capo on the 1st fret

 Fm Fmmaj7 Fm 
Poka zemlya yeshcho vertitsya, poka yeshcho yarok svet,
 Ab Eb Ab 
Gospodi, day zhe  ty kazhdomu chevo u nevo net.
 Fm Bbm Bdim C 
Umnomu day golovu, truslivomu day konya,
 Fm Bbm C Fm 
Day schastlivomu deneg i ne zabud' pro menya.

 Fm Fmmaj7 Fm 
Poka zemlya yeshcho vertitsya, gospodi, tvoya vlast',
 Ab Eb Ab 
Day rvushchemusya k vlast' navlastvovat'sya vlast'.
 Fm Bbm Bdim C 
Day peredyshku shchedromu hot' do ishoda dnya,
 Fm Bbm C Fm 
Kainu day raskayan'e i ne zabud' pro menya.
 Fm Bbm C Fm 
Kainu day raskayan'e i ne zabud' pro menya.

     Fm Fmmaj7 Fm 
Ya veryu, ty vso umeyesh', ya veryu v mudrost' tvayu,
      Ab Eb Ab 
Kak verit soldat ubityy, chto on prozhivaet v rayu.
      Fm Bbm Bdim C 
Kak verit kazhdoe uho tihim recham tvoim,
      Fm Am C Fm 
Kak veruyem i my sami, ne vedaya, chto tvorim.
      Fm Am C Fm 
Kak veruyem i my sami, ne vedaya, chto tvorim.

 Fm Fmmaj7 Fm 
Gospodi, moy bozhe, zelonoglazyy moy,
 Ab Eb Ab 
Poka Zemlya  eshcho vertitsya i eto yey stranno samoy.
 Fm Bbm Bdim C 
Poka eshcho hvataet vremeni i ognya,
 Fm Bbm C Fm 
Day zhe ty vsem ponemnogu i ne zabud' pro menya.
 Fm Bbm C Fm 
Day zhe ty vsem ponemnogu i ne zabud' pro menya.



For Russian lyrics: http://www.karaoke.ru/catalog/song/761/

For Okudzhava: http://www.youtube.com/watch?v=yCnlaBJRKcE

What Are We Gonna Do Tabs by Rise Against

 What Are We Gonna Do?
Rise Against
Tuning: Drop C# (= Drop D a half step down)

This is one of the new songs, Tim played at the Revival Tour.
I tabbed it by ear, so there may be some minor mistakes. If you have corrections, just 
post them in the comment section, I'll update the tab.


Note: The e string is muted most of the time. Just watch the video of the preformance 
several times to get a feeling for the timing and how the song is played.



Intro:

e|--x----------------------------|
B|--3---1------1---1-----1---3-3-|
G|--2---2-0-2--2---0-----0---0-0-|
D|--0---3------3---2-0-2-3---0-0-|
A|--0--------------3-----3---x-x-|
D|-0-------------------------5-5-|

e|--x----------------------------|
B|--3---1------1---1-----1---3-3-|
G|--2---2-0-2--2---0-----0---0-0-|
D|--0---3------3---2-0-2-3---0-0-|
A|--0--------------3-----3---x-x-|
D|-0-------------------------5-5-|


x2

Chorus1:

e|-xxxx----------------------------------|
B|-xxxx----3---1------1---1-----1---3-3--|
G|-xxxx----2---2-0-2--2---0-----0---0-0--|
D|-xxxx----0---3------3---2-0-2-3---0-0--|
A|-xxxx----0--------------3-----3---x-x--|
D|-xxxx----0------------------------5-5--|
 --What...do?...

e|-x--------------------------------|
B|-x--3---1------1---1-----1---3-3--|
G|-x--2---2-0-2--2---0-----0---0-0--|
D|-x--0---3------3---2-0-2-3---0-0--|
A|-x--0--------------3-----3---x-x--|
D|-x--0------------------------5-5--|

x2

e|-x-----------------00---------------|
B|-x--3---1------1---11---3-3-3-3---1-|
G|-x--2---2-0-2--2---22---0-0-0-0---0-|
D|-x--0---3------3---33---0-0-0-0---0-|
A|-x--0-------------------x-x-3-3---x-|
D|-x--0-------------------5-5-5-5---3-|


Verse1:

part1:
e|------------------------------|
B|-3---1---1--------------------|
G|-2---2---0---3---3------------|
D|-0---x---2---3---3------------|
A|-0---3---3---1---1------------|
D|-0---3------------------------|

e|--------------------|
B|-3---1---1---10-----|
G|-2---2---0---0------|
D|-0---x---2---x------|
A|-0---3---3---12-----|
D|-0---3--------------|


part2:
e|----------------5---5----------|
B|------------1---3---3-------1--|
G|--------3---0---0---0---3---0--|
D|--0-3-5-3---2---0---0---3---2--|
A|--0-3-5-1---3---x---x---1---3--|
D|--0-3-5---------5---5----------|



Interlude1:

e|-xxxxx----------------------|
B|-xxxxx-3-3-1-----3----------|
G|-xxxxx-2-2-0-2---0----------|
D|-xxxxx-0-0-x-----0----------|
A|-xxxxx-0-0-3-----x----------|
D|-xxxxx-0-0-3-----5----------|

Chorus2:


e|-xxxxx---------------------------------|
B|-33333---3---1------1---1-----1---3-3--|
G|-00000---2---2-0-2--2---0-----0---0-0--|
D|-00000---0---3------3---2-0-2-3---0-0--|
A|-xxxxx---0--------------3-----3---x-x--|
D|-55555---0------------------------5-5--|
 --What....do?...

e|-x--------------------------------|
B|-x--3---1------1---1-----1---3-3--|
G|-x--2---2-0-2--2---0-----0---0-0--|
D|-x--0---3------3---2-0-2-3---0-0--|
A|-x--0--------------3-----3---x-x--|
D|-x--0------------------------5-5--|

x2

e|-x-----------------00---------------|
B|-x--3---1------1---11---3-3-3-3---1-|
G|-x--2---2-0-2--2---22---0-0-0-0---0-|
D|-x--0---3------3---330--0-0-0-0---0-|
A|-x--0-------------------x-x-3-3---x-|
D|-x--0-------------------5-5-5-5---3-|


Verse2:


part1:
e|------------------------------|
B|-3---1---1--------------------|
G|-2---2---0---3---3------------|
D|-0---x---2---3---3------------|
A|-0---3---3---1---1------------|
D|-0---3------------------------|
   ...........                         (palm mute)

e|--------------------|
B|-3---1---1---10-----|
G|-2---2---0---0------|
D|-0---x---2---x------|
A|-0---3---3---12-----|
D|-0---3--------------|


part2:
e|----------------5---5----------|
B|------------1---3---3-------1--|
G|--------3---0---0---0---3---0--|
D|--0-3-5-3---2---0---0---3---2--|
A|--0-3-5-1---3---x---x---1---3--|
D|--0-3-5---------5---5----------|

More Than A Memory Chords – Lee Brice

 Lee Brice - More Than A Memory

Half step down
Eb
Ab
Db
Gb
Bb
Eb

 G  3x0033
 D  xx0232
 Bm  x24432
 Em  022000
 Cadd9  x32033
 G/B  x20033
 D/C#  x40232
 D/F#  200232

 G D 
People say she's only in my head
 Bm Em D/F# 
Gonna take time but I'll forget
 G D 
Say I need to get on with my life
 Cadd9 G/B 
What they don't realize

                 D 
Is when you're dialing 6 numbers just to hang up the phone
 D/C# 
Driving cross town just to see if she's home
 G/B 
Waking a friend in the dead of the night
 G 
just to hear him say it'll be alright
                 D 
When you're finding things to do not to fall asleep
           D/C# 
cause you Know she will be there in your dreams
 G/B 
that's when she's
 Em D 
more than a memory

 G D 
Took a match to everthing she ever wrote
 Bm Em D/F# 
watched every word go up in smoke
 G D 
tore all her pictures off the wall
 Cadd9 G/B           
that aint helping me at all

                    D            
Cause when you're talking out loud to nothing but air
     D/C# 
you look like hell and you just don't care
        G/B 
you're drinking more than you ever drank
      G 
and sinking down lower than you ever sank
          D 
then you find yourself falling on your knees
 D/C# 
shaking your fist, begging please
 G/B 
that's when she's
 Em D 
more than a memory


 Cadd9 G 
Yeaaaaaaaaaaaaaah
       D 
She's more
       Cadd9 G Asus4 A 
She's more


 G D 
People say she's only in my head
 Cadd9 G/B 
Gonna take time but I'll forget
                D 
but when she's in every minute of every day
        D/C# 
every thought i think every breath i take
          G/B G 
she's everywhere and she's everything
 
she's more than a memory

 D D/C# G/B D

Atlas Chords – Man Overboard V2

 Band: Man Overboard
Song: Atlas
Album: Man Overboard (2011)


Tuning: Half-Step Down

-----------------------------------------------------------------


 E 
I stare out of my window
 E 
And I look at my neighbors
 E 
And take notes on being normal
 E 
How to wave and be nice
 E 
Or talk to a child
 E 
Or offer a hand or actually smile


 A B E 
Maybe I'll learn how to talk to people
 A B E 
Maybe I'll learn how to laugh
 A B E 
Maybe I'll end up just like my dad 
          A B E 
But I just don't feel like a grown up yet


 E  -  E ,  A ,  B ,  E E 
I stare out of my window and I count the days
 E 
Cause my life's so fucking pointless
 E 
I could talk and be nice or light up a joint
 E 
Or go be a friend, but what is the point?


 A B E 
Maybe I'll learn how to talk to people
 A B E 
Maybe I'll learn how to laugh
 A B E 
Maybe I'll end up just like my dad 
          A B E 
But I just don't feel like a grown up yet 
          A B E 
But I just don't feel like a grown up yet
          A B E 
But I just don't feel like a grown up yet
          A B E 
But I just don't feel like a grown up yet

  E