Tag: Hammer

Nine Pound Hammer chords – Glen Campbell

 Nine Pound Hammer
Glen Campbell   
written by Merle Travis


Intro  F  

Verse 1

 F 
Well This nine pound hammer
                 Bb 
Is a little too heavy
        F C 
for my size 
              F 
honey for my size

Well This nine pound hammer
                 Bb 
Is a little too heavy
        F 
for my size 
 C F 
honey for my size

Verse 2

 F# 
Well It's a long way to Harlan
                    B 
It's a long way to Hazard
                      F# 
Just to get a little brew 
 C# F# 
yes to get a little brew

yes I'm going on the mountain
                 B 
gonna to see my baby
                    F# C# 
but I ain't coming back
                   F# 
No I ain't coming back

Verse 3

 G  
Well Roll on buddy
                C7 
Pull a load of coal
               G D 
but how can I pull
                       G 
When the wheels won't roll

I said roll on buddy
                   C7 
Don't you roll so slow
                 G D                               
Well, how can I roll 
                       G 
When the wheels won't go

riff  G C7 G D G C7 G D G 

Verse 4

 G# 
Well when I’m long gone
                 C#   
You can make my tombstone
                    G# D# 
Out of number nine coal
                    G# 
Out of number nine coal

I said when I’m long gone
                 C#   
You can make my tombstone
                    G# D# 
Out of number nine coal
                    G# 
Out of number nine coal

Verse 5

 E A 
Well Roll on buddy
                D 
Pull a load of coal
               A 
but how can I pull
 E A 
When the wheels won't roll
               
I said Roll on buddy 
                   D 
Don't you roll so slow
                A 
Well how can I pull
 E A 
When the wheels won't roll
 D A A7 
Roll on buddy

flyinglibra51
God Bless Glen Travis Campbell

Hammer chords – Marie Hines

 Hammer by Marie Hines Tab

Introduction:  D A D A E D A C#m D  (2 beats each)

(Verse)
 D A 
You never think your lover’s words could kill you
         D F#m 
And you can’t for see the blow that is your last
            D A 
But you’ve brought me to my knees with a blow that I believe
             C#m D 
Has somehow paralyzed my need for fighting back

   D A 
I can’t pretend that they don’t know your secret
       D F#m 
And I can’t pretend that I don’t know it too
       D A 
I can hear the people talking, I can feel their pity eyes
 C#m D 
Dare I say the fault is really mine
 C#m D 
Dare I say the fault is mine

(Chorus)
 D A 
I wish I could tell you
 D F#m 
I love you still
 D A 
I gave you the hammer
       C#m D 
But I didn’t know that you would strike to kill

Interlude:  D A D  AE      D A C#m D  (2 beats each)

(Verse)
        D A 
You’re quite as I stutter over questions
       D F#m 
Whose answers I don’t really want to know

         D 
Did you whisper that you loved her, 
           A 
Drop your kisses on her neck
     D F#m 
And with determination, down the wine

            D A 
There will always be another and another choice to make

         C#m D 
Another chance to justify your crime,
         C#m D 
Another chance to choose the crime

(Chorus)
 D A 
I wish I could tell you
 D F#m 
I love you still
 D A 
I gave you the hammer
       C#m D 
But I didn’t know that you would strike to kill
       C#m E 
But I didn’t think that you could kill

Interlude:  D A D A E D A C#m D D  (2 beats each)

(Chorus)
 D A 
I wish I could tell you
 D F#m 
I love you still
 D A 
I gave you the hammer
       C#m D 
But I didn’t know that you would strike to kill


(Chorus)
 D A 
I wish I could tell you
 D F#m 
I never will
 D A 
I gave you the hammer
       C#m D 
But I didn’t know that you would strike to kill
       C#m D 
But I didn’t think that you could kill


Tab Created by Frank Ulm fulm@ringwoodsc.vic.edu.au

YAY ☺

Down By The River O chords – Rev Hammer

 Down By The River O’ by Rev Hammer, featuring The Levellers as backing.
My first submission to UG. Quite a simple foot-stomping song to play. Hope you enjoy it! 
http://www.revhammer.com

Verse 1

 Dm 
Well we left the city and the fourteenth floor
         Am C Dm 
We went down by the river o Joe
 Dm 
Though then we never knew what we were travelling for
         Am C Dm 
We went down by the river o Joe
 Dm 
Thirty miles to a place that we had not seen
           Am C 
Where the land lies flat and the wind blows keen
            Dm 
It was the prettiest place I’ve ever been,
 Am C Dm 
Down by the river o Joe.

Verse 2

 Dm 
Well my dad got a job under the factory law
         Am C Dm 
We went down by the river o Joe
 Dm 
With a house for his kids and so much more
         Am C Dm 
We went down by the river o Joe
 Dm 
It was through the door, through the gate
           Am C 
There was me and my brother and a new-found mate
          Dm 
Under the mother-moon ‘till it got late,
           Am C Dm 
We stayed Down by the river o Joe.

Chorus
            Dm 
I said the River o’ the River o’ the River o’ Joe,
     Am C Dm 
The River ain’t never for sale,
        Dm 
I said I was born by the River o’ Joe,
         Am C Dm 
And the River ain’t a-never for sale,
          Dm 
Well you can make your deals in the dead of night
         Am C 
You can bribe who the bloody hell you like,
     Dm Am C Dm 
But I was born by the River o’ Joe and the river ain’t never for sale.

Verse 3
          Dm 
Now they say one time for a week it poured,
 Am C Dm 
Down by the River o’ Joe,
       Dm 
‘Till all you could hear was a pounding roar,
 Am C Dm 
Down by the River o’ Joe,
               Dm 
They tried to save the church with sand and bags,
          Am C 
But that River kept rising ‘till it burst it’s banks,
       Dm 
And a-pretty soon that street got sank,
 Am C Dm 
Down by the River o’ Joe.

Chorus
            Dm 
I said the River o’ the River o’ the River o’ Joe,
     Am C Dm 
The River ain’t never for sale,
        Dm 
I said I was born by the River o’ Joe,
         Am C Dm 
And the River ain’t a-never for sale,
          Dm 
Well you can make your deals in the dead of night
         Am C 
You can bribe who the bloody hell you like,
     Dm Am C Dm 
But I was born by the River o’ Joe and the river ain’t never for sale.

Verse 4
     Dm 
Now many warm days and good times there are,
 Am C Dm 
Down by the River o’ Joe
     Dm 
And people will travel from miles about to go
 Am C Dm 
Down by the River o’ Joe,
         Dm 
But the locals still speak of the endless rain,
     Am C 
The revenge of the muddy tides again,
           Dm 
To the developers who would bring change,
 Am C Dm 
Down by the river o’ Joe.

Chorus
            Dm 
I said the River o’ the River o’ the River o’

Ole Welsh Soul chords – Rev Hammer

 Ole Welsh Soul by Rev Hammer

 B5 B5 B5 B5 D 
We crossed the border ‘tween England and Wales,

With a modern load on ancient trails,
 Bm 
Stopping where the circus used to go,
         D 
Well we followed a map past Owen’s place,

And feasted on Vyrnwy’s misty grace,
         Bm 
Saying ‘oh god, bless the valley below’,
         D A 
We were shattered by the rivers edge,
         Bm A G 
In the cleavage of the dirt,
                   A 
Counting piles of golden leaves
         Bm A G 
For whatever it was, 
     Bm A G 
Whatever it was worth,
    Bm A G 
Ah that’ a place to go,
 G Bm A G 
Down on the old Dolgellau Road,
 G Bm A G 
Let it roll and a let it roll,
 G Bm 
Well I wanna feel, feel some o’ that ole,
              A G 
Some o’ that ole Welsh soul,
        G Bm 
Let it roll an’ a-let it roll.
       D 
Where water paints the mountain sides,

Gliding down in silver tides,
         Bm 
And reflecting many things we need to know,
    D 
We drank our drinks when Harlech drank,

We sang it’s song and left our thanks,
         Bm 
Saying ‘Oh god, bless the valley below’,
          D A 
Well I remember you as we drove into,
   Bm A G 
A town you knew as home,
           G A 
Where the land ate the machinery,
           Bm A G 
You could hear the engine,
           Bm A G 
You could hear the engine groan,  
    Bm A G 
Ah that’ a place to go,
 G Bm A G 
Down on the old Dolgellau Road,
 G Bm A G 
Let it roll and a let it roll,
 G Bm 
Well I wanna feel, feel some o’ that ole,
              A G 
Some o’ that ole Welsh soul,
        G Bm 
Let it roll an’ a-let it roll.
   Bm 
A breakfast at Dill’s Diner,
      Bm 
An a camera at Swallow Falls,
        Bm 
In the slate caverns of Blaenau Ffestiniog,
 Bm 
Climbing up Garth Bach, 
             D 
And looking back, looking back to Y Bryn,
     D 
The old farmhouse,
                    Bm 
Well I’m a-looking back,
            A G 
Toward the future, don’t you know?
        G Bm 
Let it roll and a let it roll.
      D               
Well out there in that mornin’ chill,
     D 
We flew our flag upon that hill,
         Bm 
Oh an’ somethin’ in the distance started to glow,
  D 
Above our heads three fighters flew,
         D 
And you looked at me and I looked at you,
         Bm 
Saying “Oh god, bless the valley below”,
        D A Bm A G 
Now if I may take you back upon the music of the road,
          G A 
You must close your eyes and ears my dear,
     Bm A G 
And move it in your,
    Bm A G 
Ah move it in your soul,
    Bm A G 
Ah that’ a place to go,
 G Bm A G 
Down on the old Dolgellau Road,
 <spa

Carol Tabs by Snorri Helgason

 ----------------------------------------------------------------
                             CAROL - Snorri Helgason
----------------------------------------------------------------
: Bowen Jones
 jonesb93

Tuning: Standard
CAPO V

e|-------5-------2------------0-----------0-------------|
B|--5/7----7\-3----3------------0-------0---------------|
G|--------------------------0---------------------------|
D|--0-------0---------0-0h2-------2---0-----------------|
A|------------------------------------------------------|
E|----------------------------------0-------------------|

e|-------5-------2------------0-------------------------|
B|--5/7----7\-3----3------------0--------0--------------|
G|--------------------------0-----------0---------------|
D|--0------0----------0-0h2-------2---------------------|
A|-----------------------------------------2-1----------|
E|----------------------------------0-------------------|

e|-------------------------------------3-------------------|
B|--2--------2-2--------2--------0h1p0---------------------|
G|----2----------2-------------0----------0----------------|
D|------2--2-------2--2-------2-------------0--------------|
A|--0----------0-------------------------------------------|
E|-------------------------0h3-----------------------------|

e|-------5-------2--------------------------------------|
B|--5/7----5\-3----3--------2--------2--------2----2----|
G|----------------------0h2---2--0h2---2--0h2---2-------|
D|--0-------0-------------------------------------------|
A|----------------------0--0-0-0-0--0-0-0-0--0-0-0-0----|
E|------------------------------------------------------|


************************************

| /   slide up
| \   slide down
| h   hammer-on
| p   pull-off
| ~   vibrato
| +   harmonic
| x   Mute note
| b   Bend
| pb  Pre-bend
| br  Bend release
| pbr Pre-bend release
| brb Bend release bend

************************************

How Might I Live Tabs by Real Estate

 Real Estate 
How Might I Live
Atlas

A nice little tune off their new album.  Words and music by Alex Bleeker.

/ = hammer on 
\ = pull off
Here's the intro riff (and the riff played throughout the song):

e|------------------------------------|-------------------------|
B|------------------------------------|-------------------------|
G|------------------------------------|-------------------------|
D|-9--7--5--2---0/2/5---2\0-----2\0---|-9--7--5--2---0/2---5--9-|
A|------------------------------------|-------------------------|
E|---------------------------3------3-|-------------------------|

e|----------------------------|--0--|-------------------------|
B|----------------------------|--0--|-------------------------|
G|----------------------------|--0--|-------------------------|
D|-9--7--5--2---0/2/5---2\0---|--2--|-9--7---5--7-5--7--5-7-9-|
A|----------------------------|--3--|-------------------------|
E|--------------------------3-|--0--|-------------------------|

(G and C are strummed throughout the intro and verse)

G           C              G    G           C               G
How might I live to betray you, how might I live to see the day?

G           C                  G             Cmaj7
How might I live to say you're not the one I love

C           D               G
How might I live to see the day?

That's basically it.  C and G are the chords strummed during the bridge.

Josies Song chords – William Fitzsimmons

 ----------------------------------
Josie´s Song - William Fitzsimmons
----------------------------------

:pink92panther
kevin.parmentier@ews-ac.de

Tuning:Standard
Capo: 4th
Chords:

   ( F )    Em    
e|--0----0----0-----------------------------------------------------------|
B|--1----0----0-----------------------------------------------------------|
G|--0----0----0-----------------------------------------------------------|
D|--2(h)-2----0-----------------------------------------------------------|
A|--3----2----0-----------------------------------------------------------|
E|--3----0----2-----------------------------------------------------------|

Lyrics:

MEASURE

Though I'm not the one who made
The body and the blood
I won't let you down
There's an elemental bond
In us that won't be found
But you're in my heart

I can hear the sound of rain
Falling through the floor
There's a quality of pain
For you she will endure
That measures out her

Love

When you wade in water wide
Without a map to steer
I will comfort you
When you find the other side
I will still be here
To measure out my love...


************************************

| /   slide up
| \   slide down
| h   hammer-on
| p   pull-off
| ~   vibrato
| +   harmonic
| x   Mute note
| b   Bend
| pb  Pre-bend
| br  Bend release
| pbr Pre-bend release
| brb Bend release bend

************************************

Serious Sam 3 – Battle Theme Temple Tabs by Misc Computer Games

 --Serious Sam 3: BFE Battle theme (Temple)--

Played in standard tuning (EADGBe)

|---------|
|---------|
|---------|
|-12\\\\\-|
|-12\\\\\-|
|-12\\\\\-|
Slide

{
|-----------------------| X3
|-----------------------|
|-----------------------|
|---------2---2-2---2-2-|
|---------2---2-2---2-2-|
|-0-0-0-0-0-0-0-0-0-0-0-|
  . . . .   .   . .  

|-----------------------|
|-----------------------|
|-----------------------|
|---------3---3-3---3-3-|
|---------3---3-3---3-3-|
|-1-1-1-1-1-1-1-1-1-1-1-|
  . . . .   .   . .  
}

Play above 8X


(Start this riff at 4X)

|--------------------------------------------------------------------------------------| X4
|--------------9-10-12h13-12h13-12~-12-13-15b16r15-12-10-12-13-12-10-12-12b13r12-10----|
|-9h10-9h10-9~----------------------------------------------------------------------10-|
|--------------------------------------------------------------------------------------|
|--------------------------------------------------------------------------------------|
|--------------------------------------------------------------------------------------|


|---|
|---|
|---|
|-2-|
|-2-|
|-0-|

leave to ring until end.

Writen by myself and a friend after the high riff was stuck in our heads after playing.
Inspired heavily by this guys cover (Blackluc):



Key:

Palm mute        .
hammer on        h
bend             b
slide            \

Bang Camaro Tabs by Bang Camaro V2

 -------------------------------------------------------------------------------
                                                Bang Camaro - Bang Camaro
-------------------------------------------------------------------------------
: Bear Crow    
 bear.crow
Twitter: TheBear_Crow
Tuning: Standard

Since the only thing they sing here is Bang Camaro I'll write down the time when some of the 
phrases start so you know what's going on. 
I used the youtube video http://www.youtube.com/watch?v=mFR92pRotWo to figure the song out.

************************************

| \   slide
| h   hammer-on
| p   pull-off
| ph  pinch harmonic
| b   Bend
| pb  Pre-bend
| br  Bend release

************************************

Intro
           PM..........     .............               ..
e|------------------------------------------------------------------------------|
B|------------------------------------------------------------------------------|
G|-9--7--9----------------------------------------------------------------------|
D|-9--7--9--2-0---------5---5-5-5-5-5-5-5---7--5--7--7--------------------|Play |
A|-7--5--7------3-2-0---5---5-5-5-5-5-5-5---7--5--7--7--0-2-3---2-3-5--3-5|2    |
E|--------------------3-3---3-3-3-3-3-3-3---5--3--5--5--------------------|Times|

e|---|
B|---|
G|-9-|
D|-9-|
A|-7-|
E|---|

                                    ph.....
e|------------------------------------------------------|
B|------------------------------------------------------|
G|-------------------------------------7----------------|
D|--2--2-4-5-4h5p4p2--------5-7-7/9-9----7-7b8rb7b8rb7--|
A|-------------------3--5/7-----------------------------|
E|------------------------------------------------------|
    
                                                         0:34
e|-------------------------------------------------------------------------|
B|-------------------------------------------------------------------------|
G|------------------------------11-12--11h12p11----------------12----------|
D|-------12----12/14-14---12/14-----------------14-10----12/14-------------|
A|-12/14----14-------------------------------------------------------------|
E|-------------------------------------------------------------------------|

e|-10-0-0-7-0-0-15-0-0-14-0-0-14-------------------------------------------|
B|-------------------------------------------------------------13-14-15----|
G|-------------------------------------12-14-16-14-12--12-14-16------------|
D|-----------------------------------16--------------16--------------------|
A|-------------------------------------------------------------------------|
E|-------------------------------------------------------------------------|
  
  0:40                                               slow bend
e|-----------------------------------------------------------------------------|
B|----------------------------------15---17---------17---------17--------------|
G|-7/9--11--12--14--16--16b17rb16-14--------19b21------19b21-----19-16-18-16---|
D|---------------------------------------------------------------------------19|
A|-----------------------------------------------------------------------------|
E|-----------------------------------------------------------------------------|

                               0:49                                 
e|------------------------------------------------------------------------------|
B|------------------------------------------------------------------------------|
G|-17---------------------------------------------------------------------------|
D|----19-19b20rb19-17-19-17------------------------------------------14p12-14p12|
A|-----------------------------------12-12p10---14--12p10--10---12/14-----------|
E|-----------------------------10/12----------12--12-----12---------------------|

e|----------------------12-----------12-----------12-14h15p14p12-14p1

Ho-hum Tabs by Pinback

 -------------------------------------------------------------------------------
                             Ho HUM - Pinback
-------------------------------------------------------------------------------
: Justin
sdjustinr

Tuning: drop D (D A D G B E)

Note: Not 100% (not even 80%) but this is how I play it and it sounds good to me  Enjoy.


"You need to fuckin' get down here!"


    |       |        |       |
e|--------------------------------------|
B|------3-------3----------------------.|
G|--------4-------3----0----------------|
D|----4-------3----------4---5p4---4----|
A|--2-------1--------------5-----5-----.|
E|-------------------0------------------|


   "It's a fact, I know it.."




     |     |     |     |
e|------------------------------|
B|------3-----2-----8-----8----.|
G|------4-----2-----9-----9-----|
D|------4-----4-----9--7--9-----|
A|---2-----0-----7-------------.|
D|------------------------------|

   "No one's gonna take the pair..."


      |       |       |       |
e|----------------------------------------|
B|----------------------------------------|
G|----------------------------------------|
D|--------0h7-----0h7-----0h7-------------|
A|------5-------5-------5-------5-4h5p4---|
E|----0-----------------------------------|



     |       |       |       |
e|------------------------------------|
B|---------------------------0-0-0---.|
G|---------------------------0-0-0----|
D|---4-4-4-4-4-5-9\7-4-4-4---4-4-4----|
A|---0-0-0-0-0-------2-2-2-----------.|
D|---0-0-0-0-0-------2-2-2---5-5-4----|


   "I want to breathe in blue"




************************************

| /   slide up
| \   slide down
| h   hammer-on
| p   pull-off
| ~   vibrato
| +   harmonic
| x   Mute note
| b   Bend
| pb  Pre-bend
| br  Bend release
| pbr Pre-bend release
| brb Bend release bend

**********************************

Douglas Seegers – Going Down To The River chords

 Douglas Seegers - Going down to the river

Featuring: Jill Johnsson, Magnus Carlson

Chords - Notice sometimes he plays a Am/G with Hammer on and bend.

Intro:   Am  | x2

Vers:    Am  |  Dm  |  Am  |  Dm  |
         Am  |  Dm  |  Am  |  F      | 
         E7    |  Am 

Bridge:  Dm |  Am  |  Dm  |   E7  |  Am 

Solo :  Som I Vers.

Ref :   |  F     |  E7    |  Am  x 3

Vers 1.

I'm going down to the river
To wash my soul again
I'm been runnin' with the devil 
And i know he's not my friend 

I've been falling by the ways
I'm living in this world of sin
I'm going down to the river
To wash my soul again

Vers 2

I’m going down to the country
To beg my head a queen
I'm gonna jump in those waters
Baptized both my feat

Because everywhere I’ve been walking
I'm been gettin' in trouble deep
I'm going down to the river
Gonna' wash my soul again

Bridge

Help! This old world is going to hell
If I don’t get any resurrection soon
I'm gonna end up in a casket, wooo huuuhooo

Solo - As in vers.

Vers 3
I'm going down to the river
To wash my soul again
I'm been runnin' with the devil 
And i know he's not my friend 

I've been falling by the ways
I'm living in this world of sin
I'm going down to the river
Gonna' wash my soul again

Ref.

I'm going down to the river
Gonna' wash my soul again
I'm going down to the river
Gonna' wash my soul again

One Hundred Years From Now Ill Be Crawling From My Tomb Tabs by Gas Up Yr Hearse

 -----------------------------------------------------------------------------
one Hundred Years From Now I'll Be Crawling From My Tomb - Gas Up Yr Hearse!
-------------------------------------------------------------------------------
: Gmemberkills
 Drop D

Tuning:

e|---------------------------------------------------------------------------|
B|---------------------------------------------------------------------------|
G|---------------------------------------------------------------------------|
D|0----1----5--0---------2--1-0-1--------------------------------------------|
A|0-ph-1-s--5--0---------2--1-0-1------x2------------------------------------|
D|0----1----5--0---------2--1-0-1--------------------------------------------|

e|---------------------------------------------------------------------------|
B|---------------------------------------------------------------------------|
G|---------------------------------9--8--7--9--------------------------------|
D|---2--1-0-1----------------------x--x--x--x--------------------------------|
A|---2--1-0-1----------------------7--6--5--7--------------------------------|
D|---2--1-0-1----------------------------------------------------------------|
Strum this fast, then break into

e|---------------------------------------------------------------------------|
B|--------4------------------------------------------------------------------|
G|--------7------------------------------------------------------------------|
D|--000----------------------------------------------------------------------|
A|pm000----------------------------------------------------------------------|
D|--000----------------------------------------------------------------------|

Then for the end use pretty much open pm chugs along with the 4 an 7 in rhythm to the song
************************************

| /   slide up
| \   slide down
| h   hammer-on
| p   pull-off
| ~   vibrato
| +   harmonic
| x   Mute note
| b   Bend
| pb  Pre-bend
| br  Bend release
| pbr Pre-bend release
| brb Bend release bend

Memories On A Deck Part 2 Tabs by Right Away Great Captain V2

 -------------------------------------------------------------------------------
                             MEMORIES ON A DECK, PT. 2 - Right Away, Great Captain!
-------------------------------------------------------------------------------

| h  Hammer-on

Capo = 4th Fret (Relative)

Verse
e|-------------------------|-------------------------|
B|-------------------------|-----0-----0-------------|
G|-----2-----2-----2-----2-|----2-----2------2-----2-|
D|----0-----0-----0-----0--|-0h2---0h2------0-----0--|  x2
A|-0h2---0h2---0h2---0h2---|-------------0h2---0h2---|
E|-------------------------|-------------------------|

Chorus
|------------------|-------------------------|
|------------------|-------------------------|
|----0---0---0---0-|-----2-----2-----2-----2-|
|--0---0---2---0---|----0-----0-----0-----0--|
|---2---2---2---2--|-0h2---0h2---0h2---0h2---|
|-3---3---0---3----|-------------------------|

                              1st Time Ending            2nd Time Ending
Verse 2
|-------------------------| |-------------------------| |------------------------|
|-------------------------| |-----0-----0-------------| |-----0-----0------------|
|-----2-----2-----2-----2-| |----2-----2------2-----2-| |----2-----2-------2---2-|
|----0-----0-----0-----0--| |-0h2---0h2------0-----0--| |-0h2---0h2---------0-0--|
|-0h2---0h2---0h2---0h2---| |-------------0h2---0h2---| |-------------0h2-2--2---|
|-------------------------| |-------------------------| |------------------------|

Chorus - x2
                              1st Time Ending            2nd Time Ending
Verse 3
|-------------------------| |-------------------------| |-------------------------|
|-------------------------| |-----0-----0-------------| |-----0-----0-------------|
|-----2-----2-----2-----2-| |----2-----2------2-----2-| |----2-----2------2-----0-|
|----0-----0-----0-----0--| |-0h2---0h2------0-----0--| |-0h2---0h2------0-----0--|
|-0h2---0h2---0h2---0h2---| |-------------0h2---0h2---| |-------------0h2---0h2---|
|-------------------------| |-------------------------| |-------------------------|

Chorus - x2

Outro.
|-------------------|
|------0-------0----|
|---------2---------|
|-0h2-2--0-0h2------|
|---------------2---|
|-------------------|

Well, I can see a white blouse hanging on a window sill, a naked body on the bed.
I can see a candle-burning, wax-dripping, Bible-burning
woman that I once called friend.

Don't you bleed out an apology, you'll always be a liar to me.

Well, I can see a black-faced woman with a baby saying
'maybe you should stay down here'.
I can see a shit-faced brother that I covered for
what must have been the last 10 years.

I could tell she wasn't lying, you were lying with a lion up there.
I could tell you that I saw you, but I couldn't make it up the stairs.

Well, I can see a heart-sized hole inside the ocean
where I'm pondering a midnight swim.
I can see a heart-sized hole inside the bottle
where I'm pondering a midnight swim.

I could tell you I was dying, but you wouldn't know for 3 more years.
I could tell you I was dying, but you wouldn't know for 3 more years.

Bella Tabs by Angus And Julia Stone V4

 -------------------------------------------------------------------------------
                             BELLA - Angus & Julia Stone
-------------------------------------------------------------------------------

| h  Hammer-on
| p  Pull-off

Capo = 1st Fret (Relative)

Intro.
e|----------------------------|-----------------------|----------------------------|
B|-0h2p0------3------0h2------|-0h2p0------3------0h2-|-0h2p0------3------0h2------|
G|-4----------4---------------|-4----------4----------|-4----------4---------------|
D|-2------2------2------------|-0------0------0-------|-2------2------2------------|
A|-0-------0------0-----------|-0-------0------0------|-0-------0------0-----------|
E|-0------------------------0-|-0---------------------|-0------------------------0-|

|-------------------------|
|-0h2p0------3------2-----|
|-4----------4------4-----|
|-0------0------0---------| 
|-0-------0------0--------|
|-0-----------------------|
  
|---------------|---------------|----------------|--------------|
|--2-------2----|--2-------2----|--2h3------3----|--2-------2---|
|------4--------|------4--------|-------4--------|------4-------|
|----2-------2--|----2-------2--|-----2-------2--|----2-------2-|
|--0-----0------|--0-----0------|--0------0------|--0-----0-----|
|---------------|---------------|----------------|--------------|

|--------------|---------------|---------------|--------------| |--0-----------|
|--2-------2---|--2h3------3---|--2--------2---|--0-------0---| |----------2---|
|------2-------|-------2-------|------2--------|------2-------| |------4-------|
|----0-------0-|-----0-------0-|----0--------0-|----0-------0-| |----2-------2-| x4
|--2-----2-----|--2------2-----|--2-----2------|--2-----2-----| |--0-----0-----|
|--------------|---------------|---------------|--------------| |--------------|

|--------------|---------------|---------------|--------------|
|--2-------2---|--2h3------3---|--2--------2---|--0-------0---|
|------2-------|-------2-------|------2--------|------2-------|
|----0-------0-|-----0-------0-|----0--------0-|----0-------0-|
|--2-----2-----|--2------2-----|--2-----2------|--2-----2-----|
|--------------|---------------|---------------|--------------|

Verse
|--------------|    |--------------|                    |--------------|
|--2-------2---|    |--2-------2---|                    |--2-------2---|    
|------4-------|    |------2-------|                    |------4-------|    
|----2-------2-| x4 |----0-------0-| x4     x3(All)     |----2-------2-| x4
|--0-----0-----|    |--2-----2-----|                    |--0-----0-----|    
|--------------|    |--------------|                    |--------------|

|--------------|--------------|---------------|--------------|  |--0-----------|
|--2-------2---|--2-------2---|--2h3------2---|--2-------2---|  |----------2---|
|------2-------|------2-------|-------2-------|------2-------|  |------4-------|
|----0-------0-|----0-------0-|-----0-------0-|----0-------0-|  |----2-------2-| x4
|--2-----2-----|--2-----2-----|--2------2-----|--2-----2-----|  |--0-----0-----|
|--------------|--------------|---------------|--------------|  |--------------|


Chorus
|---------------|---------------|----------------|-----------------|
|--0-------0----|--2-------2----|--3--------3----|--2--------2-----|
|------1--------|------2--------|-------2--------|------2----------|
|----2-------2--|----0-------0--|--0--0---0---0--|----2--------2---| x3
|---------------|---------------|----------------|--0------0-------|
|--0-----0------|--2-----2------|----------------|-----------------|



|---------------|---------------|----------------|  |--0-------------|
|--0-------0----|--2-------2----|--3--------3----|  |-----------3----|
|------1--------|------2--------|-------2--------|  |-------2--------|
|----2-------2--|----0-------0--|--0--0---0---0--|  |--0--0---0---0--| x5
|-------------

Marbles Tabs by John Mclaughlin

 -------------------------------------------------------------------------------
                Marbles (Main Guitar Lead with Bass line) - John McLaughlin
-------------------------------------------------------------------------------

Tunings: Both Standard E:    E-A-D-G-B-e    &    E-A-D-G 
                            (G u i t a r)  and  (B a s s)


Notes: Main Guitar Line only from 01:39 to 03:37
      (Bass Line included purely for orientation)


Opening Chords:
e|--0--|        e|-(0)-|        e|--0--|
B|--3--|        B|--2--|        B|--0--|
G|--6--|        G|--4--|        G|--2--|
D|--7--|        D|--5--|        D|--3--|
A|--7--|        A|--5--|        A|--4--|
E|--0--|        E|--0--|        E|--0--|


Tab Notation:
  /   slide up
  \   slide down
  h   hammer-on
  p   pull-off
  ~   vibrato
  B   Bend
  R   Release
  >   Accented Note
  .   Staccato


      ...(1 minute and 39 seconds into the song)...
Count:    1   e   &   a     2   e   &   a     3   e   &   a     4   e   &   a      
G   e||------------------|-----------------|-----------------|------------------|  \
u   B||------------------|-----------------|-----------------|------------------|   \
i   G||------------------|-----------------|-----------------|------------------|   |
t   D||------------------|-----------------|-----------------|------------------|   |
a   A||------------------|-----------------|-----------------|------------------|   |
r   E||---1---1----------|--1--(..slow..full..bend..and..release..)-------------|   |
                                                                                |   |
                                                                                |   |
B   G||------------------|-----------------|-----------------|------------------|   |
a   D||------------------|-----------------|-----------------|------------------|   | 
s   A||------------------|----------2------|-----------------|------------------|   |
s   E||---1-------2------|--4--------------|----------4------|--2-------1-------|   | 
                                                                                    |
                                                                                     > Bar No: 01.
                                                                                    |
Count:    1   e   &   a     2   e   &   a     3   e   &   a     4   e   &   a       |
G   e||------------------|-----------------|-----------------|------------------|   |
u   B||------------------|-----------------|-----------------|------------------|   |
i   G||------------------|-----------------|-----------------|------------------|   |
t   D||------------------|-----------------|-----------------|------------------|   |
a   A||------------------|-----------------|-----------------|------------------|   |
r   E||---1-h-2-------2--|--1-h-2-------2--|--1---1-------1--|--1---1-------1---|   |
                                                                                |   |
                                                                                |   |
B   G||------------------|-----------------|-----------------|------------------|   |
a   D||------------------|-----------------|-----------------|------------------|   |
s   A||------------------|----------2------|--4-------2------|------------------|   /
s   E||-----------2------|--4--------------|-----------------|--4-------2-------|  /




Count:    1   e   &   a     2   e   &   a     3   e   &   a     4   e   &   a      
G   e||------------------|-----------------|-----------------|------------------|  \
u   B||------------------|-----------------|-----------------|------------------|   \
i   G||------------------|-----------------|-----------------|------------------|   |
t   D||------------------|-----------------|-----------------|------------------|   |
a   A||------------------|-----------------|---------------

Dont Let Them See You Cry chords – Manchester Orchestra V3

 -------------------------------------------------------------------------------
                             DON'T LET THEM SEE YOU CRY - Manchester Orchestra
-------------------------------------------------------------------------------

| *  Hammer-on

Tuning: Eb (Standard)                                                   Capo = 1st Fret

Strumming Pattern - Play Root Then Strum

       C C/B Am * 
Don't let them see you cry
 C/B C C/B Am *
When the dam breaks down and the city is covered in water
 C/B C C/B Am *
'Cause I believe we fly
 C/B C C/B Am *
When the moon takes shape and I dose off, on your shoulders

 F Fm C  
I trust that you see it too
 C C/B Am *
Oh... oh oh.... woah oh 
 C C/B Am *
Oh... oh oh.... woah oh 


So breathe while you're alive
Let the big band play as you tap leather with your fingers
And I tried to write in style
But the words just come and I write them as soon as I see them

And I trust that you write them too
Oh... oh oh.... woah oh 
Oh... oh oh.... woah oh 

And I trust that you love me too

Between The Hammer And The Anvil Tabs by Judas Priest V3

 Tab: Between The Hammer & The Anvil - Judas Priest
 Painkiller (1990)
 notenoughcharac

Riff 1    Guitar 1 (0:00-0:33)                                x4
e|-------------------------------------------------------------|
B|-------------------------------------------------------------|
G|-------------------------------------------------------------|
D|-------------------------------------------------------------|
A|-7---------(7)\=4---------(4)/=10--------(10)\=4---------(4)/|
E|-5---------(5)\=2---------(2)/=8---------(8)-\=2---------(2)/|

Riff 1a    Guitar 2 (0:16-0:33)                                 x2
e|---------------------------------------------------------------|
B|---------------------------------------------------------------|
G|---------------------------------------------------------------|
D|---------------------------------------------------------------|
A|-10--------(10)\=7---------(7)/=13---------(13)\=7---------(7)/|
E|-8---------(8)-\=5---------(5)/=11---------(11)\=5---------(5)/|
NOTE: Don't slide the last note when playing Riff 1 and Riff 1a when
playing it for the last time.

Riff 2    Guitars 1, 2 (0:33-0:44)                   x2
e|----------------------------------------------------|
B|----------------------------------------------------|
G|----------------------------------------------------|
D|-----5-----5-----5-----5--4~-------5-----5---5--4--7|
A|-----7-----7-----7-----7--5~-------7-----7---7--5--5|
E|-0-0---0-0---0-0---0-0---------0-0---0-0---0--------|
   . .   . .   . .   . .         . .   . .   .

Guitar 3 (0:38-0:44)
e|------------------------------------|
B|------- <5>d-------------------------|
G|-x-5p0-<5>d--------/12~*-------(12)d|
D|------------------------------------|
A|------------------------------------|
E|------------------------------------|

Riff 3    Guitars 1, 2 (0:44-1:05)                         x4
e|----------------------------------------------------------|
B|----------------------------------------------------------|
G|----------------------------------------------------------|
D|-----5-----5-----5-----5--4~-------5-----5-----5-----5-/7~|
A|-----7-----7-----7-----7--5~---3-3-3-3-3-3-3-3-3-3-3-3-/5~|
E|-0-0---0-0---0-0---0-0------------------------------------|
    . .   . .   . .   . .         . .   . .   . .   . .

Guitar 3 (0:52-0:55)
e|-21-19----------------21-19-------------------------------|
B|-------19-21-19----19-------21-19-------------------------|
G|----------------21----------------21----------------------|
D|----------------------------------------------------------|
A|---------------------------------------------[10]b12r10~*-|
E|-------------------------------------12--10---------------|

Riff 3a    Guitars 1, 2 (1:06-1:10)
e|---------------------|
B|---------------------|
G|---------------------|
D|-5----------2---2---4|
A|-3----------0---0---2|
E|---------------------|

Riff 4    Guitars 1, 2 (1:12-1:17)
e|------------------------------------------------|
B|------------------------------------------------|
G|------------------------------------------------|
D|----9---8---5---4-----------9---8---5---4-------|
A|----7---6---3---2-----------7---6---3---2-------|
E|-0------------------3-2-0-------------------3-2-|
 |                    . .                     . . |
 |Riff 4a    Guitar 2               (1:12-1:17)   |
e|------------------------------------------------|
B|------------------------------------------------|
G|------------------------------------------------|
D|----9---8---5---4-----------12---11--8---7------|
A|----7---6---3---2-----------10---9---6---5------|
E|-0------------------3-2-0--------------------6-5|
                      . .                      . .

Riff 3    Guitar 1 (1:17-1:40)                                  x4
e|---------------------------------------------------------------|
B|-------------------------------------------------------

The Hammer Holds chords – Bebo Norman

 Capo 4
***this song is pretty much just a walking song***

Intro:  Dsus2 A (4)/ C# G6/B A7sus G5 A7sus4 A7 A7sus4 Asus7 Dsus2 A (4)/ C# G6/B A7sus G5 Dsus/F# A7 A7sus4 Asus7      

Verse 1:
 Dsus2 A (4)/ C# G6/B A7sus G5 A7sus4 A7 A7sus4 Asus7 
A shapeless piece of steel, that's all I claim to be
 Dsus2 A (4)/ C# G6/B A7sus G5 A7sus4 D5 D/A 
This hammer pounds to give me form, this flame, it melts my dreams
 Dsus2 A (4)/ C# G6/B A7sus G5 A7sus4 A7 A7sus4 Asus7 
I glow with fire and fury, as I'm twisted like a vine
 Dsus2 A (4)/ C# G6/B A7sus G5 A7sus4 D5 D/A 
My final shape, my final form I'm sure I'm bound to find

Chorus:
 Dsus2 A (4)/ C# G6/B A7sus G5 A7sus4 D5 D/A 
So dream a little, dream for me in hopes that I'll remain
 Dsus2 A (4)/ C# G6/B A7sus G5 Dsus/F# A7 A7sus4 Asus7      
And cry a little, cry for me so I can bear the flames
 Dsus2 A (4)/ C# G6/B A7sus G5 A7sus4 D5 D/A 
And hurt a little, hurt for me my future is untold
 Dsus2 A (4)/ C# G6/B A7sus G5 A7sus4 D5 D/A 
But my dreams are not the issue here, for they, the hammer holds

Verse 2:
 Dsus2  A(4)/C#   G6/B A7sus G5 A7sus4 A7 A7sus4  Asus7
And the water, it cools me gray, and the hurt's subdued somehow
 Dsus2  A(4)/C#   G6/B A7sus G5 A7sus4 D5 D/A 
I have my shape, this sharpened point, what is my purpose now?
 Dsus2  A(4)/C#   G6/B A7sus G5 A7sus4 A7 A7sus4  Asus7
And the question still remains, what am I to be?
 Dsus2  A(4)/C#   G6/B A7sus G5 A7sus4 D5 D/A 
Perhaps some perfect piece of art displayed for all to see

Chorus:
 Dsus2  A(4)/C#   G6/B A7sus G5 A7sus4 D5 D/A 
So dream a little, dream for me in hopes that I'll remain
 Dsus2  A(4)/C#   G6/B A7sus G5 Dsus/F# A7 A7sus4  Asus7     
And cry a little, cry for me so I can bear the flames
 Dsus2  A(4)/C#   G6/B A7sus G5 A7sus4 D5 D/A 
And hurt a little, hurt for me my future is untold
 Dsus2  A(4)/C#   G6/B A7sus G5 A7sus4 D5 D/A 
But my dreams are not the issue here, for they, the hammer holds

Verse 3:
 Dsus2  A(

Sometimes Youre The Hammer Sometimes Youre The Nail Tabs by A Day To Remember

 SONG: Sometimes you're the hammer, sometimes you're the nail
 A Day To Remember
 Common Courtesy

NOTE: This is one of my first tabs which made tabbing the parts a
little difficult at times. And I was also a little biased with
guitar 1. I didn't spend a lot of time tabbing out guitar 2 but
 you can clearly hear the rhythm of it. Also, this is not a great
tab, but I love this song and really wanted to play it. I also
wouldn't mind somebody to building off this and maybe producing
a more accurate tablature.

Enjoy!


TUNING:
Guitar 1 Drop C (CGCFAD)
Guitar 2 Drop C (CGCFAD)

                           INTRO

Guitar 1 (0:02-0:12)
 --------------------------------------------------------------------|
 --------------------------------------------------------------------|
 --------------------------------------------------------------------|
 --7-7-7-7-7-7-7-7-7-7-7-7-7-7-7-7-3-3-3-3-3-3-3-3-5-5-5-5-5-5-5-5---|  x2
 --5-5-5-5-5-5-5-5-5-5-5-5-5-5-5-5-1-1-1-1-1-1-1-1-3-3-3-3-3-3-3-3---|
 --------------------------------------------------------------------|
PM * * * * * * * * * * * * * * * * * * * * * * * * * * * * * * * *

Guitar 2 (0:02-0:12)
 --------------------------------5-------------------------------5---|
 ------6---5h6---------6---5h6---------6---5h6---------6---5h6-------|
 --7-7---7-----7-7-7-7---7-----7---7-7---7-----7-7-7-7---7-----7-----|
 --------------------------------------------------------------------|  x2
 --------------------------------------------------------------------|
 --------------------------------------------------------------------|
PM * *   *     * * * *   *     *   * *   *     * * * *   *     *

"I Got It!"

Guitar 1 & 2 (0:13-0:25)
 --------------------------------------------------------------------|
 --------------------------------------------------------------------|
 --7-7-7-7-7-7-7-7-7-7-7-7-7-7-7-7-7-3-3-3-3-3-3-3-3---------5-5-5-5-|
 --7-7-7-7-7-7-7-7-7-7-7-7-7-7-7-7-7-3-3-3-3-3-3-3-3-3-3-3-3-5-5-5-5-|
 --5-5-5-5-5-5-5-5-5-5-5-5-5-5-5-5-5-1-1-1-1-1-1-1-1-3-3-3-3-3-3-3-3-|
 ----------------------------------------------------3-3-3-3---------|

 --------------------------------------------------------------------|
 --------------------------------------------------------------------|
 --7-7-7-7-7-7-7-7-7-7-7-7-7-7-7-7-7-3-3-3-3-3-3-3-3-5-5-5-5-6-6-6-6-|
 --7-7-7-7-7-7-7-7-7-7-7-7-7-7-7-7-7-3-3-3-3-3-3-3-3-5-5-5-5-6-6-6-6-|
 --5-5-5-5-5-5-5-5-5-5-5-5-5-5-5-5-5-1-1-1-1-1-1-1-1-3-3-3-3-4-4-4-4-|
 --------------------------------------------------------------------|


                           PRE-VERSE

Guitar 1 (0:26-0:28)
 ------------------------------|
 ------------------------------|
 ------------------------------|   "GO!"
 ------------------------------|
 --000-000-000-0-000-000-0-000-|
 --000-000-000-0-000-000-0-000-|
PM *** *** *** * *** *** * ***

Guitar 1 & 2 (0:29-0:40) (You can hear the Rhythm of it easily)
 ----------------------------------------------------------------------|
 ----------------------------------------------------------------------|
 -------------------------------------------------------------------5*-|
 -------------------------------------------------------------------5*-|
 --000-000-000-0-000-000-0-000-00000000-000-000-000-0-000-000-0-000----|
 --000-000-000-0-000-000-0-000-00000000-000-000-000-0-000-000-0-000----|
PM *** *** *** * *** *** * *** ******** *** *** *** * *** *** * ***

 ------------------------------------------------------------------------|
 ------------------------------------------------------------------------|
 ------------------------------------------------------------------------|
 -------------------------------------------------------------------10\\-|
 --000-000-000-0-000-000-0-000-00000000-000-000-000-0-000-000-0-000-10\\-|
 --000-000-000-0-000-000-0-000-00000000-000-000-000-0-000-000-0-000-10\\-|
PM *** *** *** * *** *** * *** ******

The Hand That Rocks The Cradle Tabs by Smiths V3

 -------------------------------------------------------------------------------
THE HAND THAT ROCKS THE CRADLE (TROY TATE VERSION) - The Smiths
-------------------------------------------------------------------------------
: OrangeTrousers

Tuning: Standard, with capo on 2nd fret

The Song; http://www.youtube.com/watch?v=6TlWCbvPiDk

The Chords: G6, Cadd9, Dsus2


e|-----------------|-----------------|
B|-3-3-x-3---3-----|-----1p0-----0h1-|
G|-0-0-x-0---0-4p0-|---0-----2-------|
D|-0-0-x-0---0-----|---------0-0-----|
A|-----------------|-3---------------|
E|-----------------|-----------------|

e|-----------------|-----------------|
B|-3-3-x-3---3-----|-----1-----3-0---|
G|-0-0-x-0---0-4p0-|-----0-----0-----|
D|-0-0-x-0---0-----|---2-------------|
A|-----------------|-3-------5-------|
E|-----------------|-----------------|


************************************

| /   slide up
| \   slide down
| h   hammer-on
| p   pull-off
| ~   vibrato
| +   harmonic
| x   Mute note
| b   Bend
| pb  Pre-bend
| br  Bend release
| pbr Pre-bend release
| brb Bend release bend

************************************