Tag: hannah

Believe chords – Hannah Trigwell

 Capo on 4

Chords
D* - 004230
 D  - 000232
 A  - 002220
A* - 004220
 Em  - 022000
 G  - 320003
 Bm  - 024432

Intro

      D*              A Em            
E---|-------------|-------------|--0----------|
B---|--3----------|--2----------|------0------|
D---|------2------|------2------|----0--------|
G---|----4--------|----2--------|-------------|
A---|--0----------|--0----------|--2----------|
E---|-------------|-------------|-------------|


      D*             A            A*                         
E---|-------------|-------------|-------------|
B---|--3----------|--2----------|--2----------|
D---|------2------|------2------|------2------|
G---|----4--------|----2--------|----4--------|
A---|--0----------|--0----------|--0----------|
E---|-------------|-------------|-------------|
     No matter how hard I try


       A*  
E---|-------------|
B---|--2----------|
D---|----2--------|
G---|------4------|
A---|--0----------|
E---|-------------|
     You keep pushing me aside


        G G 
E---|--3----------|--3----------|
B---|------0------|-----0-------|
D---|----0--------|-------0-----|
G---|-------------|-------------|
A---|-------------|-------------|
E---|--3----------|--3----------|
     And I can't break through


        A   
E---|-------------|
B---|--2----------|
D---|----2--------|
G---|------2------|
A---|--0----------|
E---|-------------|
     There's no talking to you


      D*             D*                                   
E---|-------------|-------------|
B---|-----3-3-----|-----3-3-----|
D---|-----2-2-----|-----2-2-----|
G---|-----4-4-----|-----4-4-----|
A---|--0----------|--0----------|
E---|-------------|-------------|
It's so sad that you're leaving


      A*              A*           
E---|-------------|-------------|
B---|-----2-2-----|-----2-2-----|
D---|-----2-2-----|-----2-2-----|
G---|-----4-4-----|-----4-4-----|
A---|--0----------|--0----------|
E---|-------------|-------------|
It takes time to believe it


        G G 
E---|-----3-3-----|-----3-3-----|
B---|-----0-0-----|-----0-0-----|
D---|-----0-0-----|-----0-0-----|
G---|-------------|-------------|
A---|-------------|-------------|
E---|--3----------|--3----------|
     But after all is said and done

        A 
E---|--0----------|
B---|--2----------|
D---|--2----------|
G---|--2----------|
A---|--0----------|
E---|-------------|
           You're gonna be the lonely one


 D A Em G 
Do you believe in life after love

        D A 
I can feel something inside me say

   Em G 
I really don't think you're strong enough


Verse:
 D A 
    What am I supposed to do


Sit around and wait for you

        G 
Well I can't do that

             A 
And there's no turning back

        D 
I need time to move on

       A*
I need love to feel strong

 G A 
See I've had time to think it through

                                     
And maybe I'm too good for you Ohhh


Chorus:
 D A Em G 
Do you believe in life after love

         D A 
I can feel something inside me say

    Em G D 
I really don't think you're strong enough

           A Em G 
Do you believe in life after love

         D A 
I can feel something inside me say

    Em G Bm 
I really don't think you're strong enough


Bridge:
        Bm A A Bm 
Well I know I'll get through this, yeah yeah

       Bm A 
And I know I am strong

 

Captive Heart chords – Hannah Cyr

 Verse 1: 

  D 
you make my mind go wild
              A 
butterflies fly around in my chest 
    Bm G 
I wish you knew the effect you have on me 
              A  
I'm losing nights of rest


Chorus: 
    D 
I wish we didn't have to hide
      A 
our feelings that burn so strong
  Bm 
around you I feel so right
      G 
but everyone else thinks it's wrong

       G A Bm  
the things we do to see
    G A Bm 
A few mere seconds of your smile or me
  G A Bm G 
I'd do anything to not have to hide
                 A 
the way that I feel inside


Verse 2: 

      D  
the inside jokes we make
             A  
the secret memories that we share
      Bm 
it's in those small, fun moments 
         G  
that I know there's something there


Chorus:

    D 
I wish we didn't have to hide
      A 
our feelings that burn so strong
  Bm  
around you I feel so right
      G 
but everyone else thinks it's wrong

       G A Bm  
the things we do to see
    G A Bm 
A few mere seconds of your smile or me
  G A Bm G 
I'd do anything to not have to hide
                 A 
the way that I feel inside


Verse 3: 


You're the only one 

who understands 

you don't want me to change


I don't have to fake 

or try to impress

you accept me the way I am


Chorus: 

    D 
I wish we didn't have to hide
      A 
our feelings that burn so strong
  Bm  
around you I feel so right
      G 
but everyone else thinks it's wrong

       G A Bm  
the things we do to see
    G A Bm 
A few mere seconds of your smile or me
  G A Bm G 
I'd do anything to not have to hide
                 A 
the way that I feel inside


Bridge: 

  D 
and I know that it's you
  A 
there's no one else it could be
      D 
the way you make me feel
         A 
you've set my captive heart free

         D 
around you I can be just me
    A 
I want you to do the same 
      Bm 
you make me feel comfortable, 

happy, loved, 
  G 
how could I ever repay


Chorus: 

    D 
I wish we didn't have to hide
      A 
our feelings that burn so strong
  Bm  
around you I feel so right
      G 
but everyone else thinks it's wrong

       G A Bm  
the things we do to see
    G A Bm 
A few mere seconds of your smile or me
  G A Bm G 
I'd do anything to not have to hide
                 A 
the way that I feel inside


Verse 1 (reprise): 

    Bm G 
I wish you knew the effect you have on me 
              A  
I'm losing nights of rest


Hannah Hold On chords – Get Up Kids

 The Get Up Kids
Hannah Hold On
On A Wire
2002 Vagrant Records
Submitted by: jeremyunderground41

Key:  E 

Tuning: Standard EADGBe

Chords used:
 E  -    022100
 B  -    x24442
 C#m  -  x46654
 A  -    x02220
 F#m  -  244222
 E/G#  - 476xxx
 B/Eb  - x698xx
 A/C#  - x476xx


Intro:  E - A - E/G# - A - x2


Verse 1:
 E B 
I never asked 
      E/G# A 
to be    sorry
         A 
If it's over it's 
 F#m E 
over for sure
 E B 
I don't regret that
   E/G# A 
I didn't want to
   A 
Remember what
 F#m E 
all this was for


Refrain 1:
 A E/G# C#m E 
  So this is all we can do
 A E/G# C#m E 
  What news is in store
 A E/G# E B/Eb A/C# B 
  How come starting o------ver

Would be frowned on anymore


Chorus 1:
 E C#m E/G# A B 
  Hannah hold on
 E C#m E/G# A B 
  Hannah hold on
 E C#m E/G# 
  It's all been said
      A A B 
It's all been done


Verse 2:
 E B 
I never witnessed
 E/G# A 
bitter like this
   A 
I think i've been
 F#m E 
shot in cold blood
 E B 
You won't admit it
       E/G# 
and I won't be
  A A 
around Just so I
 F#m E 
hear the applause


Refrain 2:
 A E/G# 
  This isn't
 C#m E 
all we can do
 A E/G# 
  When in doubt
             C#m E 
should move on
 A E/G# 
  No need to
 E B/Eb C#m B 
sort it all  out
 F#m 
   By the time you
                       B 
read this i'll be gone


Chorus 2:
 E C#m E/G# A B 
  Hannah hold on
 E C#m E/G# A B 
  Hannah hold on
 E C#m E/G# 
  It's all been said
      A B 
It's all been done
            A 
You Hang on
            B 
You Hang on
            A 
You Hang on


Bridge:
 F#m E/G# A B 
    You  only 
 C#m B/Eb E 
dis-ap---point
     F#m E/G# 
the ones who
 A B C#m B/Eb E 
don't believe
 E/G# A B C#m 
     You only 
 A B C#m 
disappoint
 B/Eb B C#m 
the  ones who
 B/Eb B 
don't believe


Chorus 3:
 E C#m E/G# B 
  Hannah hold on
 E C#m E/G# B 
  Hannah hold on
 E C#m E/G# B 
  Hannah hold on
E    C#m      E/G# B E-- x2
  Hannah hold on


Outro:
 E B 
I never asked 
      <

Shortie chords – Hannah Georgas V2

 -------------------------------------------------------------------------------
                            SHORTIE - Hannah Georgas
-------------------------------------------------------------------------------
: Pat Malavi
pat.malavi

Capo: 4th fret


Verse 1

        C 
Got my hair did right
        Am G 
Got my ladies coming for back up
          C 
Yeah the mood feels nice
         Am G 
I think tonight's the night it's gonna happen
           F 
I'm not a player, not a hater
          G Am 
I'm your lover and I want your lovin'
            F 
So shortie back up baby
      G Am 
He's mine and I want his lovin'


Chorus

           F 
I'm gonna dance dance dance
           G 
I'm gonna dance dance dance
           Am 
Until the cops come
        F 
Yeah I got my sole plan
           G 
I'm gonna get some romance
           Am 
I'm gonna get some


Verse 2

           C 
I see you lookin' hella fine
              Am G 
I wish you'd come over and tell me that you want this
          C       
Don't be wasting no time 
          Am G 
Yeah you know I'll be your boo, I'd be your Mrs
           F 
I'm not a player, not a hater
          G Am 
I'm your lover and I want your lovin'
            F 
So shortie back up baby
      G Am 
He's mine and I want his lovin'


Chorus

           F 
I'm gonna dance dance dance
           G 
I'm gonna dance dance dance
           Am 
Until the cops come
        F 
Yeah I got my sole plan
           G 
I'm gonna get some romance
           Am 
I'm gonna get some


           F 
Don't you tell me nothin' else
       G Am 
Cause nothin' else matters, just tonight
           F 
Don't you tell me nothin' else
       G Am 
Cause nothin' else matters, just tonight


Bridge

e|---------------------------------------------------------------------------|
B|---3---3---5---5-3--3-3---5---5--------------------------------------------|
G|---------------------------------------------------------------------------|
D|---------------------------------------------------------------------------|
A|---------------------------------------------------------------------------|
E|---------------------------------------------------------------------------|

Just tonight, just tonight

         F G Am 
I wanna dance dance, dance dance, dance dance
           F G Am 
I'm gonna dance dance, dance dance, dance dance


Chorus

         F 
I wanna dance dance dance
           G 
I'm gonna dance dance dance
           Am 
Until the cops come
        F 
Yeah I got my sole plan
           G 
I'm gonna get some romance
           Am 
I'm gonna get some


           F 
Don't you tell me nothin' else
       G Am 
Cause nothin' else matters, just tonight
           F 
Don't you tell me nothin' else
       G Am 
Cause nothin' else matters, just tonight


Outro

        F G Am 
Just tonight 
        F G Am 
Just tonight
        F G Am 
Just tonight 
        F G 

Lifes What You Make It solo Tabs by Hannah Montana

 This is how I think it sounds like. 
It's my first tab and I hope it's successful.


e---------------------|---------------------|
B--12--10--8--13--12--|--10--12--8--12--10--|
G---------------------|---------------------|
D---------------------|---------------------|
A---------------------|---------------------|
E---------------------|---------------------|