Tag: harvest

Harvest Moon chords – Neil Young V4

 Intro Riff    D Bm/D Dmaj7    (4)

 Em7 D 
   Come a little bit closer, hear what I have to say
 Em7 D 
   Just like children sleepin’, we could dream this night away
 G D Bm/D Dmaj7  (2)
   But there’s a full moon risin’, let’s go dancin’ in the light
 G D Bm/D Dmaj7  (2)
   We know where the music’s playin’, let’s go out and feel the night

 A7sus4 A7 
   Because I’m still in love with you, I want to see you dance again
 A7sus4 A7 D Bm/D Dmaj7  (4)
   Because I’m still in love with you, on this harvest moon

 Em7 D 
   When we were strangers, I watched you from afar
 Em7 D 
   When we were lovers, I loved you with all my heart
 G D Bm/D Dmaj7  (2)
   But now it’s gettin’ late and the moon is climbin’ high
 G D Bm/D Dmaj7  (2)
   I want to celebrate, see it shinin’ in your eye

 A7sus4 A7 
   Because I’m still in love with you, I want to see you dance again
 A7sus4 A7 D Bm/D Dmaj7  (4)
   Because I’m still in love with you, on this harvest moon

[SOLO]

 Em7 D Em7 D G D Bm/D Dmaj7  (2)
 G D Bm/D Dmaj7  (2)

 A7sus4 A7 
   Because I’m still in love with you, I want to see you dance again
 A7sus4 A7 D Bm/D Dmaj7  (4)    D 
   Because I’m still in love with you, on this harvest moon


CHORDS

D      0  0  0  7  7  5
Bm/D   0  0  0  7  7  7
Dmaj7  0  0  0  11 10 9
Em7    2  2  0  0  0  0
G      5  x  0  0  0  3
A7sus4 x  0  2  0  3  0
A7     x  0  2  0  2  0

During the first two lines of each verse, the Riff can be played around the D chord:

D      0  0  0  2  3  2
Bm/D   0  0  0  4  3  2
Dmaj7  0  0  0  2  2  2

Harmonics

Em7    x  7  x  12 12 12

Bitter Harvest chords – Arena

                                           Artist - Arena
                                         ****************
                                      Song - Bitter Harvest 
                                     ***********************
                                        Album - Contagion  
                                       *******************
                                        - Ayreon77
                                      **********************





VERSE 1 - PIANO & ORGAN CHORDS
********
 Am B 
  We've sown the seeds now
       Am B 
Don't know where they may fall
 Am B        
  Just lonely ghost towns
       Am B 
Empty churches, empty town halls
 Am B 
We've traveled far now
     Am B C#m 
And so into the wilderness we crawl

------------------------------------------------------------------
00:23
SECTION 1
**********
I Guess he does the heavy chords, as well as the notes, it sure fills it in

  C#m Ab Eb Ab A A Ab F# Ab 
[------------------------------]
[------------------------------]
[------------------------------]
[------------------------------]
[-4-------6--------------------]
[-----4-------4--5--5--4--2--4-]X2

-------------------------------------------
00:39
VERSE 2
******** 
     Am B 
I'm floating through the debris
    Am B 
Of reference books and catalogs
 Am B 
Climbing over sun baked bones
    Am B 
Of Kings and Queens and Demigods

-------------------------------------------
00:54
CHORUS
********
 Play This With The Chorus Below...
  E 
[------------------7-|-7--------7----------------]
[-------10-----------|--------------p----p----p--]
[-----9----------9---|--------8----9-8--9-8--9-8-]
[---9----------9-----|------9--------------------]
[-7----------7-------|---------------------------]
[--------------------|----7----------------------]X2

 E 
You can take away my crown
                                  B 
But you'll never bring my spirit down

I won't give in 
 E 
Try to push me off the rope
                                   B 
I will float down on the wings of hope 

I won't give in 

-------------------------------------------
01:25
VERSE 3
********
   Am B 
I wander through the dead lands
    Am B 
Computer chips and stereos
 Am B 
Powerless technology
    Am B 
Instruction books and videos

-------------------------------------------
01:41
CHORUS
********
-------------------------------------------
                    on the last one do this
                  G[----------6-]  
02:12             D[----------6-] 
PLAY SECTION 1 X4 A[----------4-]    
***************   E[-5-4-2--0-0-]

 C#m Ab Eb Ab A A Ab F# Ab         
     Time may fly - And I will search the world for you
 C#m Ab Eb Ab A A Ab F# Ab 
     Rainbow skies - And I will cross the seven seas for you
 C#m Ab Eb Ab A A Ab F# Ab 
     Race on by - And I will find my way to you
 C#m Ab Eb Ab A A Ab F# <sp

Wash Me Lord – Harvest chords

 Wash Me Lord - Harvest

 Em Am7 D7 Em Am7 Dsus D G C C  -  G/B 
I thought I was so clever thought I was so wise
        Am D G D 
Surely you could never see inside this darkness
   G Bm Em 
I thought that I had fooled you, now I see I was the fool
               A7 Am7 D7 
Thinking that I could hide this darkness in my heart
    G D/F# Em C 
So wash me Lord in Your presence
 G A7 Am7 D 
Wash me make me clean
           C D G D/F# Em 
There’s a stain in my heart that only You can see
 Am7 D7 Em Am7 D7 
Wash me, make me clean
   G C C  -  G/B 
I brought You sacrifices, my silver and my gold
       Am D7 G D 
In my selfishness I tried to buy Your pleasure
          G Bm Em 
But Your holiness requires, the off’ring You desire
           A7 Am7 D7 
Is that I bring to You a broken humble heart
    G D/F# Em C 
So break me Lord in Your presence
 G A7 Am7 D7 
Break me set me free
          C D G D/F# Em 
There’s a stain in my heart that only You can see

 Am7 D Am7 D7 G D/F# Em C 
So wash me Lord in Your presence
 G A7 Am7 D 
Wash me make me clean
          C D G D/F# Em 
There’s a stain in my heart that only You can see
 Am7 D7                
Wash me, make me clean
 C G/B Am7 D7 G

Harvest Moon chords – Neil Young V3

                         Harvest Moon    Neil Young

Low E is tuned down to D.   based on Harvest Moon unplugged version.

intro  x4
         D D/B Dmaj7
e -----------------09-09-09--09-09-09----|
B ------10---12----10-10-10--10-10-10----|
G ------11---11----11-11-11--11-11-11----|
D ------12---12--------------------------|
A ---------------------------------------|
D --0---------------0--------------------|
     B B


harmonics part  (can be done with Em/F#)

e------h12-----------------|
B----------h12-------------|
G--------------h12---------|
D----------------h12-------|
A------------------h07-----|
D--------------------------|

     Em/F# Dmaj7 D/B
  ===========      ===========    ===========
  | | | | | |      | | | | | |    | | | | | |
  -----------      -----------    -----------
  1 2 3 0 0 0      0 x x 1 1 1    0 x 0 |   1
  -----------      -----------    -----------
  | | | | | |      | | | | | |    | | | | 2 |
  -----------      -----------    -----------
  | | | | | |      | | | | | |    | | | 3 | |


 D D/B Dmaj7    4x

 Em/F#
Come a little bit closer
                     D Dmaj7  (2x)
Hear what I have to say
 Em/F#
Just like children sleepin
                              D Dmaj7  (2x)
We could dream this night away
  G
But there s a full moon risin
                           D D/B Dmaj7  (2x)
Let s go dancin in the light
 G
We know where the music s playin
                              D D/B Dmaj7  (2x)
Let s go out and feel the night.


         A7sus4 A7
        Because I m still in love with you
                                   A7sus4
        I want to see you dance again
                                        A
        Because I m still in love with you
                          D D/B Dmaj7   x4
        On this harvest moon.

 Em/F#
When we were strangers
                      D Dmaj7  (2x)
I watched you from afar
 Em/F#
When we were lovers
                           D Dmaj7  (2x)
I loved you with all my heart.
 G
But now its gettin late
                          D D/B Dmaj7  (2x)
And the moon is climbin high
 G
I want to celebrate
                        D D/B Dmaj7  (2x)
See it shinin in your eye.

         A7sus4 A7
        Because I m still in love with you
                                   A7sus4
        I want to see you dance again
                                        A
        Because I m still in love with you
                           D D/B Dmaj7   x4
        On this harvest moon.

 D D/B Dmaj7  (4x)

Harmonica
 G D D/B Dmaj7  x2

         A7 A7
        Because I m still in love with you
                                 A7sus4
        I want to see you dance again
                                        A
        Because I m still in lov

For No One Live Tabs by Barclay James Harvest

                                         Artist - Barclay James Harvest
                                       ********************************
                                          Song - For No One (Live)
                                         **************************
                                         Album - Live Tapes (Live)
                                        ***************************
                                            - Ayreon77
                                          **********************


00:32                         UB      00:39                 br     UB
[--------------|--------------12--14-|-15-14-15--14-12-14--14-12-|-12-14-]
[--------------|--------------15-----|---------------------------|-15----]
[-9-7-9--------|-b-rp-------9--------|---------------------------|-------]
[--------7-5-7-|-7---5---------------|---------------------------|-------]
[--------------|-------7-------------|---------------------------|-------]
[--------------|---------------------|---------------------------|-------]
                   
                                   UB hold bend
[--b--rb-------|-----------------|-10--|----s--|--------------]
[-15--15-12----|-------br------b-|-13-13--13\--|---hold bend--]
[-----------14-|-12-14-14-12-14--|-------------|-b--|--rb-----]
[--------------|-----------------|-------------|-7--7--7--5---]
[--------------|-----------------|-------------|--------------]
[--------------|-----------------|-------------|--------------]


----------------------------------------
VERSE 1
********
Em                   D                C
Please lay down your pistols and your rifles
Em                   D                Am
Please lay down your colours and your creeds
Em                   D                 Am
Please lay down your thoughts of being no-one
D              C                 Bm
Concentrate on what you ought to be


----------------------------------------
VERSE 2
********
Em                 D                 C
Then lay down your bullshit and your protests
Em                 D              Am
Then lay down your governments of greed
Em             D             Am
Take a look at what lies all around you
D             C              Bm
Then pray God we can live in peace


----------------------------------------
CHORUS
*******
G              D              F#m             Em
  Everyone's a loner 'till he needs a helping hand
G             D         Am
  Everyone is everybody else
G              D               F#m             Em
  Everyone's a no-one 'till he wants to make a stand
D               G           C
God alone knows how we will survive


----------------------------------------
VERSE 1
********
----------------------------------------
03:00
SOLO 1
*******
[------------------|-------------------------|-UB-UB-]
[------------10-12-|-12-10-12---------brp----|-12-14-]
[-11-12-11-9-------|-----------9-7-9--9--7---|-14-16-]
[------------------|-----------------------9-|-------]
[------------------|-------------------------|-------]
[------------------|-------------------------|-------]

                             03:16         br               b
[---------------------br----|-14-14-17-14-17---14-14-17-14-17-]
[-15-14-15--14-12-14--14-12-|---------------------------------]
[---------------------------|---------------------------------]
[---------------------------|---------------------------------]
[---------------------------|---------------------------------]
[---------------------------|---------------------------------]

               br                   UB UB UB UB   UB UB UB UB   UB     s
[-14-14-17-14-17-14---br---h--p---|-12-12-12-12-|-14-14-14-14-|-17---17\-]
[--------------------17--15-17-15-|-15-15-15-15-|-17-17-17-17-|-20-------]
[---------------------------------|-------------|-------------|----------]
[---------------------------------|-------------|--

Back In Nice chords – City Harvest Church

 Verse 1
        D D6 
So you think i'm a tough kid?
    C5/D Gmaj7/D 
Is that what you heard
        D D6 
well i like to see some action
        C5/D Gmaj7/D 
and it gets into my blood
     D 
Oh, let me out of pontiac
            D6 
when i was just sevnteen
   C5/D 
I had to get it out of me
        Gmaj7/D 
If you know what i mean, what i mean.

Instrumental 1

/ D5           / D5           / D5           / D5 
/ D5           / D5           / D5           / D5 
/ D5           / D5           /

Verse 2
 D D6 
Ah,      you say i must b crazy
 C5/D Gmaj7/D 
   cause i don't care who i hit who i hit
       D D6 
cause i know its me thats hitting out
     C5/D Gmaj7/D 
and i'm not full of shit
 D 
down by my bottle
           D6 
filled up high with gasoline
         C5/D 
you can tell by the night fires
       Gmaj7/D 
where rael has been has been

Instrumental 2

/ D5           / D5           / D5           / D5 

Chorus 1
Doct    Dsus2 Dm Dsus2 D D5 *
As     i      cuddld the por - cu - pine
Doct  Dsus2 Dm Dsus2 D D5 *          Doct
he   said   i  had none   to    blame, but me
Doct    Dsus2 Dm Dsus2 D D5 *
Held   my    heart,   deep  in   hair
Doct    Dsus2 Dm Dsus2 D (7) D5 *
Time   to    shave,   shave  it  off, it off
 D5 *
   No time for romantic escape,
          D (b6)
When your  filthy heart is ready for rape. No
 D5 *
  No time for romantic escape,
          D (b6)
When your  filthy heart is ready for rape. 
 D *  E/D A/D D *  E/D A/D D *   E/D A/D 
Off we go,    off we go     off we go

Verse 3
      D 
Your sitting in your comfort
     D6 
you don't believe i'm real
         C5/D 
well yo cannot buy protection
         Gmaj7/D 
for the way that i feel
 D 
   Your progrssive hypocrites
 D6 
hand ou their trash
        C5/D 
it was mine in the first place
         Gmaj7/D 
so i'll burn it to ash.


Verse 4
          D 
And i've taken all the strongest meets
     D6 
and laid them down in coloured sheets
 C5/D Gmaj7/D 
laid them down in coloured sheets
 D 
who needs illusion
    D6 
Of love and affection
           C5/D 
when your out walking in the streets
          Gmaj7/D 
your mainline connection, connection.


Chorus 2
Doct    Dsus2 Dm Dsus2 D D5 *
As     i      cuddld the por - cu - pine
Doct  Dsus2 Dm Dsus2 D D5 *          Doct
he   said   i  had none   to    blame, but me
Doct    Dsus2 Dm Dsus2 D D5 *
Held   my    heart,   deep  in   hair
Doct    Dsus2 Dm Dsus2 D (7) D5 *
Time   to    shave,   shave  it  off, it off
 D5</s

Grace chords – City Harvest Church

 Intro:

 D  x4

Verse:
 
             Em 
There's the moon asking to stay

 F Em Eb 
Long enough for the clouds to fly me away

           F Em Eb 
Well it's my time coming,  I'm not afraid

           Em 
Afraid to die

    Em F#m G A 
My fading voice sings

    B A Em 
Of lo-o-o-o-ove

         Em F#m G A B A 
But she cries    to the clicking of time...

     Em 
Oh, time


Chorus:

 Fm  
Wait in the fire

 Em Eb 
Wait in the fire...

 Fm 
Wait in the fire

 Em Eb 
Wait in the fire...

     Em 
The fire...


Intro:

 D  x4


Verse:

         Em 
And she weeps on my arm

 F Em Eb 
 Walking to the bright lights in  sorrow

    F Em Eb 
Oh drink a bit of wine we both might go tomorrow

       Em 
Oh my love

         Em F#m G A B A 
And the rain is fal---ling  and I believe

             Em 
My time has come

      Em F#m G A       
It reminds me of the pain

         B A 
I might leave

         Em 
Leave behind


Chorus:

 Fm  
Wait in the fire

 Em Eb 
Wait in the fire...

 Fm 
Wait in the fire

 Em Eb 
Wait in the fire...

     Em 
The fire...

Last Goodbye chords – City Harvest Church

 VERSEs:
( D Bm G Em D A G D )

This is our last goodbye
I hate to feel the love between us die
But it's over
Just hear this and then I'll go :
 you gave me more to live for,
 more than you'll ever know.

This is our last embrace,
 must I dream and always see your face
Why can't we overcome this wall
Baby, maybe it is just because I didn't know you at all.

    CHORUS:
    ( A G A G A G A G  )

    Kiss me, please, Kiss me
    But kiss me out of desire, babe, and not consolation
    You know, it makes me so angry 'cause I know that in time
    I'll only make you cry, this is our last goodbye.

Did you say "no, this can't happen to me,"
and did you rush to the phone to call?
Was there a voice unkind in the back of your mind saying,
"maybe... you didn't know him at all."

Well, the bells out in the church tower chime
Burning clues into this heart of mine
Thinking so hard on her soft eyes and the memory
Of her sighs that, "it's over... it's over..."

If Love Is King Tabs by Barclay James Harvest

                                           Artist - Barclay James Harvest
                                         ********************************
                                              Song - If Love Is King
                                             ************************
                                           Album - Welcome To The Show 
                                          ****************************
                                               - Ayreon77
                                             **********************


          
Acoustic Chords Am              G                     F
                     00:06           00:12
[-------------------|---------------|-------------------]
[-------------------|--s----5----h--|------s------------]
[-----------5----h--|-5\7-5---5-5-7-|-5-5-5\4-4-4-4-5---]
[------h--5---5-5-7-|---------------|-----------------7-]
[-5-5-5-7-----------|---------------|-------------------]
[-------------------|---------------|-------------------]

                  Am                              G
00:17                  00:24           00:30
[---------------------|---------------|---------------|-------]
[---------------------|---------------|--s----5----h--|-------]
[-------------5----h--|-------5----h--|-5\7-5---5-5-7-|-4-----]
[--------s--5---5-5-7-|--h--5---5-5-7-|---------------|---7-5-]
[-------5\7-----------|-5-7-----------|---------------|-------]
[-5-5-5---------------|---------------|---------------|-------]

                  F                   Am        G
00:35                00:41
[-------------------|---------------------|-------]
[------s------------|---------------------|-10--b-]
[-5-5-5\4-4-4-4-5---|-------------5----h--|----12-]
[-----------------7-|--------s--5---5-5-7-|-------]
[-------------------|-------5\7-----------|-------]
[-------------------|-5-5-5---------------|-------]

-------------------------------------
VERSE 1
********
                   Am
A blind man in the night
              G
Looking for a way down
F
Prophet of an unknown
                   Am
Just looking for a way home

-------------------------------------
VERSE 2
********
                  Am
A rich man taking fright
                G
Looking for the lowdown
            F
Guru of the jet set
                   Am        G
Just looking for a safe bet

-------------------------------------
CHORUS
*******
F            G
  If love is king
              Am
Who wears the crown

 01:42
  b
[-8-8-7--------|--------------]
[-------8-10---|-------rbp----]
[------------9-|-7-5-7-7--5---]
[--------------|------------7-]
[--------------|--------------]
[--------------|--------------]

F          G              Em
  If music be the food of love
                     Am
Then someone ate the crown

 01:57                    G                     F                   Am
[-------------|---------------|-------------------|---------------------]
[-------------|--h----5----h--|------s------------|---------------------]
[-----5----h--|-5-7-5---5-5-7-|-5-5-5\4-4-4-4-5---|-------------5----h--]
[---5---5-5-7-|---------------|-----------------7-|--------s--5---5-5-7-]
[-7-----------|---------------|-------------------|-------5\7-----------]
[-------------|---------------|-------------------|-5-5-5---------------]

     G
[-------]
[-10--b-]
[----12-]
[-------]
[-------]
[-------]

-------------------------------------
VERSE 3
********
                  Am
A no count in the light
              G
Looking for a way out
F
Savior of the closed door
                   Am
Just looking for a cool floor

-------------------------------------
VERSE 4
********
                       Am
And you're out feeling great
          G
Shooting for a high break
                F
Prisoner of the real king
                   Am          G
Just looking for a sure thing

-------------------