Tag: hate

Wasted My Hate Tabs – Metallica

 Tuning:E flat
This might not be 100% but it's the overall idea. Enjoy!
Intro:
Clean
E---0-0-5-7------------7------5-7---5v5v-0-3-5-0------------------------------------------------------
A------------5s7v7v7s5---5v5v-----5--------------0-0--------------------------------------------------
D-----------------------------------------------------------------------------------------------------
G-----------------------------------------------------------------------------------------------------
B-----------------------------------------------------------------------------------------------------
E-----------------------------------------------------------------------------------------------------

E---0-0-5-7------------7------5-7---5v5v-0-3-5-0------------------------------------------------------
A------------5s7v7v7s5---5v5v-----5--------------0-0--------------------------------------------------
D-----------------------------------------------------------------------------------------------------
G-----------------------------------------------------------------------------------------------------
B-----------------------------------------------------------------------------------------------------
E-----------------------------------------------------------------------------------------------------

E---0-0-5-7------------7------5-7---5v5v-0-3-5-0------------------------------------------------------
A------------5s7v7v7s5---5v5v-----5--------------0-0--------------------------------------------------
D-----------------------------------------------------------------------------------------------------
G-----------------------------------------------------------------------------------------------------
B-----------------------------------------------------------------------------------------------------
E-----------------------------------------------------------------------------------------------------

E---0-0-5-7------------7------5-7---5v5v-0-3-5-0------------------------------------------------------
A------------5s7v7v7s5---5v5v-----5--------------0-0--------------------------------------------------
D-----------------------------------------------------------------------------------------------------
G-----------------------------------------------------------------------------------------------------
B-----------------------------------------------------------------------------------------------------
E-----------------------------------------------------------------------------------------------------

Distortion:
E-----------------------------------------------------------------------------------------------------
A---5s7v-5s7v-5s7v-5s7v-7-7-7-7-----------------------------------------------------------------------
D---7s9v-7s9v-7s9v-7s9v-9-9-9-9-----------------------------------------------------------------------
G---7s9v-7s9v-7s9v-7s9v-9-9-9-9-----------------------------------------------------------------------
B-----------------------------------------------------------------------------------------------------
E-----------------------------------------------------------------------------------------------------

Main Riff:
E--0-0-0-0-0-0-0-0-0-0-0-5-0-5-7-6-5-0-5-0-5-0--5s3-0-3s5-3s5-0---------------------------------------
A--2-*-7-5-2-*-7-5-7-6-5-5-*-5-7-6-5---5-*-5----------5s7-5s7-2---------------------------------------
D-----------------------------------------------------5s7-5s7-----------------------------------------
G-----------------------------------------------------------------------------------------------------
B-----------------------------------------------------------------------------------------------------
E-----------------------------------------------------------------------------------------------------

E--0-0-0-0-0-0-0-0-0-0-0-5-0-5-7-6-5-0-5-0-5-0--5s3-0-3s5-3s5-0---------------------------------------
A--2-*-7-5-2-*-7-5-7-6-5-5-*-5-7-6-5---5-*-5----------5s7-5s7-2-----

Hate The Taste Tabs – Black Rebel Motorcycle Club

 Song: Hate The Taste
Artist: Black Rebel Motorcycle Club
 Specter at the Feast
Guitarist: Peter Hayes
Tuning: Standard
: Pini-Glock

Another song by Black Rebel Motorcycle Club which wasn't tabbed yet. It's only the guitar of Peter.

Tab taken from this video: https://www.youtube.com/watch?v=GWZ5piWRQ14

If you have suggestions or questions you can always leave a comment or contact me at my UG page! :)

Anyways enjoy this great song!

Cheers Nick! 

Intro & Verses: 

e|-----------------------|
B|-----------------------|
G|-----------------------|
D|-----------------------|
A|-------------3-1-------|
E|--1-1-3-1--1-----3-1-3-|

Chorus: (I wanna ride with you...)

e|-----------------------|
B|--3-3-3-3--------------|
G|----------5-3----------|  Repeat this part 3 times. 
D|-----------------------|
A|-----------------------|
E|-----------------------|

Then: 

e|------------------------------------|
B|------------------------------------|
G|--5b-5--3-4-3-0---------------------|
D|------------------------------------|
A|------------------------------------|
E|------------------------------------|

Bridge: (I'm a mess...)

e|--3-3-0-3-3-3-0-3-3-0-3-3-3-0-3-3-0-3-3-3----------------------|
B|--3-3-0-3-3-3-0-3-3-0-3-3-3-0-3-3-0-3-3-3-5b-5b-5b-5b----------|
G|--3-3-0-3-3-3-0-3-3-0-3-3-3-0-3-3-0-3-3-3----------------------|
D|---------------------------------------------------------------|
A|---------------------------------------------------------------|
E|---------------------------------------------------------------|

Chorus: (I wanna ride with you...)

e|-----------------------|
B|--3-3-3-3--------------|
G|----------5-3----------|  Repeat this part 3 times. 
D|-----------------------|
A|-----------------------|
E|-----------------------|

Than: 

e|------------------------------------|
B|------------------------------------|
G|--5b-5--3-4-3-0---------------------|
D|------------------------------------|
A|------------------------------------|
E|------------------------------------|


The Mill Hill Self Hate Club chords – Edward Ball

 EDWARD BALL / THE MILL HILL SELF HATE CLUB
(from 'Catholic Guilt', 1997)

The verses all follow the same simple pattern:  F  -  G  -  Am  -  Am 
And so does the refrain:  C  -  D7  -  F  -  F 
The rest can be easily improvised.
Check out the song here: https://www.youtube.com/watch?v=jIUI_NontJI



 F G Am Am F G Am Am F G     
A dark shadow hangs over me 
    Am  
It follows me wherever I go
      F G 
So I wrote this song for the girl by the sea
    Am   
To remind me that we were once close

         F G 
I could never stand to be without you 
     Am  
But when we were together, well we just couldn't stop fighting
        F G 
If you see her, gonna tell her, gonna tell if you see her 
        Am  
That I really really miss her
       
                C D7 
        If you see her, tell her 
             F 
        I'm standing at the Fiveways as the world spins round around me
                C D7 
        If you see her, tell her 
             F 
        I'm just another member of the Mill Hill Self Hate Club

         Am G F F Am G F F F G 
On London Fields I fell for a girl
    Am  
On Primrose Hill she changed my world
      F G 
In a storm at Dover
   Am  
I knew our love would open up

 F G 
Then she brought me back to life
 Am  
Just to have me crucified
     F G 
For fourteen stations of my cross
      Am  
From Waterloo to Dover Docks

            F G 
But if you see her, gonna tell her, gonna tell her if you see her
        Am  
That I really really miss her

                C D7 
        If you see her, tell her, 
             F 
        I'm standing at the Fiveways as the world spins round around me
                C D7 
        If you see her gonna tell her, gonna tell her if you see her
           F                                                            
        I really really miss her and it's driving me insane     

                C D7 
        If you see her, tell her 
             F 
        I'm standing at the Fiveways as the world spins round around me
                C D7 
        If you see her, tell her, 
             F 
        I'm just another member of the Mill Hill Self Hate Club

                C D7 
        If you see her, tell her (won't you, please?)
             F 
        I'm just another member of the Mill Hill Self Hate Club 
                C D7 
        If you see her gonna tell her, gonna tell her if you see her
           F                                                            
        I really really miss her and it's driving me insane     

                C D7 
        If you see her, tell her 
             F 
        I'm just another member of the Mill Hill Self Hate Club 
                C D7 
        If you see her gonna tell her, gonna tell her if you see her
           F                                                            
        I really really miss her...

Hate It Here chords – Wilco

 There's a fairly good tab on here, but a few of the chords are a little iffy, and they are onlyapplied
to the first verse. Anyway, this is one of my favourite Wilco songs, and I was so happyit was featured
in the recent film, Boyhood. Please add corrections if you feel it's necessary.

P.S. Adim can be replaced with D7 if required.

NO CAPO / STANDARD TUNING

 Adim 
2
1
2
1
0
0

Intro:

 A D C#m D A D 
 I try to stay busy
 C#m D 
 I do the dishes, I mow the lawn
 A Adim  
 I try to keep myself occupied
      Bm A 
Even though I know you're not coming home

 A D 
 I try to keep the house nice and neat
 C#m D  
 I make my bed I change the sheets
 A Adim 
 I even learned how to use the washing machine
     Bm A 
But keeping things clean doesn't change anything

 A D 
 What am I gonna do when I run out of shirts to fold?
 A D 
 What am I gonna do when I run out of lawn to mow?
 A Adim 
 What am I gonna do if you never come home?
          Bm A 
Tell me, what am I gonna do?

 E 
   I hate it
 D A 
    I hate it here
 E    
   When you're gone
 D A A D 
 I caught myself thinking
 C#m D 
 I caught myself thinking once again
 A Adim  
 Have to try to keep my mind out of this
 Bm A   
Try not to pretend

 A D 
 I'll check the phone
 C#m D 
 I'll check the mail
 A Adim 
 I'll check the phone again and I call your mom
 Bm A 
  She says you're not there and I should take care

 E 
   I hate it here
 D A 
 When you're gone...
 E 
     I hate it
 D A 
     I hate it here
 E D A E 
    When you're gone
 D A A D 
 I try to stay busy
 C#m D 
 I take out the trash, I sweep the floor
 A Adim 
 Try to keep myself occupied
 Bm A 
Cause I know you don't live here anymore

Conversation With Dr Seussicide Tabs – I Hate Myself

 -------------------------------------------------------------------------------
             CONVERSATION WITH DR.SEUSSICIDE - I Hate Myself
-------------------------------------------------------------------------------

Tuning: Drop D

Verse:
e|------------------------------------------------------------------|
B|-------------------------3-------------------------------3---3----|
G|-----------------------2---2---2-----------------------2---2---2--| x2
D|---2---2---2---2---0---------0-----2---2---2---2---0--------------|
A|------------------------------------------------------------------|
D|-2---2---5---5---0---0-----------2---2---5---5---0---0------------|

Break:
e|----------------------------------------------------------------|
B|----------------------------------------------------------------|
G|-------------------------------[5]------------------------------|
D|-2-------/5-------0-------[5]--------2-------/5-------0---------|
A|----------------------------------------------------------------|
E|----------------------------------------------------------------|

Verse:
e|------------------------------------------------------------------|
B|-------------------------3-------------------------------3---3----|
G|-----------------------2---2---2-----------------------2---2---2--| x2
D|---2---2---2---2---0---------0-----2---2---2---2---0--------------|
A|------------------------------------------------------------------|
D|-2---2---5---5---0---0-----------2---2---5---5---0---0------------|


Chorus:
e|---------------------------------------------------------------------------|
B|---------------------------------------------------------------------------|
G|---------------------------------------------------------------------------|
D|-0----0----0--0----4----4----4--4----5----5----5--5-----0----0----0----0---|
A|-0----0----0--0----5----5----5--5----5----5----5--5-----0----0----0----0---|
D|-0----0----0--0----4----4----4--4----5----5----5--5-----0----0----0----0---|


Verse:
e|------------------------------------------------------------------|
B|-------------------------3-------------------------------3---3----|
G|-----------------------2---2---2-----------------------2---2---2--| x2
D|---2---2---2---2---0---------0-----2---2---2---2---0--------------|
A|------------------------------------------------------------------|
D|-2---2---5---5---0---0-----------2---2---5---5---0---0------------|

Break:
e|-----------------------------------------------------------------|
B|-----------------------------------------------------------------|
G|-------------------------------[5]---------------------------2---|
D|-2-------/5-------0-------[5]--------2-------/5-------0----------|
A|-----------------------------------------------------------------|
D|-----------------------------------------------------------------|

Verse:
e|------------------------------------------------------------------|
B|-------------------------3-------------------------------3---3----|
G|-----------------------2---2---2-----------------------2---2---2--| x2
D|---2---2---2---2---0---------0-----2---2---2---2---0--------------|
A|------------------------------------------------------------------|
D|-2---2---5---5---0---0-----------2---2---5---5---0---0------------|

Chorus:
e|---------------------------------------------------------------------------|
B|---------------------------------------------------------------------------|
G|---------------------------------------------------------------------------|
D|-0----0----0--0----4----4----4--4----5----5----5--5-----0----0----0----0---|
A|-0----0----0--0----5----5----5--5----5----5----5--5-----0----0----0----0---|
D|-0----0----0--0----4----4----4--4----5----5----5--5-----0----0----0----0---|

Bridge:
e|--------------------------------------------------------|
B|--------------------------------------------------------|
G|-------9-9-9-------9-9-9-9-9-----11---------------------| x4
D|-1111117-7-7-1111117-7-7-7-7-11

Dear God I Hate Myself chords – Xiu Xiu

 -------------------------------------------------------------------------------
                             DEAR GOD, I HATE MYSELF - Xiu Xiu
-------------------------------------------------------------------------------
:Justin
sdjustinr

Tuning: Standard
Time Signature: Common time
 
Notes: At it's core this is a simple, easy and satisfying acoustic guitar song. 
Impress your friends and make your parents proud by singing this
anthemic ode to self-flagellation.

  
      Em D D/F# C7 C G A 

e|---0-----0----x----0-----0-----3-----5----|
B|---0-----0----3----0-----1-----3-----5----|
G|---0-----7----2----5-----0-----4-----6----|
D|---2-----7----0----5-----2-----5-----7----|
A|---2-----5----0----3-----3-----5-----7----|
E|---0----------2----------------3-----5----|

  |         |         |         |         |         |         |         |
   Em D C7  
                   despair will hold    a place in       my        heart
        a   bigger    one than  you       do        do        do
      and   i will    always         be   nicer        to the cat
                 than i am           to   you       you       you 

  |         |         |         |         |         |         |         |
   D C G 
       dear      God,      i         hate      my        self
       dear God, i    hate   my      self       
     and    i will    never          be   happy
     and    i'll      never          feel           normal

  |         |         |         |         |         |         |         |
   Em D C7 
              (don't  ask me    if this   line is  about you)

  |         |         |         |         |         |         |         |
   Em D/F# 
                      what do        they do there      tonite    tonite?
                      why  do        they go there      alright  alright?
   C7 D/F# 
                      why  do        they live there    tonite    tonite?
   Em 
  why       do        they      live at         all     alright  alright?

  |         |         |         |         |         |         |         |
   D C G 
       dear      God,       i        hate      my        self
       dear God, i    hate my        self
       and  i will    never          be   happy
       and  i will    never          feel      normal

  |         |         |         |         |         |         |         |
   G A 
  |         |         |         |         |         |         |         |
   C7 
                             (instrumental - play twice)

  |         |         |         |         |         |         |         |
   Em D/F# 
                      why do    they      live there        tonite   tonite?
   Em  
 why        do        they      live  at all               alright  alright?

  |         |         |         |         |         |         |         |
   Em D C7 
                      flip off      the   mirror         as          protest
            who the   F-word        are   you       you       you?

  |         |         |         |         |         |         |         |
   D C G 
        and i will    never          be   happy
        and i will    never          feel       normal
        dear      God,      i        hate       my        self
        dear      God,      i        hate       my        self


  |         |         |         |         |         |         |         |
   G A 
  |     

I Hate The Way I Love You chords – Ella Mae Bowen

 (Note: I tabbed this without a capo, but the chords are Dm, F, C, Gm and Bb, so I 
transposed the song to an easier version. I think it sounds good like this, but if 
you don't have a capo you can play the original chords)

Capo on 3rd fret


 Bm D   
I’m sixty seconds from a heart disaster  
 A Em   
Am I not good enough?  
 Bm D   
So many questions only you can answer  
       A E   
But you just won’t pick up  
        Bm D   
And I know you’re the one  
                         A   
So it’s so hard for me to let go  
            Em G    
And now I’m stuck with this tab  
                            A   
You’re the boy that I can’t have  
 
                  Em   
I hate the way I love you  
                   G    
My pillow can’t forgive you  
                       D A   
For the tears that I’ve cried  
                   Em   
Our love is like a sunset  
                G    
Heavy on the regrets  
               D A   
And I know it’s time  
                     Em   
I’m sick of how you keep your options open  
          G    
While my heart’s heartbroken  
   D A   
Tonight I know I’m through  
   Em D/F# G    
Tonight I know I’m through  
                       D A Em G    
Acting stupid over you, Oh, oh  
 
 Bm D   
Been thirty days now since you last kissed me  
 A Em   
You said you loved my eyes  
      Bm D   
Were you just faking telling me you missed me  
 A Em   
Covered with disguise  
      Bm D   
You said it’s you and me forever  
 A Em   
Baby, we dreamed  
                             G    
But I guess you changed your mind  
                          A   
Now I wish I could change mine  
 
 
                  Em   
I hate the way I love you  
                   G    
My pillow can’t forgive you  
                       D A   
For the tears that I’ve cried  
                   Em   
Our love is like a sunset  
                G    
Heavy on the regrets  
               D A   
And I know it’s time  
                     Em   
I’m sick of how you keep your options open  
          G    
While my heart’s heartbroken  
   D A   
Tonight I know I’m through  
   Em D/F# G    
Tonight I know I’m through  
                       D A Em G    
Acting stupid over you, Oh, oh  
  
 
 Bm D   
True love, is it true if only I believe it?  
 A   
Let’s start tonight  
 D G    
You’ve done me wrong  
                     A   
But I’d still do you right  
 
  
                  Em   
I hate the way I love you  
                   G    
My pillow can’t forgive you  
                       D A   
For the tears that I’ve cried  
                   Em   
Our love is like a sunset  
                G    
Heavy on the regrets  
               D A   
And I know it’s time  
                     Em   
I’m sick of how you keep your options open  
          G    
W

I Hate Fuckas – Flapjack chords

Stroj 1 ton w dol

Riff A
                                    x3
D|-----------------|------------------|-----------------|----------|
A|-----------------|------------------|-----------------|----------|
F|-----------------|------------------|-----------------|----------|
C|-----------------|------------------|-----------------|----------|
G|-2-----2--5---2--|--8-----8--8---7--|-2-----2--5---2--|--8-------|
D|-0-----0--3---0--|--6-----6--6---5--|-0-----0--3---0--|--6-------|



Riff B
                    x3
|---------------------|-------------------------|
|---------------------|-------------------------|
|---------------------|-------------------------|
|---------------------|-------------------------|
|-2----2--5--2--4/5---|-------------5--7--------|
|-0----0--3--0--2/3---|--5----6--7--------3--2--|
       PM...                  PM................


Riff C

|----------------|-----------------|----------------|-----------------|
|----------------|-----------------|----------------|-----------------|
|----------------|-----------------|----------------|-----------------|
|-3--------------|-----------------|-2--------------|-----------------|
|-3--3-3-3-3-3-3-|-3-3-3-3-3-3-----|-2--2-2-2-2-2-2-|-2-2-2-2-2-2-2-2-|
|-1--1-1-1-1-1-1-|-1-1-1-1-1-1-2-3-|-0--0-0-0-0-0-0-|-0-0-0-0-0-0-0-0-|
     PM...........................      PM............................


|----------------|-----------------|
|----------------|-----------------|
|----------------|-----------------|
|-3--------------|-----------------|
|-3--3-3-3-3-3-3-|-3-3-3-3-3-3-----|
|-1--1-1-1-1-1-1-|-1-1-1-1-1-1-2-3-|
     PM...........................



Riff D
                    x3
|---------------------|-------------------------||-------------------|
|---------------------|-------------------------||-------------------|
|---------------------|-------------------------||-------------------|
|---------------------|-------------------------||-------------------|
|-2----2--5--2--4/5---|-------------5--7--------||-2---2--2-2-2-2-2--|
|-0----0--3--0--2/3---|--5----6--7--------3--2--||-0---0--0-0-0-0-0--|
       PM...                  PM................



Solo Background

Riff B (x2)
                    x3
|---------------------|-------------------------|
|---------------------|-------------------------|
|---------------------|-------------------------|
|---------------------|-------------------------|
|-2----2--5--2--4/5---|-------------5--7--------|
|-0----0--3--0--2/3---|--5----6--7--------3--2--|
       PM...                  PM................


|----------------|-----------------|----------------|-----------------|
|----------------|-----------------|----------------|-----------------|
|----------------|-----------------|----------------|-----------------|
|-5--------------|-----------------|-2--------------|-----------------|
|-5--5-5-5-5-5-5-|-5-5-5-5-5-5-5-5-|-2--2-2-2-2-2-2-|-2-2-2-2-2-2-2-2-|
|-3--3-3-3-3-3-3-|-3-3-3-3-3-3-3-3-|-0--0-0-0-0-0-0-|-0-0-0-0-0-0-0-0-|
     PM...........................      PM............................

|----------------|-----------------|
|----------------|-----------------|
|----------------|-----------------|
|-5--------------|-----------------|
|-5--5-5-5-5-5-5-|-5-5-5-5-5-5-----|
|-3--3-3-3-3-3-3-|-3-3-3-3-3-3-4-5-|
     PM...........................