Tag: he

I Can Hear My Savior Calling – Where He Lead Me chords – Hillsongs

 Verse 1
 C F G7 
I can hear my Savior calling
                      C 
I can hear my Savior calling
               C7 F 
I can hear my Savior calling
          C G7 C 
Take thy cross and follow follow Me


Chorus
                   F G7 
Where He leads me I will follow
                           C 
Where He leads me I will follow
                   C7 F 
Where He leads me I will follow
         C G7 C 
I'll go with Him with Him all the way


Verse 2
 C F G7 
I'll go with Him through the garden
                              C 
I'll go with Him through the garden
                  C7 F 
I'll go with Him through the garden
          C G7 C 
I'll go with Him with Him all the way 


Verse 3
 C F G7 
I'll go with Him through the judgment
                              C 
I'll go with Him through the judgment
                  C7 F 
I'll go with Him through the judgment
          C G7 C 
I'll go with Him with Him all the way 


Verse 4
 C F G7 
He will give me grace and glory
                           C 
He will give me grace and glory
                 C7 F 
He will give me grace and glory
          C G7 C 
And go with me with me all the way 

All He Aces solo Tabs – Motörhead

 -------------------------------------------------------------------------------
                        ALL THE ACES - Motörhead
-------------------------------------------------------------------------------
: sezar
 keanu-rimedorf@hotmail.com

Tuning: ½ Step Down


e|-12--12-----------------------------------------------------------------|
B|-15b-15b-15b-15-12h15p12----12h15p12----12------------------------------|
G|-------------------------14----------14----14-12h14p12----12h14p12------|
D|-------------------------------------------------------14----------14---|
A|------------------------------------------------------------------------|
E|------------------------------------------------------------------------|

e|------------------------------------------------------------------------|
B|-------------------15---------------------------------------------------|
G|-12-14-12-14b-14b-----14b--12h14p12----12-14b--12h14p12----12h14p12-----|
D|------------------------------------14------------------14----------14--|
A|------------------------------------------------------------------------|
E|------------------------------------------------------------------------|

e|------------------------------------------------------------------------|
B|-------------------------------------------------10---------------------|
G|-12-14-12-11-12-11-9-11-9-7-9-9b--9b-9b-9pbr7-9b----9pbr7-7h9p7---7-----|
D|----------------------------------------------------------------9---9---|
A|------------------------------------------------------------------------|
E|------------------------------------------------------------------------|


e|------------------------------------------------------------------------|
B|----------------------------------10------------------------------------|
G|---------------------7h9p7---7-9b----9pbr7---7h9p7---7~/----------------|
D|-5---5-5h7p5---5h7/9-------9---------------9-------9--------------------|
A|---7---------7----------------------------------------------------------|
E|------------------------------------------------------------------------|

1:56

e|---------------------------------------14-----14--------14--------14----|
B|------------------------------------14-----14--------14--------14----16b|
G|-16b-16b-16b-16b-16pbr14-16-14--16b--------------16b-------16b----------|
D|------------------------------------------------------------------------|
A|------------------------------------------------------------------------|
E|------------------------------------------------------------------------|


e|-14----------------------------------------------------------------------|
B|----17-14h17p14----14----------------------------------------------------|
G|----------------16----16-14h16p14----14h16p14----14-16-14-13--11--9------|
D|----------------------------------16----------16-------------------------|
A|-------------------------------------------------------------------------|
E|-------------------------------------------------------------------------|

************************************

| /   slide up
| \   slide down
| h   hammer-on
| p   pull-off
| ~   vibrato
| +   harmonic
| x   Mute note
| b   Bend
| pb  Pre-bend
| br  Bend release
| pbr Pre-bend release
| brb Bend release bend

************************************

If He Should Break Your Heart chords – Journey

 Name: Mike M

Artist: Journey
Title: If He Should Break Your Heart
 Trial By Fire
Year: 1996

Standard Tuning

INTRO

    Asus2 Bsus2     

E-|-0--0--------0--2-----0--0--------0--2--4-|
B-|-0-----4--0--------0--0-----4--0----------|
G-|-2--------------------4-------------------|
D-|-2--------------------4-------------------|
A-|-0--------------------2-------------------|
E-|-x--------------------x-------------------|


VERSE 1

 Asus2 
Please be wrong
                           Bsus2  
Please don't tell me it's really you
 Asus2 Bsus2 
Tell me eyes... Tell my heart what I'm goin' through
 Asus2 Bsus2 
I believed, I believed I was over you

CHORUS

              C#m Bsus2 
If he should break your heart
   G#5 Asus2 
I'll always know where you are
               C#m Bsus2 
If you should fall... Apart
    G#5 Asus2 
I'll be there, I'll be around
              C#m Bsus2 
If he should break... Your heart
 Asus2 
I'll be there

VERSE 2

 Asus2 
Is this right
                  Bsus2 
I don't care I'm alone with you
 Asus2 Bsus2 
Here we are, once again you've got someone new
 Asus2 Bsus2 
Lonely hands, please don't do what you wanna do

CHORUS

              C#m Bsus2 
If he should break your heart
   G#5 Asus2 
I'll always know where you are
               C#m Bsus2 
If you should fall... Apart
    G#5 Asus2 
I'll be there, I'll be around
              C#m Bsus2 
If he should break... Your heart

         Asus2 C#m  
From my soul I say... Good-bye yesterday
          Bsus2 Asus2 
One more night alone, without the touch... Of you
        Asus2 C#m   
Then I start to break... Is it my mistake
         Bsus2 Asus2 
Tell me am I wrong... For holdin' on... To you

        Bsus2 Asus2      
SOLO - If he should break your, If he should break your, If he should break your...Heart 

              C#m Bsus2 
If he should break your heart
   G#5 Asus2 
I'll always know where you are
               C#m Bsus2 
If you should fall... Apart
    G#5 Asus2 
I'll be there, I'll be around
              C#m Bsus2 
If he should break... Your heart
             Asus2 
I'll be there 

 Bsus2 Asus2      
If he should break your, If he should break your, If he should break your...Heart


Thanks for viewing! 

He Knows My Name chords – Tommy Walker V6

 INTRO

 E F#m7 E/G# A E/B Bsus B A 


VERSE I


 E F#m7 E/G# A 
I have a Ma----ker

 E/B B7sus B A/B 
He formed my heart

 E F#m7 E/G# A 
Before even time began

 E/B B       
My life was in his 

 E F#m7 E/G# 
hands.


CHORUS


 A E B E 
He knows my name

 A E B E 
He knows my every thought

 A E B C#m 
He sees each tear that falls and 

 A B E A/E 
hears me when I call


VERSE II


 E F#m7 E/G# A 
I have a Fa----ther

 E/B B7sus B A/B 
He calls me His own

 E F#m7 E/G# A 
He'll never leave me

 E/B B E F#m7 E/G# 
No matter where I go


CHORUS 

 A E B E 
He knows my name

 A E B E 
He knows my every thought

 A E B C#m 
He sees each tear that falls and 

 A B E A/E 
hears me when I call



YouTube:
https://www.youtube.com/channel/UCNEFmIlsMqKfPeImMgatD1A

Ultimate Guitar Profile:
http://profile.ultimate-guitar.com/Maestro_727

Guitar Lessons website:
http://gsguitarfun.weebly.com

George Salas is a public middle school guitar teacher and Praise & Worship leader. He is currently pursuing 
a Master's in Music Education.

Because He Lives chords – Matt Maher

 Matt Maher
Because He Lives
no capo


Intro:    Am F C Am F C 

Verse 1
      Am F C 
I believe in the Son
      Am F C 
I believe in the risen One
      Am F C 
I believe I overcome
        F Am G 
By the power of His blood



CHORUS
  F G Am 
Amen, Amen
 G C G C 
I’m alive, I’m alive
   Am G 
Because He lives
  F G Am 
Amen, Amen
 G C G C F G 
Let my song join the one that never ends
             Am 
Because He lives

(Play Intro once)

Verse 2
       Am F C 
I was dead in the grave
       Am F C 
I was covered in sin and shame
       Am F C 
I heard mercy call my name
    F Am G 
He rolled the stone away

(CHORUS)

BRIDGE
             C 
Because He lives
 F G 
I can face tomorrow
             C 
Because He lives
 F G 
Every fear is gone
  C F Am G F 
I know He holds my life my future in His hand

CHORUS
  F G Am 
Amen, Amen
 G C G C 
I’m alive, I’m alive
   Am G 
Because He lives
  F G Am 
Amen, Amen
 G C G C F G 
Let my song join the one that never ends
  F G Am 
Amen, Amen
 G C G C 
I’m alive, I’m alive
   Am G 
Because He lives
  F G Am 
Amen, Amen
 G C G C F G 
Let my song join the one that never ends
             Am 
Because He lives

God Bless!

He Has Come For Us God Rest Ye Merry Gentlemen chords – Meredith Andrews

 Verse I:
     Am Am 
God rest ye merry gentlemen let nothing you dismay
   Am Am       
Remember Christ our Savior was born on Christmas day
    Dm C Am G 
To save us all from Satan's power when we were gone astray
    C Dm Am G 
Oh tidings of comfort and joy, comfort and joy
    C Dm Am 
Oh tidings of comfort and joy


Chorus:
        F C G 
He has come for us, this Jesus
          F C G 
He's the hope for all mankind
        F C G 
He has come for us, the Messiah
 F G C 
Born to give us life


Verse II:
      Am 
From God our heavenly Father a blessed angel came
     Am 
And unto certain shepherds brought tidings of the same
     Dm C Am G 
How that in Bethleham was born the Son of God by name
    C Dm Am G 
Oh tidings of comfort and joy, comfort and joy
    C Dm Am 
Oh tidings of comfort and joy


Chorus:


Bridge:
         F G Am C F G Am C  
All the angels sing Halleluja, Jesus Christ is born
         F G Am C F G Am C 
All the children sing Halleluja, He is Christ the Lord


Chorus:
        F C G 
He has come for us, this Jesus
          F C G 
He's the hope for all mankind
        F C G 
He has come for us, the Messiah
 F G Am F G C 
Born to give us life (He is born to give us life)

He Says The Same Things To Me chords – Skeeter Davis

 He Says The Same Things To Me:Skeeter Davis.
#8 Country, #15 A.C. and # 47 on BB Hot 100
on RCA Records in 1964.

INTRO:  B E 

#1.
 B E A 
Shall I tell you what he said to you when he 
 E E7 
kissed you last night?
 E B Gbm A 
I could tell it sigh for sigh, and  here's the 
                        E 
reason why..(whoa-whoa-whoa.)

CHORUS:
 E B 
He says the same things to me..(doo-doo-doo)
 A E 
he says the same things to me..(bom.)

#2.
     B E A 
And shall I tell you what he said to you as he 
 E 
held you so tight?
        B A 
Let me tell you from the start..I know it now 
                      E 
by heart..(whoa-whoa-whoa.)

CHORUS:
 E B 
He says the same things to me..(doo-doo-doo)
 A E E7 
he says the same things to me..(la-la-aaaahh.)


BRIDGE: (Bridge lyrics are spoken over Bridge.)
       A B E A Am 
But I know how it must hurt you, to find his love 
 A D 
isn't real.
     B E Gb Gbm B 
And if your heart is breaking, think how I must feel.

#3.
            E A 
And did he tell you, there's no other girl..that 
     E E7 
his only love is you?
       B A 
If he did, there's no surprise, that's just the way 
                     E 
he lies..(whoa-whoa-whoa.)

OUTRO:
 E B 
He says the same things to me..
 A E Dbm A E 
he says the same things to me..(Fade.)



A sixties smash from Kraziekhat.

Crazy He Calls Me chords – Billie Holiday V2

 Crazy He Calls Me
Billie Holiday (1949)

m = minor
M = major
:|] = repeat

DbmM7     x4655x
 Fm/Bb      6x656x
Bbo7      6x565x
Bbdim7/ Eb  x6565x
 Dbdim/Eb   x6565x
 Bbm/Eb     x6866x

   DbM7 DbM7/Ab 
I say I'll move the mountains
 DbM7 DbM7/G     DbmM7
And I'll move the mountains
 DbM7 Fm7 Fm/Bb 
If he wants them out of the way
 Ebm7 Ab 
Crazy he calls me
 Db Bbm 
Sure, I'm crazy
 Ebm7 Ebm7 Ab7 
Crazy in love, I’d say

   DbM7 DbM7/G 
I say I'll go through fire
 DbM7 DbM7/G     DbmM7
And I'll go through fire
 DbM7 Fm7 Fm/Bb 
As he wants it, so it will be
 Ebm7 Ab 
Crazy he calls me
 Db Bbm 
Sure, I'm crazy
 Ebm7 Ab7 DbM7 
Crazy in love, you see

[|:
 B7 EM7 EM7/B 
Like the wind that shakes the bough
Bbo7      Bbdim7/ Eb AbM7 
He moves me with a smile
    Bb7 Dbdim/Eb AbM7 Fm7 
The difficult I'll do right now
 Bb7 Eb7 Ab7 
The impossible will take a little while

   DbM7 DbM7/G 
I say I'll care forever
 DbM7 DbM7/G  DbmM7
And I mean forever
 DbM7 Fm7 Fm/Bb 
If I have to hold up the sky
 Ebm7 Ab 
Crazy he calls me
 Db Bbm 
Sure, I'm crazy
 Ebm7 Ab7 DbM7 
Crazy in love am I  :|]

Second time:
 Ebm7  (once)   Bbm/Eb Dm7 DbM7 
Crazy in love...        am I

Te He Echado De Menos chords – Pablo Alboran

           EADGBe
 G :        320033   
 G/B :      x20033
 C9 :       x32030
 Em7 :      022030   
 Dsus4 :    xx0233
 Dsus2 :    xx0230
 D#dim7 :   xx1212   
 Dsus4/F# : 2x0233
 B7 :       x24242   

Intro:
 G G/B C9  X2


Verso:
 G Dsus4 
 No queda mas que tu no queda mas que yo
 Em C9 C Am 
 en este extraño salón  sin nadie que nos diga
       Em Dsus4 D Dsus2  
donde cómo y cuando nos besamoooooos


Verso:
 G Dsus4 
 Tenía ganas ya de pasar junto a ti
 Em C9 C Am 
 Unos minutos soñando, sin un reloj que cuente
       Em Dsus4 D Dsus2 
las caricias que te voy dandooooo,


Precoro:
     Em        D#dim7    Em7 Bm Am B7 
Juramento de sal y limón, prometimos querernos los dos.


Coro:
                 Em7 C9 
Te he echado de menos todo este tiempo
                     G Dsus4 D 
He pensado en tú sonrisa y en tú forma de caminar
                 Em7 C9 
Te he echado de menos he soñado el momento
                    G D 
de verte aquí a mi lado dejándote llevar


Intermedio:
 G G/B C9  X2


Verso:
 G Dsus4 
 Quiero que siga así tu alma pegada a mi
 Em C9 C Am 
 Mientras nos quedamos quietoos dejando
                    Em Dsus4 D Dsus2 
que la piel cumpla poco a poco todos sus deseoooooos


Verso:
 G Dsus4 
 Hoy no hay nada que hacer, quedémonos aquí
 Em C9 C 
 contándonos secretos,
     Am Em Dsus4 D Dsus2 
Diciéndonos bajito que lo nuestro siempre se hará eternooooo


Precoro:
      Em D#dim Em7 
Fantasía en una copa de aaalcohol,
      Bm Am B7 
Prometimos volver a vernos


Coro: ¬
    Em7 C9 G Dsus4 
... Yo te he echado de menos...     [X2]

        Em Bm 
Silencio...que mis dedos corren entre tus dedos
       Am B7 
Y con un suave desliz hago que se pare el tiempo



Intermedio X2 (acordes del Verso)


Coro: ¬


 Em7 C9 G Dsus4/F#  (varias veces y si quieren hacen un rasgueo
aaaa aaa aa aaa       hacia abajo en G para acabar)

Before He Cheats chords – Carrie Underwood V8

 Capo 2

Intro   Em D C D Em D C B7 Em D C 
Right now he's probably slow dancing with a bleached-blond tramp,
           B7 
and she's probably getting frisky...
 Em D C 
right now, he's probably buying her some fruity little drink
            B7  
'cause she can't shoot whiskey...
 Em D C 
Right now, he's probably up behind her with a pool stick,
             B7 Am 
showing her how to shoot a combo...
 Am B7 
And he don't know...

        C Em 
That I dug my key into the side
        C Em 
of his pretty little souped up 4 wheel drive,
 C Em B7 
carved my name into his leather seats...
          C Em 
I took a Louisville slugger to both headlights,
 C Em  
slashed a hole in all 4 tires...
 C B7 
Maybe next time he'll think before he cheats.

 Em D C B7 Em D 
Right now, she's probably up singing some
 C B7 
white-trash version of Shania karaoke.
 Em D 
Right now, she's probably saying, "I'm drunk"
 C B7  
and he's a-thinking that he's gonna get lucky,
 Em D  
Right now, he's probably dabbing on
   C B7 Am  
3 dollars worth of that bathroom Polo...

 Am B7 
Oh, and he don't know...

        C Em 
That I dug my key into the side
        C Em 
of his pretty little souped up 4 wheel drive,
 C Em B7 
carved my name into his leather seats...
          C Em 
I took a Louisville slugger to both headlights,
 C Em  
slashed a hole in all 4 tires...
 C B7 
Maybe next time he'll think before he cheats.

 Em G D C 
I might've saved a little trouble for the next girl,
            A 
'cause the next time that he cheats...
 B7 Em  
Oh, you know it won't be on me!

 D C B7 C Em 
That I dug my key into the side
        C Em 
of his pretty little souped up 4 wheel drive,
 C Em B7 
carved my name into his leather seats...
          C Em 
I took a Louisville slugger to both headlights,
 C Em  
slashed a hole in all 4 tires...
 C B7 
Maybe next time he'll think before he cheats.

 Am Bm6 C B7 
Oh, maybe next time he'll think before he cheats...

 Em D C B7 Em D C B7 Em *     
Oh, before he cheats... oh, oh.

Everyone I Know Has Fangs Tabs by He Is Legend V2

 ---------------------------------------------
  Everyone I Know Has Fangs - He Is Legend
---------------------------------------------
: millarso (Jake Miller)
 millarso2.0

Tuning: Drop C

SECTION 1
Guitar 1 (maybe both?)
D|------------------------------------------------------------------|
A|---------9b10r9---------10b11-10---------9b10r9-------------------|
F|-10~---9--------10-9~------------10~---9--------10-9~------10~----|
C|------------------------------------------------------12-------11-|x2
G|------------------------------------------------------------------|
C|------------------------------------------------------------------|

SECTION 2
Guitar 2
D|---------------------------|
A|---------------------------|
F|---------------------------|
C|---7-6-----7-6-----7-6-----|
G|-------------------------8-|
C|-0-----0-0-----0-0-----0---|

SECTION 3
Guitar 1 (Left Stereo)
D|---------------------------------------------------------|
A|---------------------------------------------------------|
F|------------------------------9--9-9-9-910---------------|
C|-12-1212121210--7--7-7-7-7-8--x--x-x-x-x-x--9--9-9-9-910-|
G|--x--x-x-x-x-x--x--x-x-x-x-x--7--7-7-7-7-8--x--x-x-x-x-x-|
C|-12-1212121210--7--7-7-7-7-8----------------9--9-9-9-910-|
||
Guitar 2 (Right Stereo)
D|---------------------------------------------------------|
A|---------------------------------------------------------|
F|------------------------------5--5-5-5-5-7---------------|
C|-8--8-8-8-8-10--3--3-3-3-3-5--5--5-5-5-5-7--5--5-5-5-5-7-|
G|-8--8-8-8-8-10--3--3-3-3-3-5--3--3-3-3-3-5--5--5-5-5-5-7-|
C|-8--8-8-8-8-10--3--3-3-3-3-5----------------5--5-5-5-5-7-|

Guitar 1
D|---------------------------------------------------------|
A|---------------------------------------------------------|
F|------------------------------9--9-9-9-910---------------|
C|-12-1212121210--7--7-7-7-7-8--x--x-x-x-x-x--9--9--9--910-|
G|--x--x-x-x-x-x--x--x-x-x-x-x--7--7-7-7-7-8--x--x--x--x-x-|
C|-12-1212121210--7--7-7-7-7-8----------------9--9--9--910-|
||
Guitar 2
D|---------------------------------------------------------|
A|---------------------------------------------------------|
F|------------------------------5--5-5-5-5-7---------------|
C|-8--8-8-8-8-10--3--3-3-3-3-5--5--5-5-5-5-7--5--5--5--5-7-|
G|-8--8-8-8-8-10--3--3-3-3-3-5--3--3-3-3-3-5--5--5--5--5-7-|
C|-8--8-8-8-8-10--3--3-3-3-3-5----------------5--5--5--5-7-|

Guitar 1
D|---------------------------------------------------------|
A|---------------------------------------------------------|
F|------------------------------9--9-9-9-910---------------|
C|-12-1212121210--7--7-7-7-7-8--x--x-x-x-x-x--9--9-9-9-910-|
G|--x--x-x-x-x-x--x--x-x-x-x-x--7--7-7-7-7-8--x--x-x-x-x-x-|
C|-12-1212121210--7--7-7-7-7-8----------------9--9-9-9-910-|
||
Guitar 2
D|---------------------------------------------------------|
A|---------------------------------------------------------|
F|------------------------------5--5-5-5-5-7---------------|
C|-8--8-8-8-8-10--3--3-3-3-3-5--5--5-5-5-5-7--5--5-5-5-5-7-|
G|-8--8-8-8-8-10--3--3-3-3-3-5--3--3-3-3-3-5--5--5-5-5-5-7-|
C|-8--8-8-8-8-10--3--3-3-3-3-5----------------5--5-5-5-5-7-|

Guitar 1
D|----------------------------------------------------------------------|
A|----------------------------------------------------------------------|
F|----------------------------------------------------------------------|
C|-12-1212121210--7--7-7-7-7-8--7-7-7-7-7-7-7-7-11-11-11-11-11-11-11-11-|
G|--x--x-x-x-x-x--x--x-x-x-x-x--7-7-7-7-7-7-7-7-11-11-11-11-11-11-11-11-|
C|-12-1212121210--7--7-7-7-7-8--7-7-7-7-7-7-7-7-11-11-11-11-11-11-11-11-|
||
Guitar 2
D|----------------------------------------------------------------------|
A|----------------------------------------------------------------------|
F|------------------------------6-6-6-6-6-6-6-6-10-10-10-10-10-10-10-10-|
C|-8--8-8-8-8-10--3--3-3-3-3-5--x-x-x-x

Giving Him Something He Can Feel chords – En Vogue V2

 Here it is in the proper key. You walk the bass a few notes, its straight forward 
if you hear the song. Thanks for rating! Cloud9

Intro

 C ,  C/A ,      F/D ,    F/G  
            Shooo...

 C C/A 
Many say that I'm too young
 F/D F/G 
To let you know just where I'm 

 G G G G  
coming from, yeah
 C C/A     
But you will see,     it's 
        F/D F/G 
just a matter of time My love will  
 G               
surely make you mine
 
       C C/A 
Well, I'm livin' in a world of ghetto life
 F/D F/G 
Everyone seems so uptight  

 C C/A 
But nothin's wrong and it's  
         F/D F/G  
alright with my man (my man)
 C C/A  
I like the way we carry on 
 F/D F/G C C/A 
His love will send me on and on, with my man
 F/D F/G 
People out there can understand 
 C C/A 
I’m giving him something he can
      F/D F/G C C/A 
feel     To let him know this love is 
      F/D F/G C C/A 
real         I'm giving him something he can
      F/D F/G C C/A 
feel    To let him know this love is
      F/D F/G C 
real This Oh my love is real This love is real

 C/A F/D  
So much joy for us, it seems 
 F/G C 
So much hope for material things
 C/A F/D F/G 
Are they only in my dreams?
 C C/A 
And that's exactly why I'm singing  
 F/D F/G             
this song to you To let you know that real  
 C C/A F/D F/G 
dreams do come true You tell me what does it mean 

 C C/A 
Well, I'm livin' in a world of ghetto life
 F/D F/G 
Everyone seems so uptight  
 C C/A 
But nothin's wrong and it's  
         F/D F/G  
alright with my man (my man)
 C C/A 
I like the way we carry on 
 F/D F/G C C/A 
His love will send me on and on, with my man
 F/D F/G 
People out there can understand 
 C C/A 
I'm giving him something he can
      F/D F/G C C/A 
feel     To let him know this love is 
      F/D F/G C C/A 
real         I'm giving him something he can
      F/D F/G C C/A 
feel    To let him know this love is real

Continue til the end...

He Aint Never Done Me Nothin But Good chords – The Isaacs

         CHORUS
   G C 
 He ain't never done me nothin'
   G C 
 Done me nothin' but good

 Nothin' but good

 Ooo, ooo ooo,
   G C 
 He ain't never done me nothin'
   G C 
 Done me nothin' but good,
   G C 
 Nothin' but good.

        VERSE 1
   G C 
 Job was a righteous man, the devil couldn't doubt it.
   G C 
 He surely loved the Saviour, there was no doubt about it.
   G C 
 But satan cursed his body from his feet to his head;
   G C 
 Told him all his children and his cattle we dead.
   G C 
 Job's wife said, "Why don't you curse your God and die?"
       G C 
 But Job said, "Woman, you're speakin' like a foolish child".

        CHORUS

        VERSE 2

 I gave my heart to Jesus and I took Him as my Saviour.

 I cast my lots with the chosen ones and I started out to Heaven.

 Soon I was forsaken and my friends left one by one; 

 But the good Lord walked beside me and He never left me alone.

 He feed me when I was hungry,

 He cheered me when I was sad.

 He has been the dearest friend this child has ever had.

        CHORUS

        VERSE 3

 History tells of Polycarp who died for the gospel's sake.

 They built a fire around him and they tied him to a stake.

 But the fire could not comsume him,

 So they pierced him with a sword.

 The fire went out, the blood ran down,

 But still he praised the Lord.

 All my years I've served Him, He ain't done me nothin' but good.

 Well, I won't repent and I won't recant, 

 Just tell me why I should.

 CHORUS

Dont Touch That Dial Tabs by He Is Legend

 ------------------------------------------
   Don't Touch That Dial - He Is Legend
------------------------------------------
: millarso (Jake Miller)
 millarso2.0

Tuning: Drop C
INTRO
Guitar 1 (let notes ring as much as possible)
D|------------------------------|
A|---3----------3--------3------|
F|--0-------3\5------3/5--------|
C|-0----------------------------|
G|------------------------------|
C|------------------------------|
||
Guitar 2
D|------------------------------|
A|---3----------3--------3-/6\3-|
F|--0-------3/5------3/5--------|
C|-0----------------------------|
G|------------------------------|
C|------------------------------|

SECTION 1
Guitar 1
D|-10---10---8---8---6---6--------------|
A|----8----8---8---8---8---8-10-11-10-8-|
F|--------------------------------------|
C|--------------------------------------|x8
G|--------------------------------------|
C|--------------------------------------|
||    .    .   .   .   .   .  .  .  . .
||
Guitar 2
D|------------------------------------------------------3------3------|
A|--------------------3------------------------6--------3------3------|
F|-5~----5~----5~-------3---5~----5~----5~-------3------0------0------|
C|------------------------0------------------------0-0--0------0------|x2
G|--------------------------------------------------------------------|
C|--------------------------------------------------------------------|

SECTION 2
Guitar 1 (Gtr 1 & 2 tremolo pick for almost the entire section)
D|---------|
A|-TP------|
F|-7-------|
C|---------|
G|---------|
C|---------|
||
Guitar 2
D|-TP------|
A|-8-------|
F|---------|
C|---------|
G|---------|
C|---------|
||
Extra Guitar
D|----------------------------------------------------------------------|
A|----------------------------------------------------------------------|
F|---------------------------------10-----------------------------------|
C|-10-10-10-10-10-10-10-10-8-8-8-8-10---5-5-5-5-5-5-5-5-7-7-7-7-7-7-7-7-|x3
G|-10-10-10-10-10-10-10-10-8-8-8-8--8---5-5-5-5-5-5-5-5-8-8-8-8-8-8-8-8-|
C|-10-10-10-10-10-10-10-10-8-8-8-8------5-5-5-5-5-5-5-5-7-7-7-7-7-7-7-7-|
    .  .  .  .  .  .  .  . . . . .      . . . . . . . . . . . . . . . .

Guitar 1
D|---------|
A|-TP------|
F|-7-------|
C|---------|
G|---------|
C|---------|
||
Guitar 2
D|-TP------|
A|-8-------|
F|---------|
C|---------|
G|---------|
C|---------|
||
Extra Guitar
D|-------------------------------|
A|-------------------------------|
F|-------------------------------|
C|-10-10-10-10-10-10-11-12\--3---|
G|-10-10-10-10-10-10-11-12\--3---|
C|-10-10-10-10-10-10-11-12\--3---|
    .  .  .  .  .  .  .

Both Guitars (accent on marked notes)
D|-----------------------------|
A|-----------------------------|
F|-^---^-----^-----^---^---^---|
C|-5-5-5-5-5-5-5-5-5-5-5-5-5---|
G|-5-5-5-5-5-5-5-5-5-5-5-5-5---|
C|-5-5-5-5-5-5-5-5-5-5-5-5-5---|

SECTION 3
Guitar 1
D|----------------------------------|
A|----------------------------------|
F|-3-3-3-101010-5-5-5-7-7-7-7/8\7\5-|
C|-x-x-x--x-x-x-x-x-x-x-x-x-x-------|x4
G|-1-1-1--8-8-8-3-3-3-5-5-5-5/6\5\3-|
C|----------------------------------|
||
Guitar 2
D|---------------------------------------|
A|---------------------------------------|
F|---------------------------------------|
C|-5-5-5-10-10-10-8-8-8-12-12-12-8-8-7-8-|x4
G|-5-5-5-10-10-10-8-8-8-12-12-12-8-8-7-8-|
C|-5-5-5-10-10-10-8-8-8-12-12-12-8-8-7-8-|

TRANSITION (lot of tracks doing stuff here, might have mixed them together)
Guitar 1
D|---------------------|
A|---------------------|
F|-/7~--------10b12~---|
C|------------10-------|
G|---------------------|
C|---------------------|
||
Guitar 2
D|---------------------|
A|---------------------|
F|---------------------|
C|--5---------7--------|
G|--5---------8--------|
C|--5---------7--------|

REPEAT SECTION 1

REPEAT SECTION 2

REPEAT SECTION 3

He Was A Friend Of Mine chords – Dave Van Ronk

 #-------------------------------PLEASE NOTE-------------------------------------#
# This file is the author's own work and represents their interpretation of the #
# song. You may only use this file for private study, scholarship, or research. #
#-------------------------------------------------------------------------------#
He Was A Friend Of Mine chords
Dave Van Ronk  (traditional song, earliest version as Shorty George 1939, author(s) unknown)

Capo III

 G D G 
He was a friend of mine
 D G 
He was a friend of mine
 C G D 
never had no money
                G 
To pay for his fine
 G D G 
he   was a friend of mine

 D G 
He died on the road
 D G 
He died on the road
 C G D 
never had no money
                G 
To pay for his board
 G D G 
he   was a friend of mine

 D G 
He never done no wrong
 D G 
He never done no wrong
 C G D 
He was just a poor boy
                 G 
A long way from home
 G D G 
he   was a friend of mine

 G D  2x   C G D G G D G D G 
I stole away and cried
 D G 
I stole away and cried
 C G D 
I never had no money
                     G 
And I can t be satisfied
 G D G 
he   was a friend of mine

 D G 
He was a friend of mine
 D G 
He was a friend of mine
 C G D 
When I hear his name
                                 G 
you know I just can t keep from crying
 G D G 
he   was a friend of mine

 D G  . .

Set8

Does He Know chords – One Direction V2

 VERSE

He knows about you in every way
He's memorized every part of your face
Inside and out, baby, head to toe
Yeah, he knows everything there is to know

    G# C#        slide to   Fm   

e|--X--------X-------------------X-------------------------------|
B|--X--------4-------------------9-------------------------------|
G|-13--------6-------------------10------------------------------|
D|-13--------6-------------------10------------------------------| x4
A|-11--------4-------------------8-------------------------------|
E|---------------------------------------------------------------|

PRECHORUS pt1

Your secret tattoo, the way you change moods
The songs that you sing when you're all alone

     Fm D# C# C#    slide up to     Fm Fm D# C# D#   
 
e|--X-------X-------X-----X--------------------X---------X--------X-----X----X-------------|
B|--9-------X-------X-----X--------------------9---------9--------X-----X----X-------------|
G|--10------8-------6-----6--------------------10--------10-------8-----6----8-------------|
D|--10------8-------6-----6--------------------10--------10-------8-----6----8-------------|
A|--8-------6-------4-----4--------------------8---------8--------6-----4----6-------------|
E|--X-------X-------X-----X--------------------X---------X--------X-----X----X-------------|

PRECHORUS pt2

Your favorite band, and the way that you dance

     Fm D# C# C# Fm        

e|--X------X--------X-------X--------X-------------|
B|--9------X--------X-------X--------9-------------|
G|--10-----8--------6-------6--------10------------|
D|--10-----8--------6-------4--------10------------|
A|--8------6--------4-------4--------8-------------|
E|--X------X--------X-------X--------X-------------|

PRECHORUS pt3

But, baby, baby


    Fm slide to D#   twice
e|---X----------X---------X--------X--------|
B|---9----------X---------9--------X--------|
G|---10---------8---------10-------8--------|
D|---10---------8---------10-------8--------|
A|---8----------6---------8--------6--------|
E|---X----------X---------X--------X--------|

CHORUS

 G# D# A# D# 
Does he know you can move it like that?
 G# D# A# 
Whoa-oh-oh-oh
 G# D# Cm D#    
Does he know you're out and I want you so bad?
 G# D# A# 
Whoa-oh-oh-oh
 G# D# D#/D G# D# Fm 
Tonight you're mine, baby.
 G# D# A# D# 
Does he know that you'll never go back?
 G# D# A# 
Whoa-oh-oh-oh
           G# D# Fm 
Does he know?

VERSE (same as verse above)

I catch your eye then you turn away
But there's no hiding the smile on your face
Inside and out, baby, head to toe
He's not around, girl, you let me know

PRECHORUS (same as prechorus above; pt1, 2, 3)

Your secret tattoo, the way you change moods
The songs that you sing when you're all alone
He knows how you dance in front of your friends
But, baby, baby

CHORUS (same as chorus above)

Does he know you can move it like that?
Whoa-oh-oh-oh
Does he know you're out and I want you so bad?
Whoa-oh-oh-oh
Tonight you're mine, baby.
Does he know that you'll never go back?
Whoa-oh-oh-oh
Does he know?

BRIDGE

He'll never know
 G# D# A# 
The way you lie when you look at me
 G# D# A# 
So keep trying but you know I see
 D# Cm A#<

He Will Lift You Up chords – Praise And Worship

 -------------------------------------------------------------------------
                           He Will Lift you Up
-------------------------------------------------------------------------

 ***************************************************************
 *     "markchordz" 6 Years in the road(UG)                    *
 * Thanks for supporting my tabs here in Ultimate-guitar.com   * 
 ***************************************************************


************************************************************************** 
*Read first: Pls Rate, leave some comments and be sure that your         *
* guitar "tune" well before playing this song..                          *
*                                                                        *
*            All Rights Reserved © Copyright 2014                        *
************************************************************************** 


             F F7 
He will lift you up

               Bb 
And move you around

   C 
Just open up your heart

             Bb C 
And let his spirit come in you

          F F7 
He'll pick up,

                     Bb 
And he will never turn you down

  C 
Just call upon his name

         Bb F  
And let him reign

       C  
The Lord is my light

          Bb F 
The lord is my strength

   C  
HE is my refuge,

  Bb C 
HE is my salvation

He Knows My Name solo Tabs by Tommy Walker

 -------------------------------------------------------------------------------
                             He Knows My Name - Tommy Walker
-------------------------------------------------------------------------------

Solo in the key of C according to http://www.youtube.com/watch?v=NXKWsfbizB4

e|----------------------------------------------10-12-12---10--13-12-10------|
B|-------------------------------------10-12-13--------------13---------13~--|
G|-5-7-9h10-9--5---/9-9--7p5-7~----12----------------------------------------|
D|---------------7~--------------12------------------------------------------|
A|---------------------------------------------------------------------------|
E|---------------------------------------------------------------------------|

e|--------------------------------------------12-13-12p10--------------------|
B|-13--------------------------------------13-------------13~----------------|
G|-14-12h14--------------------------(9)-------------------------------------|
D|----------10-------10-14-14-12-12-10---------------------------------------|
A|--------------10h12---15-15-10-10-10---------------------------------------|
E|---------------------------------------------------------------------------|

************************************

| /   slide up
| \   slide down
| h   hammer-on
| p   pull-off
| ~   vibrato
| +   harmonic
| x   Mute note
| b   Bend
| pb  Pre-bend
| br  Bend release
| pbr Pre-bend release
| brb Bend release bend

************************************

He Hit Me And It Felt Like A Kiss chords – Crystals V2

 He Hit Me:The Crystals.
Recorded on PHILLIES Records in
1962. (Did not chart..pretty obvious why.
And it got little air play. But they can't
all be great.)


INTRO:  G A  (x3)

#1.
 G A G A G 
He hit me..and it felt like a kiss..he hit me but 
    A D Em 
it didn't hurt me.
 D Em G A F# 
He couldn't stand to hear me say..that I'd been with 
         Bm 
someone new.
     G A F# Dbm Bm 
And when I told him I had been untrue..

#2.
    G A G 
He hit me..(da-da-da-ah)..and it felt like a kiss..

(felt like a kiss.)
 G A D 
He hit me..(da-da-da-ah)..and I knew he loved me.
 A G A F# Bm         
If he didn't care for me, I could have never made him mad.
        G A B 
But he hit me..(da-da-da-ah)..and I was glad.


INTERLUDE:  A G Db B Db F# 

#3.
         G A G 
Yes, he hit me..(da-da-da-ah)..and it felt like a kiss..

(felt like a kiss.)
 A G A D 
He hit me..(da-da-da-ah)..and I knew I loved him.
 A G A D F# 
And then, he took me in his arms with all the tenderness 
       Bm G A B 
there is..and when he kissed me..(da-da-da-ah)..he made me, his.


A sixties smash from Kraziekhat.

He Who Would Valium Take chords – Half Man Half Biscuit

 (intro  C F C G7 C )
     C F 
The car that's parked on a pavement narked
   C G7 C  
Pedestrians and children with chalk
                                  F 
Their games, their shapes, their capers, their japes
    C G7 C 
Destroyed by a thoughtless shitehawk.
                              F C G 
And yea though I walk in the road to get past, I'm not in the least afraid
     C F 
For soon I shall fly to the sweet by and by
  C G7 C 
Away from a world without shade.
                          F C G7 C 
A streaker streaks and a nation shrugs at a saucer-like disc in the sky
   C F 
A stag weekend is a poor weekend
        C G7 C 
If the army is not on standby.
                          F 
Pub grub, pub games, pub bands, pub names
     C G 
The Pit Bull that's great with kids
    C F 
If Chelsea, Chantelle and Jordan should gel
    C G7 C 
My fears would be laid to my skids.
                              F C G7 C 
The maverick cops with their average flasks and boring unorthodox ways
     C F 
The previous life as a Pharaoh's wife
    C G7 C 
Is mightily irksome these days.
                       F C G 
The Lady In Red hides under the bed from a husband who quotes Chubby Brown
      C F 
It's cold and it's wet and the knell of regret
    C G7 C 
Is pealing throughout every town
                   G7 C 
Is pealing throughout every town.