Tag: Heart

Thank You For Breaking My Heart chords – Alexz Johnson

 Thank You For Breaking My Heart by Alexz Johnson
2013


Standard Tuning
No Capo


Chords:

 C :     x32010
 Gm :    355333
 Am :    x02210
 Bb :    x13331
 F :     x33211 or 133211
 D7 :    xx0212
 E7 :    020100


 C Gm 
 You never took my side
                      Am 
 Never let me shine

 It was never the truth
   Bb F 
 Lies, lies

 C Gm 
 Let me believe 

 That you'll never leave
                  Am 
 I thought I had nothing to lose
   Bb F 
 Why, why

       C G                        
 Now here I am, singing the blues


                F    ( C )       E7 Am 
 But I wanna thank you for letting me down
           F             ( C )        E7 Am 
 Cause I won't fall as hard the next time around
          F D7 G Am 
 I know life isn't fair, and you told me to suffer the scars
                F C G      ( F )
 But I wanna thank you for breaking my heart


 C Gm 
 I let you inside

 I treated you kind
     Am Bb F 
 I wait for you every time and time

 C Gm 
 And I should've known 

 I'd be better alone
       Am 
 But none of it was real
          Bb F 
 I was blind, blind

       C G 
 Now here I am, singing the blues


                F    ( C )       E7 Am 
 But I wanna thank you for letting me down
           F             ( C )        E7 Am 
 Cause I won't fall as hard the next time around
          F D7 G Am 
 I know life isn't fair, and you told me to suffer the scars
                F C G      ( F )
 But I wanna thank you for breaking my heart


 E7 Am 
 If you hadn't left me hurting so bad
 E7 Am 
 No, I'd never know how strong I am
 E7 Am 
 I wouldnt be ready to meet somebody new
     F G 
 A real man


                F    ( C )       E7 Am 
 But I wanna thank you for letting me down
           F             ( C )        E7 Am 
 Cause I won't fall as hard the next time around
          F D7 G Am 
 I know life isn't fair, and you told me to suffer the scars
                F C G      ( F )
 But I wanna thank you for breaking my heart
            F C G F C 
 I wanna thank you for breaking my heart


 End on  C

Gone chords – The Head And The Heart V2

 -------------------------------------------------------------------------------
                            Gone - The Head and the Heart
-------------------------------------------------------------------------------
: scarlberg25


Personally my favourite song from their new album. Great Band.

Capo 1

Intro:

 A Asus4 A Asus4 A Asus4 
There were times you should have stopped
                                    A 
As you sailed into the fog
                          Asus4 
Like a dog I smelled your fear
                    C#m Bm A 
Lord know you shouldve been here with me, but you were gone

 A Asus4 
These days roll sleepily by
                               A 
I can hear the old trains cry
                             Asus4 
They will always be at home
                               A 
Pulling me away from you

 A C#m Bm A 
Youre goooone gooooone gone
 A C#m Bm A 
Gooooone gooone gone

 A 
Gone are the days when the wind would brush my face
 Asus4 
Gone are the days when youre the wind
     A C#m Bm F#m 
And goooooone are the days when my heavy heart
      E A 
was worn on my sleeve

 A Asus4 
Ooooooooooooooooo     x2

 Asus4 A 
Take back your pictures
Take back your letters
                  Asus4 
Dont send me no postcards telling me you miss me
           A 
Cause Im trying here
    Asus4 
Oh, Im trying here
                    A 
Fuck what theyre saying
'Cause my mind is made up
                    Asus4 
And theyre all just starving
Like the rest of us
         A Asus4 
And Im trying here, oh Im trying here
                                 A Asus4 
And you don't even see


 A 
Gone are the days when the wind would brush my face
 Asus4 
Gone are the days when youre the wind
     A C#m Bm F#m 
And goooooone are the days when my heavy heart
      E A 
was worn on your sleeve

 A Asus4  x2

e |-----------------------------------------|
B |-----------------------------------------|
G |--------1h2--1---------------------------|
D |-----------------2-------2---------------|        x2
A |---0-0---------------4-------------------|
E |-----------------------------------------|

e |-----------------------------------------|
B |-----------------------------------------|
G |----------1h2--1-------------------------|
D |---0-0-------------2---0---2-------------|       x2
A |-----------------------------------------|
E |-----------------------------------------|

(Doo doo doo doo do do)


 A 
Whether it's your head or your heart

And you're too damn scared to start
 Asus4 
It's in your mind and your soul

But you just don't know where to go

 A 
It's in your head and your heart

And you're too damn scared to start
 Asus4 
It's in your mind and your soul

But you just don't know where to go
 A 
Now you're gone

Cruel chords – The Head And The Heart

 -------------------------------------------------------------------------------
                             Cruel - The Head and the Heart
-------------------------------------------------------------------------------
: scarlberg25

Tuning: No Capo

Intro

 C  |  G  |  F  |  Am G  | 

 C G F              
I can't seem to find no peace anymore
      Am G 
I'll come out of this, out of this
 C G F       
Everywhere I turn, there seems to be another war
      Am G 
We'll come out of this, out of this

 C G F    
Nothing's gone right, I'm at my wits end
    Am G 
I swear I'll come out of this, out of this
 C G F     
But you're losing your mind with no hope in sight
      Am G 
I promise you out of this.

 C 
Like the wind in the trees
 G 
A cool summer breeze 
 F 
Like the curls in your hair
 Am G 
Everyone stares
 C 
At the hole in the wall
 G 
It's all in your head 
 F 
There's a memory there
 Am G 
All through the night


    Dm F C 
I tried being cruel, it's just not in me 
            G 
It's just not in you 
    Dm F C 
I tried being cruel, it's just not in me 
              G C G 
It's just not in you, it's just not in you  


Bridge:
  Dm 
Now that we've come to the end
  F 
Find that we're right where we began
  C 
Now that we've come to the end
  G 
Find that we're right where we began         x2


Outro:

    Dm F C 
I tried being cruel, it's just not in me 
           G 
It's just not in you 
    Dm F C 
I tried being cruel, it's just not in me 
           G 
It's just not in you 
    Dm F C 
I tried being cruel, it's just not in me 
           G 
It's just not in you 
    Dm F C 
I tried being cruel, it's just not in me 
           G C 
It's just not in you, it's just not in you  


Lets Be Still chords – The Head And The Heart V2

 Let's Be Still - The Head and The Heart

Capo 2

Chords (from low to high strings):
 G  - 330023
 Cadd9  - 330230
 Dsus4  - 332000
 C  - 010230
 D  - 232000
 B#m  - 234422
 Em  - 000220
 Fm  - 000012


Intro

 G Cadd9 Dsus4   x2    

 G 
You can get lost in the music for hours, honey
 Cadd9 G      
You can get lost in a room
 G 
We can play music for hours and hours
 Cadd9 G 
But the sun will still be coming up soon

 C D 
  The world's just spinning
 C D 
  A little too fast
 C D G 
  If things don't slow it down soon
 Fm Em               
We might not last
 C D G 
  So just for a moment lets be still


 G Cadd9 Dsus4   x2

 G 
You can get lost in the music for hours, honey
 Cadd9 G 
You can get lost in a room
 G 
We can play music for hours and hours
 Cadd9 G 
but the sun will still be coming up soon


 C D 
  The world's not forgiving
 C D 
  Of everyone's fears
 C D 
  The day is turning into months
      G Fm Em 
The month's turning to years
 C D G Cadd9 Dsus4 
  So just for a moment lets be still


 G Cadd9 Dsus4 B#m Em 
  Let tear it down
 B#m G 
  So we can rebuild
 C D 
  And all of this time
            G Fm Em 
It's just circles in my mind
 C D 
  So just for a moment
 C D 
  Just for one moment
 C D G 
  Just for a moment let's be still

 Cadd9 Dsus4 G 
  Just for a moment let's be still
 Cadd9 Dsus4 G 
  Just for a moment let's be still
 Cadd9 Dsus4 G 
  Just for a moment let's be still


e |-12-12-12-12-12|-9--9--9----4-4-4|
B |-14-14-14-14-14|-10-10-10---5-5-5|
G |-14-14-14-14-14|-9--9--9----4-4-4|
D |---------------|-----------------|
A |---------------|-----------------|
E |---------------|-----------------|

Riff x3
Ain't no time left for me
It's got me seeing so clearly
Ain't no time for me, no


 C D 
  The world is just spinning
 C D 
  A little too fast
 C D G 
  If things don't slow it down soon
     Fm Em 
We might not last
 C D 
  The world's not forgiving
 C D 
  Of everyone's fears
 C D 
  The day is turning into months
      G Fm Em     
The month's turning to years
 C D G 
  So just for a moment let's be still

 Cadd9 Dsus4 G 
  Just for a moment let's be still
 Cadd9 Dsus4 G 
  Just for a moment let's be still
 Cadd9 Dsus4 G 
  Just for a moment let's be still
 Cadd9 Dsus4 G 
  Just for a moment let's be still
 Cadd9 Dsus4 G 
  Just for a moment let's be still
 Cadd9 <spa

Firefear chords – The Head And The Heart V3

 Based on their KEXP performance. Corrected from the other tabs already up.

Capo V

 C Am 
It's a long way to the other room
           Dm G 
While I'm grading papers and tying shoes, oh
 C Am 
You never had much to lose
        Dm G 
So I'm blaming you for these hopeless blues


 C Am 
What's to say when the kids are gone?
      Dm G 
I've made up the beds and been left alone
 C Am 
You look at me, as cold as a stone
        Dm G 
There's no way to right what's been done wrong


 Dm G C G Am 
You left me a fool
    Dm G C G Am 
So what to do?
 Dm G C 
What to do?


    C Am 
So hold me down if I'm running off
          Dm G 
They say it gets better, baby, soon enough
         C Am 
So I'll shut my mouth and I'll steel my heart
       Dm G 
But I still feel like a girl, thinking when we started, and


 Dm G C G Am 
I want to feel the fire again, with you or anybody else
 Dm G C G Am 
I want to feel the fear again, with you or anybody else
    Dm G C G Am 
So what to do?  
 Dm G C G Am 
What to do?
 Dm G C 
What to do?     

Half A Heart chords – One Direction V3

 One Direction
Half a Heart

 C# G#/C 
So your friends been telling me
                             A#m 
You've been sleeping with my sweater
             F# 
And that you can't stop missing me
 C# G#/C 
Bet my friends been telling you
                   A#m 
I'm not doing much better
            F# 
Because I'm missing half of me


 A#m 
And being here without you
 G#/C 
It's like I'm waking up to


 C# 
Only half a blue sky
 G#/C 
Kinda there but not quite
 A#m F# 
I'm walking round with just one shoe

I'm a half a heart without you
 C# 
I'm half the man, at best
 G#/C 
With half an arrow in my chest
 A#m F# 
I miss everything we do

I'm a half a heart without you


 C# G#/C 
Forget all we said that night
                   A#m 
No it doesn't even matter
         F# 
Cause we both got split in two
 C# G#/C 
If you could spare an hour or so
                                   A#m 
We'll go for the lunch down by the river
         F# 
We could really talk it through

 A#m 
And being here without you
 G#/C 
It's like I'm waking up to


 C# 
Only half a blue sky
 G#/C 
Kinda there but not quite
 A#m F# 
I'm walking round with just one shoe

I'm a half a heart without you
 C# 
I'm half the man, at best
 G#/C 
With half an arrow in my chest
 A#m F# 
Cause I miss everything we do
                               C# 
I'm a half a heart without you

 G#/C A#m 
Half a heart without you
 F# 
I'm a half a heart without you


 G#/C A#m F# 
Though I try to get you out of my head
             C# G#/C 
The truth is I got lost without you
    A#m F# G#/C 
And since then I've been waking up to



 C# 
Only half a blue sky
 G#/C 
Kinda there but not quite
 A#m F# 
I'm walking round with just one shoe

I'm a half a heart without you
 C# 
I'm half the man, at best
 G#/C 
With half an arrow in my chest
 A#m F# 
Cause I miss everything we do
                               C# 
I'm a half a heart without you



Without you, without you
 G#/C 
Half a heart without you
 A#m 
Without you, without you
 F# C# 
I'm half a heart without you

Half A Heart Tabs by One Direction

 Capo 5
------

Intro:

  G
E|-------------------------|
B|-------------------------|
G|-----0-----------0-------|
D|---0---0---0---0---0---0-|
A|---------2-----------2---|
E|-3-----------3-----------|

Verse:

  G                       D/F#                     Em                      C
E|-------------------------------------------------------------------------------------------------|
B|-----------------------------------------------------------------------------1-----------1-------|
G|-----0-----------0-----------2-----------2-----------0-----------0---------0---0---0---0---0---0-|
D|---0---0---0---0---0---0---0---0---0---0---0---0---2---2---2---2---2---2---------2-----------2---|
A|---------2-----------2-----------0-----------0-----------2-----------2---3-----------3-----------|
E|-3-----------3-----------2-----------2-----------0-----------0-----------------------------------|x2

Bridge:

  Em                       D/F#
E|-------------------------------------------------|
B|-------------------------------------------------|
G|-----0-----------0-----------2-----------2-------|
D|---2---2---2---2---2---2---0---0---0---0---0---0-|
A|---------2-----------2-----------0-----------0---|
E|-0-----------0-----------2-----------2-----------|

Chorus:

  G                        D/F#                    Em                      C
E|-------------------------------------------------------------------------------------------------|
B|-----------------------------------------------------------------------------1-----------1-------|
G|-----0-----------0-----------2-----------2-----------0-----------0---------0---0---0---0---0---0-|
D|---0---0---0---0---0---0---0---0---0---0---0---0---2---2---2---2---2---2---------2-----------2---|
A|---------2-----------2-----------0-----------0-----------2-----------2---3-----------3-----------|
E|-3-----------3-----------2-----------2-----------0-----------0-----------------------------------|x2

Little Transition between verse and chorus:

  G
E|-------------------------|
B|-------------------------|
G|-----0-----------0-------|
D|---0---0---0---0---0---0-|
A|---------2-----------2---|
E|-3-----------3-----------|

Verse:

  G                       D/F#                     Em                      C
E|-------------------------------------------------------------------------------------------------|
B|-----------------------------------------------------------------------------1-----------1-------|
G|-----0-----------0-----------2-----------2-----------0-----------0---------0---0---0---0---0---0-|
D|---0---0---0---0---0---0---0---0---0---0---0---0---2---2---2---2---2---2---------2-----------2---|
A|---------2-----------2-----------0-----------0-----------2-----------2---3-----------3-----------|
E|-3-----------3-----------2-----------2-----------0-----------0-----------------------------------|x2

Bridge:

  Em                       D/F#
E|-------------------------------------------------|
B|-------------------------------------------------|
G|-----0-----------0-----------2-----------2-------|
D|---2---2---2---2---2---2---0---0---0---0---0---0-|
A|---------2-----------2-----------0-----------0---|
E|-0-----------0-----------2-----------2-----------|

Chorus:

  G                        D/F#                    Em                      C
E|-------------------------------------------------------------------------------------------------|
B|-----------------------------------------------------------------------------1-----------1-------|
G|-----0-----------0-----------2-----------2-----------0-----------0---------0---0---0---0---0---0-|
D|---0---0---0---0---0---0---0---0---0---0---0---0---2---2---2---2---2---2---------2-----------2---|
A|---------2-----------2-----------0-----------0-----------2-----------2---3-----------3-----------|
E|-3-----------3-----------2-----------2-----------0-----------0---------------------------

Half A Heart chords – One Direction V2

 Tuning: Standard
Capo: 5
Difficulty: Easy

 G : 320003
 D : xx0232
 Em  022000
 C : x32010

 G D 
So your friend's been telling me
                                   Em 
You've been sleeping with my sweater
              C G 
And that you can't stop missing me
                                 D 
Bet my friend's been telling you
                        Em 
I'm not doing much better
             C Em 
Because I'm missing half of me


                           D 
And being here without you
                         G 
Is like I'm waking up to


                     D 
Only half a blue sky
                           Em 
Kinda there, but not quite
                                    C 
I'm walking 'round with just one shoe
                             G 
I'm half a heart without you
                        D 
I'm half a man, at best
                            Em 
With half an arrow in my chest
                        C 
I miss everything we do
                             G 
I'm half a heart without you


                          D 
Forget all we said that night
                      Em 
No, it doesn't even matter
           C G 
'cause we both got split in two
                                 D 
If you could spare an hour or so
                                 Em 
We'll go for lunch down by the river
        C Em 
We can really talk it through


                           D 
And being here without you
                         G 
Is like I'm waking up to


                     D 
Only half a blue sky
                           Em 
Kinda there, but not quite
                                    C 
I'm walking 'round with just one shoe
                             G 
I'm half a heart without you
                        D 
I'm half a man, at best
                            Em 
With half an arrow in my chest
                        C 
I miss everything we do
                             G D 
I'm half a heart without you
                         Em C 
Half a heart without you
                             D 
I'm half a heart without you


                         Em C 
Though I try to get you out of my head
               G D 
The truth is I got lost without you
     Em C D G 
And since then I've been waking up to


                     D 
Only half a blue sky
                           Em 
Kinda there, but not quite
                                    C 
I'm walking 'round with just one shoe
                             G 
I'm half a heart without you
                        D 
I'm half a man, at best
                            Em 
With half an arrow in my chest
                        C 
I miss everything we do
                             G 
I'm half a heart without you


                         D 
Without you, without you
                         Em 
Half a heart without you
                         C 
Without you, without you
                             G 
I'm half a heart without you

Half A Heart Tabs by One Direction V2

 Hi there!  I just had to tab this song.  I love simple
picking patterns in songs like this :) So, I tabbed this
from youtube, which I NEVER do because they are pitched
constantly, but it doesn't sound pitched.  Worse case 
scenario- The album is released and this turns out to be 
pitched, it will just be a capo change and I'll update 
a.s.a.p. with the change :)

*NOTE*
*Pay attention to the numbers in the ( )'s next to the chords. This is how many
 times that chord pattern is picked.  Play along with the song to get the timing 
 down. :)



STANDARD TUNING w/
CAPO ON 5


      
     G (x4)               D/F# (x2)           Em7 (x2)          C (x2)
e|---------3------------------2-----------------0-----------------0-----------|
B|---------3--3---3-----------3--3---3----------3--3---3----------1--1---1----|
G|------0-------0----------2-------2---------0-------0---------0-------0------|
D|----------------------------------------------------------------------------|
A|-----------------------------------------------------------3----------------|
E|---3------------------2-----------------0-----------------------------------|

G                            D/F#
So your friends been telling me
                             Em7                     
You've been sleeping with my sweater
             C               
And that you can't stop missing me




     G (x2)               D/F# (x2)           Em7 (x2)          C (x2)
e|---------3------------------2-----------------0-----------------0-----------|
B|---------3--3---3-----------3--3---3----------3--3---3----------1--1---1----|
G|------0-------0----------2-------2---------0-------0---------0-------0------|
D|----------------------------------------------------------------------------|
A|-----------------------------------------------------------3----------------|
E|---3------------------2-----------------0-----------------------------------|

G                           D/F#
Bet my friends been telling you
                   Em
I'm not doing much better
            C
Because I'm missing half of me




    Em7 (x2)            D/F# (x2)
e|--------0----------------2-----------|
B|--------3--3---3---------3--3---3----|
G|-----0-------0--------2-------2------|
D|-------------------------------------|
A|-------------------------------------|
E|--0----------------2-----------------|

Em                          D/F#
  And being here without you,   It's like I'm waking up to





     G (x2)               D/F# (x2)           Em7 (x2)          C (x2)
e|---------3------------------2-----------------0-----------------0-----------|
B|---------3--3---3-----------3--3---3----------3--3---3----------1--1---1----|
G|------0-------0----------2-------2---------0-------0---------0-------0------|
D|----------------------------------------------------------------------------|
A|-----------------------------------------------------------3----------------|
E|---3------------------2-----------------0-----------------------------------|

G                     D/F#                         Em7
  Only half a blue sky,   kinda there but not quite
                                C
I'm walking round with just one shoe, I'm a half a heart without you




     G (x2)               D/F# (x2)           Em7 (x2)          C (x2)
e|---------3------------------2-----------------0-----------------0-----------|
B|---------3--3---3-----------3--3---3----------3--3---3----------1--1---1----|
G|------0-------0----------2-------2---------0-------0---------0-------0------|
D|----------------------------------------------------------------------------|
A|-----------------------------------------------------------3----------------|
E|---3------------------2-----------------0-----------------------------------|

G                          D/F#                             Em7
  I'm half the man, at best,  with half an arrow in my che

Heart Of Stone chords – Cher

 Artist: Cher
Title: Heart Of Stone
 Heart Of Stone
Words & Music by Andy Hill & Pete Sinfield

 G C G 
Beneath the white fire of the moon 
                   C G 
Love's wings are broken all too soon 
     Am 
We never learn 
 D Em Am 
Hurt together, hurt alone 
           F Bb G 
Don't you sometimes wish your heart was a heart of stone 

 G C G 
We turn the wheel and break the chain 
               C G             
Put steel to steel and laugh at pain 
                           Am 
We're dreamers in castles made of sand 
      D Em Am 
The road to Eden's overgrown 
           F Bb G 
Don't you sometimes wish your heart was made of stone

 G 
Look at the headlines 
 Em Bm C D 
Big crowd at the crazy house
 G D C D 
Long queue for the jokers shoes
 Em Bm C 
Ten rounds in the ring of love
        D G 
Do you lose and win, or win and lose
 
  G C G 
Sweet rain like mercy in the night 
 G 
(Lay me down, wash away the sorrow) 
 G C G 
Caress my soul and set it right 
 G 
(Lay me down, show me your tomorrow) 
 Am D Em Am 
Summer tears, winter and the moment's flown 
            F Bb G 
Don't' you sometimes wish your heart was made of stone
         F Bb G 
Mercy, mercy, wish your heart was a heart of stone 

 G 
Get the picture? 
 Em Bm C D 
No room for the innocent
 G D C D 
Peak season in lonely town
 Em Bm C 
Knocked out of the ring by love
          D G 
Are you down and up, or up and down

 G C G 
I ask the river for a sign 
 G 
(In a dream, we go on together) 
 G C G 
How long is love supposed to shine
 G 
(In a dream, diamonds are forever) 
     Am D Em Am 
But you and I, we're hurt together, hurt alone 
           F Bb G 
Don't you sometimes wish your heart was a heart of stone

         F D G 
Mercy, mercy, wish your heart was a heart of stone 
 G 
(With a heart of stone, you'll be well protected) 
            F Bb G 
Don't you sometimes wish your heart was made of stone
 G 
(With a heart of stone, you'll be well connected) 
        F D G 
Mercy, mercy, wish your heart was a heart of stone 
 G 
(With a heart of stone, you'll be well protected) 
           F Bb G 
Don't you sometimes wish your heart was made of stone
 G 
(With a heart of stone, you'll be well connected) 
         F D G 
Mercy, mercy, wish your heart was a heart of stone (fade)



                    EADGBE
CHORDS USED :   G   = 320033
                C   = X32010
                Am  = X02210
                D   = XX0232
                Em  = 022000
   

Beat Of Your Heart chords – Cory Morrow

 Beat of Your Heart
Written by Cory Morrow and Patrick Davis

Intro:

 D  -  Bm  -  A  -  D  (2x)

First Verse:

      Bm A D Bm A D 
I hear that you're doing unwell.
     Bm A D Bm A D 
From your smile I could never tell.
                 Bm A D 
You open up the door and the world pours in,
            Bm A D 
all of its problems solutions and sins.
            Bm A D 
Everybody seems to have a remedy,
                                 Bm A                   
but there ain't no remedy that's ever gonna cure me.



Chorus:

 G D 
Take it while it comes cause it don't last long.
       Bm A G 
Hesitate and the moment's gone. 
                                  D 
Run in the rain and howl at the moon.
         Bm A Em 
Fall in love way too soon.
                     Bm G 
Take my hand as the music starts
 G D 
and we'll dance to the beat of your heart.


 Bm  -  A  -  D  (2x)


Second Verse:

            Bm A D Bm A D 
There's a distance in your eyes,
            Bm A D Bm A D 
seems you been looking for a place to hide.
                  Bm A D 
There's nothing but love around you my child,
                 Bm A D 
but you can't see from your crying eyes.
               Bm A D   
You stand in a crowd when you wanna be alone,
                       Bm A       
you're your own contradiction but you're not alone.



*** REPEAT CHORUS ***


Bridge:

 Bm G A 
I know you stumble down that road,
 A 
trembling from the cold.
 Bm G A 
But this heart, and this love,
 A 
can save you.  It can save you.


*** REPEAT CHORUS X2 ***

 D  -  Bm  -  A  -  D  (Several Times)

Heart Tabs by Darkside

 -------------------------------------------------------------------------------
                            Darkside - Heart
-------------------------------------------------------------------------------
: Tim van Kester

Tuning: Standard

-------------------------------------------

During the intro, some heavy echoing guitar. Some notes could be tabbed
'too much'. Also, it could be that he used a whammy or octaver or whatever,
as he goes fairly high up on the neck. For notes higher than the 21st fret,
you could just lower it 12 frets.
e|----11~--------11----11~---------pb14r13~----------16~----16\14~-----------|
B|-11---------11----11----------------------------16-------------------------|
G|---------------------------------------------------------------------------|
D|---------------------------------------------------------------------------|
A|---------------------------------------------------------------------------|
E|---------------------------------------------------------------------------|

e|-14---18---23~-----|
B|-------------------|
G|-------------------|
D|-------------------|
A|-------------------|
E|-------------------|


One minute into the song, the singing starts. I think there are multiple
layers of guitar:
1) palm-muted 
e|----------------------------------------------------------|
B|----------------------------------------------------------|
G|----------------------------------------------------------|
D|----------------------------------------------------------|
A|-6--6--6--6----4--4--4--4---------------------------------|
E|-------------6-------------6-8--8--8--8--6-6--6--6--6-----|

2) 
e|----------------------------------------------------------|
B|-7--7--7--7----9--9--9--9----11-11-11-11---14-14-11-11----|
G|-8--8--8--8----6--6--6--6----11-11-11-11---13-13-11-11----|
D|----------------------------------------------------------|
A|----------------------------------------------------------|
E|----------------------------------------------------------|

These continue for a while. It will stop somewhere.
At the end of the second time these are played, this tiny riff 
starts and 'the' riff starts right after:
e|---------|------------------------------------------------------|
B|---------|--11-----11----------11----11-----11----------11------|
G|---------|--11h13--11h13-11----11----11h13--11h13-11----11h13---|
D|-6--4----|------------------13-----------------------13---------|
A|------6--|------------------------------------------------------|
E|---------|------------------------------------------------------|

e|---------------------------------------------|
B|-11-----11-------------11--11--11------------|
G|-11h13--11h13-11-------11--13--11------------|
D|-----------------13-11------------13-11------|
A|---------------------------------------------|
E|-----------------------------------------11--|

After two times, this riff is played. Let's call it 'riff 2':
e|---------------------------------------------------------------------------|
B|---------------------------------------------------------------------------|
G|---------------11--------------------------------------------------11------|
D|--------11-13-----13-----11--13-----11-13--x--13------------11-13-----13---|
A|-11-13----------------13---------13------------------11-13-----------------|
E|--------------------------------------------------11-----------------------|

e|----------------------------------|
B|----------------------------------|
G|---------------------11-----------|
D|-11-13-11-----11-13-----13--11----|
A|----------13----------------------|
E|-------------------------------11-|

The last time, don't end on only that 11th fret, but:
e|-11--|
B|-11--|
G|-11--|
D|-13--|
A|-13--|
E|-11--|



The break:
e|-------------------------------------11~------------------16~--------------|
B|---------9~--------13~---------------11~-------

O Soniyo – From The Heart Tabs by Krishna Beura

 Soni(A)yo… O Soni(F#m)yo…
Tumhe (G)dekhta hu to (D)sochta hu (A)bas yehi
Tum (A)jo… mera sath (F#m)do…
Sare (G)gam bhula ke ji lo (D)muskura ke… (A)zindagi…

Tu (A)dede mera sath… (A)tham le haath…
Chahe (F#m)jo bhi ho baat(F#m)…
Tu (G)bas de (D)de mera (A)sath…

Tu (A)dede mera sath… (A)tham le haath…
Chahe (F#m)jo bhi ho baat(F#m)…
Tu (G)bas de (D)de mera (A)sath…

Interlude

E ----16-14---14-14\12-12------------------------|
B -12---------------------14-12-12-12/14-14------|
G -----------------------------------------------|
D -----------------------------------------------|
A -----------------------------------------------|
E -----------------------------------------------|

E -----------------------------------------------|
B -14-16-14-12------14-12--------14-12--14/16-14-|
G -----------------------------------------------|
D ---------------14--------14-13-----------------|
A -----------------------------------------------|
E -----------------------------------------------|
Antra 1

Tujhme (A)hi dekha (A)hai… maine (F#m)manzil ko…
Tujhme (G)dhadkan mili…(D) is dil (A)ko…

Tujhme (A)hi dekha (A)hai… maine (F#m)manzil ko…
Tujhme (G)dhadkan mili…(D) is dil (A)ko…

Bin (F#m)tere…(F#m) kadmo ta(D)le…(D)
Ra(G)he nahi hai tujh(D)me kahi hai me(E)ri zameen…

Mukhda Again

Tu (A)dede mera sath… (A)tham le haath…
Chahe (F#m)jo bhi ho baat(F#m)…
Tu (G)bas de (D)de mera (A)sath…
Tu (G)bas de (D)de mera (A)sath…

Antra 2 same as Antra 1

One Last Dance Chords – R5

 Intro:  D Am Em C D E A C G   
Tear drops in your hazel eyes
 A E G Em E 
I can't believe I made you cry
 D Am Em D E            
It feels so long since we went wrong
 C G A Em 
But you're still on my mind
 A C G Em 
Never meant to break your heart
 G A Dm Am Am 
Sometimes things just fall apart
 G C E A 
So heres one night to make it right
 D D Dm 
Before we say goodbye

 G D 
So wait up, wait up 
 A C Am 
Give me one more chance
 D C 
To make up, make up
 G E Em 
I just need one last dance
 D Em Am G C 
Freshman year I saw your face
 C G D C 
Now its graduation day
 Em Am Em G C D C  
Said we'd be friends, till the end
 D D Dm 
Can we start again?

 G D    
So wait up, wait up 
 A C Am 
Give me one more chance
 D C 
To make up, make up
 G E Em 
I just need one last dance

 D Am Em C G 
Na na na na oh-oh
 G C Em Am D D 
Na na na na oh-oh
 Intro Played Here
 D Em Am G Em G Em 
I heard you're heading east
 Em C D G E A   
So lets just make our peace
 D Am C G D 
So when you think of me
 F E A C E 
You'll smile, and I'll smile

 G D 
So wait up, wait up 
 A C Am 
Give me one more chance
 D C 
To make up, make up
 G E Em 
I just need one last dance
 G C 
So wait up, wait up 
 G Dm G D 
Give me one more chance
 D C G D C G 
Just one song, then I'll move on
 A C Am 
Give me one last dance
 G E Em A 
I just need one last dance with you
 Am Em 
Oh-woah

Sky Chords – Rasmus

 Hi there, here´s my 3rd song, this is from the rasmus, i´ve been looking for 
the chords or tabs and found nothing, this is the first i think, feel you free to leave comments,
 enjoy!!

Standard tunning

 Am Em 
I have got a heavier heart I must give it away
                    F C G 
Maybe it's not too late to regret now
 Am 
I have gone into the deepest dark
           Em 
I stained my hands with blood
         F G 
And if the end won't be painful
 Am F G 
I should be grateful


 Am G F 
I just wanted to see the sky
 C G Am G 
Open the one last time
 Am G F C 
I just wanted to feel the rain
 C F 
Washing away the pain
 C Em Am 
Washing away the shame


 Am 
I know fate's deciding for everyone
          Em 
And that for everything
        F C G 
That we do there's a reason
 Am 
All my life I have been asking why
         Em F 
I never thought I would get it together but finally now
         G Am F G 
As I'm leaving life has a meaning


 Am G F C 
I just wanted to see the sky
 C G Am G 
Open the one last time
 Am G F C        
I just wanted to feel the shine
 C G 
It could have been divine



        C 
Give me one more night

I will make things right
   Am 
I have changed my ways
 F G 
All I need is time
         C 
Give me one more day

Let me clear the way
           Am 
I'll make up my crime
        F G 
I will do my time and..


 C 
I have done terrible things
                   G 
I must pay for my sins I've done
            F G 
And now my world is in pieces
 C 
I got lost down in the blazing fire
          G 
Traded my soul for a minute of pleasure
                F Em 
And now I must pay for the worthless treasure



 Am G F C 
I just wanted to see the sky
 C G Am G 
Open the one last time
 Am G F C 
I just wanted to feel the wind
 C F 
Welcome the virgin snow
 Em Am 
Before it's my time to go

 Am Em 
I have got the heavier heart I must give it away
                 F C G 
Maybe it's not too late to regret now

Every Second Counts Chords – Redlight King

 Guys, I'm pretty sure that the chords are correct, but I can't say that about lyrics. 
Please, leave feedback, if you'll find any mistakes.

 D G       x2

              D G 
Don't move away from me
               D G 
Every second counts
         D G 
If the fire in your eyes starts fading
           D G 
I'll be around

          Bm A 
I'll be holding your hand if you run
         G E 
I'll be out in ????????????? when it rains
               Bm A 
If you should ever forget who you are
                 G 
I'll call your name

              D G 
Don't move away from me
               D G 
Every second counts
           D G 
When the way to the world starts changing
           D G 
I'll be around

            Bm A 
You're the only one I keep on ???????????
            G E 
You're the only one that keeps me awake
          Bm A 
I would die before I let someone hurt you
          G E 
I would run an any risk I can take

              D G 
Don't move away from me
               D G 
Every second counts
              D G 
Don't move awaaaaaaay frooooom me
               D G 
Every second counts

            Bm A 
You're the only one that I keep my heart to
            G E 
You're the only one that keeping it safe
                  Bm A 
Yeah, You're the only one that I belong to
                 G E 
I'll call your name

               D G 
Every second counts
               D G 
Every second counts
               D G 
Every second counts
               D G          End on  D 
Every second counts

Shivers Chords – Rowland S Howard

 C G 
I've been contemplating suicide,
 C G 
But it really doesn't suit my style,
So I think I'll just act bored instead
And contain the blood I would've shed

She makes me feel so ill at ease
My heart is really on it's knees
But I keep a poker face so well
That even mother couldn't tell

But my baby's so vain
She is almost a mirror
And the sound of her name
Sends a permanent shiver down my
Spine

I keep her photograph against my heart
For in my life she plays a starring part
All alcohol and cigarettes
There is no room for cheap regrets

But my baby's so vain
She is almost a mirror
And the sound of her name
Sends a permanent shiver down my
Spine

She makes me feel so ill at ease
My heart is really on it's knees
But I keep a poker face so well
That even mother couldn't tell

But my baby's so vain
She is almost a mirror
And the sound of her name
Sends a perennial shiver down my
Spiii-yi-yiiii-yi-yiiii-yi-yiyiyi-ine

(The transition from G to C continues on in that pattern throughout the entire song. 
p.s. Rowland wrote this at 17, Nick "stole" it. RIP Rowland.)

This Is Not A Love Song Chords – Runrig

 Runrig - This Is Not A Love Song


Intro

 A ,  A ,  D ,  D  (repeat) then  A A E F#m 
I could tell you about the moon
         C#m D D 
That's rolling 'cross the sky
 A E D 
I could show you all the stars
           E A 
But it's much too late at night
      D F#m 
I'm driving home on the silver run
      D F#m E F#m 
The last to move on through
 
     D A D 
And this is not a love song
 E A D 
No matter what I do
 A A 
Words are few but the heart is true
            A A          
Still the world keeps turning round
             A 
For me and you


 A ,  A ,  D ,  D A E F#m 
If I could only make you see
     C#m D 
One reason to believe
 A E D 
I would open up my heart
      E A 
It's so easy to deceive
   D F#m 
Footsteps fall through open doors
   D F#m E F#m 
Across a darkened room
      D A D 
And this is not a love song
  E A D 
This is no moon in June
 A A 
Words are few but the heart is true
            A A 
Still the world keeps turning round
             A 
For me and you


Instrumental:

 A ,  E ,  F#m ,  D ,  E A ,  D ,  E ,  A A E F#m 
You know for you I'd give my life
    C#m D 
In you I will be strong
 A E D 
We went off looking for the light
              E A    
But it was right here all along
         D F#m 
Now we wait here passing night-times
        D F#m E F#m 
Until every morning comes
      D A D 
And this is not a love song
 E A D 
This is no easy tune
 A A 
Words are few but the heart is true
            A A 
Still the world keeps turning round
             A 
For me and you


Outro:

 A ,  A ,  F#m ,  E 

Enjoy

One Of Those Things Chords – Sanctus Real

 Here is one of my favorite Sanctus Real songs from their latest release, "Run."
I hope you enjoy!

           C         
I'm gonna tell you why we keep on coming back
          G C 
 To the same old set of tired and rusty tracks
   G F 
 Dreams fade and wither all the time
    C Am F                 
But you know when you're born for something in this life
                C         
And I'm gonna tell you why we keep on keeping on
           G C 
Cause a song was made for us and us for a song
                                                                            
     G F 
 It knocks on the door of your heart and you can't deny
           Am C F                 
 But you open up, you let it inside

Pre-Chorus:
        G Am F  
So I sing at the top of my lungs
 G Am F  
Raise my hands and get caught up
 


Chorus:
               G Am F 
It's just one of those things you can't run away from
 (One of those things you can't run away from)
  G Am F 
 One of those things you can't run away from
 (One of those things you can't run away from)
 

         C         
 And I'm gonna tell you why we keep on singing about
             G C 
 Love and faith and the things that so many people doubt
                      G F  
Oh there's a fire in us, that burns from the inside out
 Am C F  
We don't need to water it down


Pre-Chorus:
        G Am F  
So I sing at the top of my lungs
 G Am F  
Raise my hands and get caught up
 


Chorus:
               G Am F 
It's just one of those things you can't run away from
 (One of those things you can't run away from)
  G Am F 
 One of those things you can't run away from
 (One of those things you can't run away from)

Pre-Chorus 2x  -- Chorus 2x -- END

Death For My Birthday Acoustic Chords – Say Anything

 "Death For My Birthday"
CAPO1
 Em C 
Let me guide you through the story of a boy and his curse
 Em C G 
Tiny diamond in his stroller with his first step chasing the hearse
Sippin' at a cup that's half way filled
But looking forward to the day he pays that drinking bill
There's no peace, there's no quiet on this earth
He confided, nestled tightly in that womb beneath the dirt
Hurt no more and when he turned 24
He wrote a note to nail to God's front door that said

 Em 
I want death
 C 
Death for my birthday
 Em 
I want death
 Am 
Death in the worst way
 Em 
I want death
 C 
Death for my birthday
 Am G 
Don't get me wrong cause..

 Em 
I love life
 C 
But life has a boyfriend
 Em 
Bless my soul
 Am 
I'm out to destroy them
 Em 
I want death
 C 
Death for my birthday
 Am G 
For my birthday

 Em C G 
From the high paying job and the love of his life
He rode a roller coaster ride of lust on their wedding night
They made a baby in unmentionable ways
He was ungrateful as a man could be on that blessed day
And underneath he thought this is all a phase
Just a blip in the existence of a structure vast and great
Pray each night to his cross of a charm
For the one thing he couldn't afford just to buy the farm

 Em 
I want death
 C 
Death for my birthday
 Am 
I want death
 F 
Death in the worst way
 Em 
I want death
 Am                             
Death for my birthday
 Am G 
Don't get me wrong cause..

 Em 
I love life
 C 
But life has a boyfriend
 Em 
Bless my soul
 Am 
I'm out to destroy them
 Em 
I want death
 Am G 
Death for my birthday
 C 
For my birthday
                                                 

    Am C 
I'll never lose another friend again
 Em Am C 
Or watch them start a war that's fought for ideals that are dead
 Am C 
I'll never have an argument again
 Am Em 
Because my dust
 Am Em 
will be your salt
 Am F G 
My blood will hydrate you off
 C Am 
My heart will be your meal
            F G 
And I won't ride the cycle of the way it kills to think and feel

No more, no


 Em 
I want death
 C 
Death for my birthday
 Am 
I want death
 F 
Death in the worst way
 Em 
I want death
 Am                             
Death for my birthday
 Am G 
Don't get me wrong cause..

 Em 
I love life
 C 
But life has a boyfriend
 Em 
Bless my soul
 Am 
I'm out to destroy them
 Em 
I want death
 Am G 
Death for my birthday
 C 
For my birthday

 Em C 
One sweet day his heart ceased to beat
 Em Am 
He fell so fast beneath all our feet
 F G 
Through bugs and snakes
 Am C 
Last words he had to say were
 Em C 
Help me claw my way to the surface
 Em Am 
Oh sweet lord you know I deserve this
 F G 
Just one more, just one more birthday