Tag: Heart

Heart Of Worship Tabs – Matt Redman

 -------------------------------------------------------------------------------
                      heart of worship - Matt Redman
-------------------------------------------------------------------------------
:

Key Of D
Tuning:E-A-D-G-B-e

e|---------------------------------------------------------------------------|
B|---------------------------------------------------------------------------|
G|--2----2--2------------------------------2--2-2------------2--2----2-------|
D|--0----0--0--0----2----4--2---2----0-0---0--0-0--0----2----0--0----0---0---|
A|-------------0----0----5--0---0----2-2-----------0----0----------------0---|
E|---------------------------------------------------------------------------|
   when the music fades all is swept away and I simply come longing just to
e|---------------------------------------------------------------------------|
B|---------------------------------------------------------------------------|
G|---------------------------------2---2-----2-------------------------------|
D|--2-----4---2-----2----0---0-----0---0-----0-----0-----2-------------------|
A|--0-----0---0-----0----0---0---------------------0-----0-------------------|
E|---------------------------------------------------------------------------|
   bring something thats of worth that will bless your heart 
e|---------------------------------------------------------------------------|
B|---------------------------------------------------------------------------|
G|--0----0-----0----------------------------------------0---0---0------------|
D|--0----0-----0---4----2---0--2----2--0--4---2---0-----0---0---0---4----2---|
A|-----------------0----0---0--0----0--0--0---0---0-2---------------0----0---|
E|--------------------------------------------------3------------------------|
   I'll bring you more than a song for a song in itself is not what you have 
e|---------------------------------------------------------------------------|
B|---------------------------------------------------------------------------|
G|----------0----0------0------------------------------------------------0---|
D|--0--2----0----0------0-----4-2--0--2----2-------0---4----2-----0------0---|
A|--0--0----------------------0-0--0--0----0-------0---0----0-----0--2-------|
E|-------------------------------------------------------------------3-------|
   required you search much deeper within through the way things appear You're
e|---------------------------------------------------------------------------|
B|------------------0--------------------------------------------------------|
G|---0--0----2---------2-----------------------------------------------------|
D|---0--0----0-0-0--0--0-----------------------------------------------------|
A|-------------0-0-----------------------------------------------------------|
E|---------------------------------------------------------------------------|
    looking into my heart
e|---------------------------------------------------------------------------|
B|------------------------------0--------------------------------------------|
G|-------2--2--2----2----------------2-----------------------0---------------|
D|-------0--0--0----0---0---0---0----0---4--2----0--2-----4--0-4----2-0-2----|
A|----------------------0---0------------5--4----2--4-----5----5----4-2-4----|
E|---------------------------------------------------------------------------|
chorus: I'm coming back to the heart of worship and it's all about You it's 
e|---------------------------------------------------------------------------|
B|----------------------------------------------0----------------------------|
G|------0--------------2---2-2----2-------------------2----------------------|
D|-4----2-4--2---2--0--0---0-0----0----0---0----0-----0----4---2---0---2-----|
A|-5------5--4---4--0------------------0---0---------------5---4---2---4-----|
E|---------------------------------------------------------------------------|
   all about Yo

My Foolish Heart chords – Vic Damone

 My Foolish Heart  – Vic Damone


Intro:         F#m7 B7 E E C#m F#m7 B7   
The night is like a lovely tune, beware my foolish heart,  
     E C#m F#m7 B7   
How white the ever distant moon, take care, my foolish heart.  
           E E7   
There's a line between love and fascination,  
                A D#m7   
That's hard to see on an evening such as this.  
 G#7 C#m Dm F#7  
For they both give the very same sensation,  
              B7 E7   
When you are lost in the magic of a kiss.  
  
  
     E C#m F#m7 B7           
Her lips are much too close to mine, beware my foolish heart,  
     F7 C#m F#m7 G#7  
But should our eager lips combine, then let, let the fire start.  
     C#m C#m7 C E G#m7 C#7  
For this time it isn't fascination, or a dream that will fade and fall apart.  
     F#m7 B7 E   
Its love, this time, its love, my foolish heart.  
  
  
Interlude:      (Chords of Verse)  
  
  
     E C#m F#m7 B7           
Her lips are much too close to mine, beware my foolish heart,  
     F7 C#m F#m7 G#7  
But should our eager lips combine, then let, let the fire start.  
     C#m C#m7 C E G#m7 C#7  
For this time it isn't fascination, or a dream that will fade and fall apart.  
     F#m7 B7 E   
Its love, this time, its love, my foolish heart.  
  
  
Outro:  
                 B7 E   
This time, it's love, my foolish heart. 

Only A Broken Heart solo Tabs – Tom Petty

 ---------------------------------------------------------------------------------------------------------------
                                          Artist - Tom Petty
                                         ********************
                                      Song - Only A Broken Heart
                                     ****************************
                                      Album - Wildflowers (1994) 
                                     ****************************
                                          - Ayreon77
                                        **********************
---------------------------------------------------------------------------------------------------------------
Tuning = Standard
                                    Played on A 12 string Acoustic.

                                                                                            s
e|-------------|----------|-------------------h-----|----h---8--8-|-8-8-10-10--10-10-8-10-10\12-|
B|----------h--|----------|----------s--8--8-8-10-8-|-8-8-10------|-----------------------------|
G|----h--5-5-7-|-5---5--7-|--s----5-5\7-------------|-------------|-----------------------------|
D|-5-5-7-------|---7------|-3\5-7-------------------|-------------|-----------------------------|
A|-------------|----------|-------------------------|-------------|-----------------------------|
E|-------------|----------|-------------------------|-------------|-----------------------------|

                                                     s      s 
e|------h-----|----h------|----8-10-10--10-10-8-10-10\12--10\8-------12-10-8-|--------------------------|
B|-8-8-8-10-8-|-8-8-10-10-|-10----------------------------------10-8---------|-----------s--8-8---------|
G|------------|-----------|--------------------------------------------------|--s----5--7\9-----9-7-7-5-|
D|------------|-----------|--------------------------------------------------|-5\7-7--------------------|
A|------------|-----------|--------------------------------------------------|--------------------------|
E|------------|-----------|--------------------------------------------------|--------------------------|


e|-----------------8-|-----------s---8-|
B|----s--8-8-10-8----|----s--8--8\10---|
G|-5-7\9-------------|-5-7\9-----------|
D|-------------------|-----------------|
A|-------------------|-----------------|
E|-------------------|-----------------|



ENJOY.........

Inside My Heart chords – Frencheska Farr

 Standard Tuning

Intro: 
 F Bb F Bb  (2x)

Verse:
 F Bb 
I am nobody with no sense at all
 C F 
Pale as the mountain, cold as the shore
 Dm Am Bb Am 
Tried reminiscing, alone imagining
 Gm C 
What if I come to you

 F Bb 
Then I stood up making the hours
 C F 
Gazing the sunsets, watching the stars
 Dm Am Bb Am 
Sparkling, smiling hello to my eyes
 Gm C 
These as you come to me


Chorus:
 F Bb 
Inside my heart is you
 Gm C 
No greater love, no one above you
 F Bb 
Inside my heart is you
 Gm C Dm 
Stay in love always, as I live in your ways
         Gm C Dm Gm C    
'Cause inside my heart is you

Instrumental:  F Bb F Bb 

Verse:
 F Bb 
Play with the raindrops, lie on the sand
 C F 
Sail through the ocean, chasing the clouds
 Dm Am Bb Am 
Showed me completely what life is about
       Gm C 
I've left with no worries flying so high


Chorus:
 F Bb 
Inside my heart is you
 Gm C 
No greater love, no one above you
 F Bb 
Inside my heart is you
 Gm C Dm 
Stay in love always, as I live in your ways
         Gm C F 
'Cause inside my heart is you


Bridge:
 Bb F 
The end of all waiting, my new beginning
 Gm C D 
'Cause you have loved me this way


Chorus:
 G C 
Inside my heart is you (ooh...)
 Am D 
No greater love no one above you (No one above you, ooh...)
 G C 
Inside my heart is you
 Am D Em 
Stay in love always, as I live in your ways
        Am D Em      
'Cause inside my heart is you


Outro:
     Am  
Now I know the meaning
        D Em 
It's love you're creating
      Am D Em 
The love in my heart is you
 Am D G 
Inside my heart is you...

Elastic Heart Tabs by Sia

 This tab was made up courtesy of Aidan Low so hope it sounds alright!

Email- shafiq.mgh3@hotmail.com

Elastic heart - Sia

Standard tuning - EADGBe

Capo 2nd Fret

Chords:

C G D Em

Intro + verse + pre chorus

e|--0-------0-------3-------3-------2-------2-------0-------2------|
B|----1-------1-------0-------0-------3-------3-------0-------3----|
G|------0-------0-------0-------0-------2-------2-------0-------2--|
D|--------2-------------------------0-----0-----------------0------|
A|--3---------------2-------------------------------2--------------|
E|------------------------3----------------------------------------|

For the chorus its just playing the chords as written above.

The order goes: C   G   D   Em D

There are multiple ways to strum this, if you listen to the song you'll be able to make it 
up pretty easy just by listening.


Cheers, good luck!

Hollowed Out My Heart chords – The Growlers

 The Growlers - Hollowed Out My Heart
song: https://www.youtube.com/watch?v=j2lomxH-O18

VERSE 1
   A Em A Em 
I hollowed out my heart when I set for sea
 A Em A Em  
Just so I can float past all this debris
   Dm Cm Dm Em 
I sink like a stone with a heart that heavy
       A Em A Em 
And I sail at half mast without dignity

VERSE 2
      A Em A Em 
So I hollowed out my heart with a knife and a spoon
 Dm Cm Dm Em 
Carving out her face took me all afternoon
   A Em A Em 
I cock out her eyes, they were covered in gold
       A Em A Em 
Every thought, every memory in the whole moldy cold

INTERLUDE
 Dm Cm Dm Em 

VERSE 3
    A Em A Em 
It looked like coffee with not too much cream
   A Em A Em 
I pulled out her skin in a thick wine stream
      Dm Cm Dm Em 
Each drop that dripped the sea took a sip
         A Em A Em 
And the wind blew me further in my empty hearted ship

INTERLUDE
 A Em 
Tchk tchk tchk tchk
 A Em 
Tchk tchk tchk tchk

VERSE 4
         Dm Cm Dm Em 
And the more that I carved the less that I starved
   A Em A Em 
I cut out her lips cause those lips might stick
 A Em A Em 
Not sick of home, no I’m not homesick

INTERLUDE
 Dm Cm 
Tchk tchk tchk tchk
 Dm Em 
Tchk tchk tchk tchk

VERSE 5
       A Em A Em 
Yes I hollowed out my heart with a spoon and a knife
   A Em A Em 
I did this till dawn in the pale moonlight
   Dm Cm Dm Em 
I hollowed out my heart when I set for sea
 A Em A Em 
Just so I can float past all this debris

VERSE 6
   A Em A Em 
I sink like a stone with a heart that heavy
 Dm Cm Dm Em 
Don’t don’t don’t anchor me, don’t anchor me
       A Em 
Don’t anchor me, don’t anchor me
 A Em A 
Da da da  daa

OUTRO
 A Em Dm Cm A 

SECOND PART (2:14 onwards, with all sorts of riffs. Play over these chords)
 Em A

The Heart Collector solo Tabs – Nevermore

 Nevermore - The Heart Collector
 Lorcan Ward
Eb Tuning

Check out my cover video:


Guitar Solo 3:15

|--16-----16--16-----16--16--16-----14--14-----14--14-----14--14-----14--|
|--14-----14--14-----14--14--14-----14--14-----14--12-----12--12-----12--|
|------------------------------------------------------------------------|
|------------------------------------------------------------------------|
|------------------------------------------------------------------------|
|------------------------------------------------------------------------|

|--12--------12--11---\---------12-------12--------------12-------12---|
|--13--------13--13---\----5/9--------9------9-----9h10-------10-------|
|----------------------------------------------------------------------|
|----------------------------------------------------------------------|
|----------------------------------------------------------------------|
|----------------------------------------------------------------------|

|----------------12--------12------------------------------------------|
|--10b12r10---9---------9---------9h10--9------------------------------|
|------------------------------------------11b13r11--11p9---11~~~~-----|
|----------------------------------------------------------------------|
|----------------------------------------------------------------------|
|----------------------------------------------------------------------|

|-----------------------------------------16\12--14--16---16/17--16----|
|---------17------17--19b21~~~~~~~~~-----------------------------------|
|--13/16------16-------------------------------------------------------|
|----------------------------------------------------------------------|
|----------------------------------------------------------------------|
|----------------------------------------------------------------------|

|--14/16h17h19p17p16h17p16h17p16h17----------------16h17h19t24p19p17p--|
|-----------------------------------19p17p16h17h19---------------------|
|----------------------------------------------------------------------|
|----------------------------------------------------------------------|
|----------------------------------------------------------------------|
|----------------------------------------------------------------------|

|--16h17h19p17p16h17p16------------------------------------------------|
|-----------------------19p17h19p17p16h17p16---------------------------|
|----------------------------------------------18~~~~~~~---------------|
|----------------------------------------------------------------------|
|----------------------------------------------------------------------|
|----------------------------------------------------------------------|

|--16-21p16----------16-21p16----------16-21p16----16-19p16----------16-|
|-----------17----17----------17----17----------17----------17----17----|
|--------------18----------------18----------------------------16-------|
|-----------------------------------------------------------------------|
|-----------------------------------------------------------------------|
|-----------------------------------------------------------------------|

|--19p16----------16-19/21\19p16-19p16----------16-19p16----------16---|
|--------17----17----------------------17----17----------17----17------|
|-----------16----------------------------16----------------16---------|
|----------------------------------------------------------------------|
|----------------------------------------------------------------------|
|----------------------------------------------------------------------|

|--19p16----16-20p16----16---------------------------------------------|
|--------17------------------------------------------------------------|
|--------------------20----20-17-20p17---------------------------------|
|--------------------------------------18~~~~--------------------------|
|---------------

Racing Heart chords – Melanie Safka

 Melanie Safka - Racing Heart
 
 
CAPO: 1st Fret
 
 
INTRO:  F Bb F C F    
Be the sky I long to fly through 
                     C Bb    
I'm a song for your breeze to sing
     Dm C Bb    
I'm in this play without a part 
                            C F C F 
And I stand silent with my racing heart
 
 
                     C F    
Beauty cries out to everyone 
             C Bb    
So few ever hear her sing
    Dm C Bb    
We live to play our souls out loud 
                            C F    
Yet we stand silent with a racing heart
 
 
CHORUS 1:
                 C Dm 
It has it's own life, it has it's own sun 
                 Bb C 
It has it's own god, it has it's own gun
                                            F 
It knocks at heaven's door and opens it as well
                  Bb C 
It seeks its own truth, finds its own hell
 
 
CHORUS 2:
                         F Dm Bb 
I'm condemned to wander worlds apart
                       C F Bb 
I stand silent with a racing heart
                     F Dm Bb 
Condemned to wander worlds apart
                        C F Dm Bb F 
I stand silent with my racing heart
 
 
                    C F 
In these places of my longing
           C Bb    
Beyond isolation's door
    Dm C Bb             
In realms of dream I light the spark
                              C F  
My soul shall burn beside my racing heart
 
 
CHORUS 1:
                 C Dm 
It has it's own life, it has it's own sun 
                 Bb C 
It has it's own god, it has it's own gun
                                            F 
It knocks at heaven's door and opens it as well
                  Bb C 
It seeks its own truth, finds its own hell
 
 
CHORUS 2:
                         F Dm Bb 
I'm condemned to wander worlds apart
                         C F Bb 
Standing silent with my racing heart
                     F Dm Bb 
Condemned to wander worlds apart
                       
I stand silent with my racing heart
 
 
INSTRUMENTAL:  C Dm Bb C F Bb C   
 
 
CHORUS 2:
                     F Dm Bb 
Condemned to wander worlds apart
                        C F Bb 
I stand silent with my racing heart
                     C F Bb 
Condemned to wander worlds apart
                        C Dm Bb C Dm Bb 
I stand silent with my racing heart
                        C F 
I stand silent with my racing heart
 
 
OUTRO:    (## fade to end ##)
       Dm C F Dm C F

Dairybeat – How Can You Mend A Broken Heart – Bee Gees – Cover chords

 DAIRYBEAT: HOW CAN YOU MEND A BROKEN HEART (B. & R. Gibb) 4/4 – 70   Trafalgar & Single (1971)

|./.    |: Repeat the previous Chord and/or Measure of 4-Counts.


INTRO: | E     | Emaj7    |: 2x

VERSE 1:

     | E 
I can think of younger days,

    | Emaj7 
when living for my life,

   | F#m                            | E     |
was everything a man could want to do.

 G#7                  | C#m 
I could never see to-morrow,
                                        / (Break)
   | F#7                 | B7              | B7 
but I was never told  a-bout the sor - row.

CHORUS:

    | Emaj7               |./.         |
And, how can you mend  a broken heart,

 F#m                                |./.         |
    how can you stop the rain from falling down.

 A B7    | A B7      |
How can you stop,   the sun from shining,

 A G#m F#m | E     |
  What makes the world go  round.

 Emaj7                 |./.       |
How can you mend this broken man,

 F#m                      |./.
    how can a loser ever win.

      | A B7      | A B7    |
Please help  me mend my broken  heart,

 A G#m F#m | E            | Emaj7 E 
  and let me live a-  gain. La-la, La-   la.

VERSE 2:

     | E 
I can still feel the breeze,

    | Emaj7 
that rustles through the trees,

   | F#m                          | E     |
and misty memories of day's gone by.

 G#7                   | C#m     |
We could never see to-morrow,
                                      / (Break)
 F#7                   | B7              | B7 
no one said a word  a-bout the sorrow.

CHORUS:

    | Emaj7               |./.         |
And, how can you mend  a broken heart,

 F#m                                |./.         |
    how can you stop the rain from falling down.

 A B7    | A B7      |
How can you stop,   the sun from shining,

 A G#m F#m | E     |
  What makes the world go  round.

 Emaj7                 |./.       |
How can you mend this broken man,

 F#m                      |./.
    how can a loser ever win.

      | A B7      | A B7    |
Please help  me mend my broken  heart,

 A G#m F#m | E           |
  and let me live a-  gain. La-la,

INTERMEZZO - CHORUS:

 Emaj7     |./.    | F#m     |./.    |
La-la. . .  . . . . . . . . . . ..

      | A B7      | A B7    |
Please help  me mend my broken  heart,
                                         / (Break)
 A G#m F#m | E            | Emaj7 E 
  and let me live a-  gain. La-la, La-   la.


Tab by: DAIRYBEAT (André H. Hofman, Purmerend, Netherlands).
FREE* Dairybeat ORIGINALS, COVERS and BACKING TRACKS on:
http://www.soundclick.com/bands/default.cfm?bandID=137360&content=music

https://www.youtube.com/user/Dairybeat

One Track Heart chords – Elvis Presley

 One Track Heart - Elvis Presley
 Del Bradley  CAPO on 3
____________________________________________________________________
Please don't forget to rate and comment, 
Your feedback would be much appreciated, Thank you :)
____________________________________________________________________

OPTIONAL SUBTLE INTRO    C Am C Am C Am C Am Fmaj7 C C              
 Just like an old grandfather's clock that won't stop run-ning
 C Fmaj7 Am Fmaj7 C C  
Like an old racehorse that just wont ever  quit

 C Fmaj7 Am 
 There'll be no end to loving you
 Am Fmaj7 C Fmaj7 
Nothing can stop  me once I start
 Fmaj7 Am Fmaj7 Em C C 
'Cos I'm a one track mind and a one track heart

 C Fmaj7 Am Fmaj7 C C 
Well I'm as stubborn as a mule I just  won't let up
 C Fmaj7 Am Fmaj7 C C 
Like an old blood-hound Ill hang around your trail

 C Fmaj7 Am                 
 There'll be no end  to loving you
 Am Fmaj7 C Fmaj7 
Don't try to stop  me if you're smart
 Fmaj7 Am Fmaj7 Em C C 
'Cos I'm a one track mind and a one track heart


 C Fmaj7 Dm C Am     
Oooo- eeeee there'll be no turning ba-ck
 Am Fmaj7 D G G 
Oooo- eeeee I'm gonna stay on your track

 C Fmaj7 Am Fmaj7 C C 
Just like a choo-choo train that's gotta keep a-chugging
 C Fmaj7 Am Fmaj7 C C 
You'll find that I'm  the kind who sticks to what  I do

 C Fmaj7 Am 
 There'll be no end to loving you 
 Am Fmaj7 C Fmaj7 
Baby we'll never  be a-part
 Fmaj7 Am Fmaj7 Em C C 
'Cos I'm a one track mind and a one track heart


 C Fmaj7 Am Fmaj7 C C 
Just like a choo-choo train that's gotta keep a-chugging
 C Fmaj7 Am Fmaj7 C C 
You'll find that I'm  the kind who sticks to what  I do-arrrrrgh

 C Fmaj7 Am 
 There'll be no end to loving you 
 Am Fmaj7 C Fmaj7 
Baby we'll never  be a-part

 Fmaj7 Am Fmaj7 Em C Am C Am C Am C                 
'Cos I'm a one track mind and a one track hearrrrrrrrrrrrrrrrrrrrrt   !

Memories Of A Broken Heart Acoustic chords – Crown The Empire V3

 From what I can tell this is the way Crown The Empire plays it in their live acoustic version.
The video can be found here: http://www.youtube.com/watch?v=dkOaQdVD2Yg 

(The  Bridge, "you think this is the end your wrong," part of the song and 3rd chorus after 
aren't actually played in the live acoustic version so that part is up for speculation or can be ignored.)

Standard Tuning
Barre Chords


    Dm F 
As I stare into these ruins made by man
     Gm A# 
I tremble as I realize it's the end
          Dm F 
More and more I wonder what we could have done
     Gm A# 
But instead we wage a war that can't be won
      Gm A# 
Yeah instead we wage a war that can't be won


 Dm F 
I stand on the ash of all I've ever loved
                Gm 
Memories of a broken heart
          A#             
Now I'm alone in the dark.
 Dm F 
I know there's a way out when all hope is gone
                    Gm 
Find your light in a new dawn
                 A# Dm A# 
But there's no way to do this on our own.
 F C 
Whoa


    Dm 
I search for solace in this waste That I once called home
    A# F 
But my attempts of piecing life together leaves me alone
   
I can't repair what's been done
    C 
When the sky is as black as the ground that I walk on
 Dm A# 
And I can't give up on this  (And I can't give up on this)
 F 
I have to wonder what we could have done
 C                  
I have to (fuckin) wonder

       Dm A# 
But instead we wage a war that can't be won
       F C 
But instead we wage a war that can't be won


 Dm F 
I stand on the ash of all I've ever loved
                Gm 
Memories of a broken heart
          A#             
Now I'm alone in the dark.
 Dm F 
I know there's a way out when all hope is gone
                    Gm 
Find your light in a new dawn
                 A# Dm A# 
But there's no way to do this on our own.
 F C 
whoa

(live version ends here on Dm)



 Dm 
You think that this is the end?

You're wrong
 F 
You think that this is the end?

You're wrong
 Gm 
You think that this is the end?

You're wrong
 A#                       
This is the start of a new generation


 Dm F 
I stand on the ash of all I've ever loved
                Gm 
Memories of a broken heart
          A#             
Now I'm alone in the dark.
 Dm F 
I know there's a way out when all hope is gone
                    Gm 
Find your light in a new dawn
                 A# Dm A#  
But there's no way to do this on our own.
 F C 
Whoa
 Dm  
(Strum once)

I Got The Blues chords – Dion And The Belmonts

 I Got The Blues:Dion And The Belmonts.
Album - Presenting Dion And The Belmonts on
LAURIE Records in 1958.

INTRO:  E A E 
Well, let me tell you a story, all about those 

blues.
         A 
About a girl I was goin' with who broke my heart 
    E 
in two.
                       B A 
She made me get those blues, baby..boy, oh, boy, 
            E 
what those blues can do to you..(yeh, wah!)

#1.
 E B 
Well, you took my money, honey, and you left me all 
                E 
alone with the blues..yeah, yeah, yeah.
 E B A B A 
Now, it seems I can't forget you, the day that I met 
               E 
you I got the blues..(whoa, oh, oh!)
             B A E 
You left me cryin', there's no denyin', I got the blues.

(ooooohhh, wah, wah!)

BRIDGE:
 E A E A 
Whhhhhhhhyyy, must I cry..(oooo-wah-wah) whhhhyyy did you 
         E 
say goodbye? (oooo-wah-wah!)
     B A 
Oh, why, oh, why, oh, why, did ya?..oh, why, oh, why, oh, why,
     E 
oh, why? (oooo-wah-wah!)

#2.
    B E A 
My friends all heard the news..I'm sufferin' from the blues,
 E 
since we been apart.
         A B A 
I don't know, I don't know, honey, I guess you'll always remain
       E 
in my heart.
 E B A E 
I got the blues, I got the blues, over you..(ooo-wah-wah!)

#3.
 E B A E 
When night time starts til the day time breaks, I get the blues,
                                  E7 
honey, and I'll tell you what it takes.
          B A B A E 
When the one you love ain't with you no more, I go to pieces,
                      E7 B 
baby, and it's just, just for cure, from the blues, oh, yeah,
     A E 
the blues, I got the blues..(oooo-wah-wah!)

#4.
 B E B A E 
Well, one more time, baby, oh, just the poke, one more time.
                        B A B 
And I won't have 'em anymore..one more kiss, honey, oh, just to 
 A E 
kiss those tender lips of yours, one more time.
          B A E 
And I'll lose all the blues, I'll lose all of those blues, yeah.
                              B A E 
Hey! you're gone! hey, baby, not so fast!..(Fade.)



A fifties smash from Kraziekhat.

Something Blue chords – Neil Diamond V2

                                                   
Intro :   C F C F C F 
I came with a little bit of sorrow
 C F 
Was maybe a bit too sad
 C F 
But one day rolled into tomorrow
 C F  
And you gave me the best you had
 G 
That's how we started together
 G C 
And how together we're gonna stay

 C F 
You taught me a little 'bout good times
 C F 
I fought through a little bit of rain
 C F 
You brought me a part of your sunshine
 C F 
You took in the heart of my pain
 G 
It wasn't supposed to happen
 G C 
But then you happened to come my way

 C G 
Every night, every day 
       F C G 
Every word that you say made it so
       G F 
Every thought that I had
          G C 
Said I ought to be glad. Now I know
 C G F C C G 
You showed what a little bit of love can do
 C F G C C G 
You opened my eyes and a light came through
 C G F C G F   
Took me to a place that I never knew
 C F G C 
Goodbye to my little bit of something blue



 C F       
You came and you found me wanting
 C F 
And I'm saying that I'm in your debt
 C F       
Some days were a little bit daunting
 C F 
Some days I'd rather forget
 G 
You changed my life for the better
 G C 
And I know I'd better be good to you

 C G 
Every night, every day 
       F C G 
Every word that you say made it so
       G F 
Every thought that I had
          G C 
Said I ought to be glad. Now I know
 C G F C G F 
You showed what a little bit of love can do
 C F G C G F 
You opened my eyes and a light came through
 C G F C G F   
Took me to a place that I never knew
 C F G C 
Goodbye to my little bit of something blue

  
 C G 
Every night, every day 
       F C G 
Every word that you say made it so
       G F 
Every thought that I had
          G C 
Said I ought to be glad. Now I know
 C G F C C G 
You showed what a little bit of love can do
 C F G C C G 
You opened my eyes and a light came through
 C G F C G F   
Took me to a place that I never knew
 C F G C 
Goodbye to my little bit of something blue
 C F G C C F C 
Farewell to my little bit of something blue.

Honeymoon Avenue chords – Ariana Grande V8

 No Capo

Intro:

 G Dm Am C  

Verse:

(G)I looked in my rear view mirror and (Dm)
It seemed to make a lot more (Am) sense
Than what I see ahead (C) of us, ahead of us, yeah.
(G) I'm ready to make that turn (Dm)
Before we both crash and burn (Am)
Cause that could be the death (C) of us, the death of us, baby

(G) You know how to drive in rain
(Dm) And you decided not to make a (Am) change
Stuck in the same old lane
(C) Going the wrong way home

Chorus:

I feel like my heart (G) is stuck in bumper-to-bumper (Dm) traffic,
I'm under pressure
Cause I can't have (Am) you the way that I want
Let's just go back (C) to the way it was

When we were on (G) Honeymoon Avenue
(Dm) Honeymoon Avenue
(Am) Baby, coastin' like crazy
Can we get back (C) to the way it was?

Continue until the end...

Amy chords – Green Day V7

 There is no real rhythm guitar on this track so here is your chance to add one. There is a five star 
version of this posted already but it has some errors in it and is in the wrong key, (not sure that
green day are big on capos, but I may be wrong). I have made a few corrections, neatened it up and
changed it to the correct key.
Remember your  guitar should be tuned to Eb not E as is the case in lots of green days songs.
Please rate and comment

Intro:  Em Bm   X2

Verse 1:
 G Em C G 
Is your heart singing out of tune, are your eyes just singing the blues
 G Bm C D 
Dirty records from another time, some blood stains on your shoes
 G Em C G 
No one really knows about your soul and I barely really know your name
 G Bm C D G 
Burning rhythms and posting lies and a bunch of fools drown in shame

Chorus:
               Em G Em Bm  
Amy don't you go, I want you around, singin' wo o oh oh please don't go
        C D G C D Em Bm Em Bm 
Do you wanna be a friend of mine, do you wanna be a friend of mine

Verse 2: 
 G Em C G 
Did you tattoo a lucky charm to keep you out of harms way
 G Bm C D  
Warding off all evil signs but never really kept you safe
 G Em C G 
Now You're too young for the golden age 'cause the record bin's been replaced
 G Bm C D G 
Twenty seven go  without a trace and you walked away from your drink

Chorus:
               Em G Em Bm  
Amy don't you go, I want you around, singin' wo o oh oh please don't go
        C D G C D F C Cm F C D         
Do you wanna be a friend of mine, do you wanna be a friend of... Amy please don't Go,  Amy please don't Go

Verse 3:
 G Em C G 
Is your heart singing out of tune, are your eyes just singing the blues
 G Bm C D 
Dirty records from another time, some blood stains on your shoes
 G Em C G 
May I have this last dance by chance if we should meet
 G Bm C D G 
Can you write me a lullaby so we can sing you to sleep

Chorus:
               Em G Em Bm  
Amy don't you go, I want you around, singin' wo o oh oh please don't go
        C D G C D G                      
Do you wanna be a friend of mine, do you wanna be a friend of mine, 
        C D Em Bm Em Bm Em Bm Em Bm Em7 
Do you wanna be a friend of mine 

My Heart chords – Acha Septriasa

 IRWANSYAH  FT ACHA SEPTRIASA – MY HEART (HEART)

Intro
 Bm Bm Bm F#m 

VERSE  (Male)
 Bm F#   
Di sini kau dan aku
Bm7,          Em
Terbiasa bersama
 F# Bm   
Menjalani kasih sayang
 C#dim F# 
Bahagia ku denganmu

VERSE (Female)
 Am E 
Pernahkah kau menguntai
 A Dm 
Hari paling indah
 E Am  
Ku ukir nama kita berdua
 Bdim E 
Di sini surga kita

CHORUS
 Am Dm 
Bila kita mencintai yang lain
 G Am 
Mungkinkah hati ini akan tegar
 F Dm  
Sebisa mungkin, tak akan pernah
 B  dim               E 
Sayangku akan hilang…

 Am Dm 
If we love somebody could we be this strong
 G Am 
I will fight to win Our love will conquer all
 F Dm 
I wouldn’t risk my love Even just one night
 B  dim                         E 
Our love will stay in my heart

Solo
 Fm Bb D# E F  
My heart..
 C#m Bb G C  -  C#  -  D 

VERSE (Female)
 Am E 
Pernahkah kau menguntai
 A Dm 
Hari paling indah
 E Am  
Ku ukir nama kita berdua
 Bdim E 
Di sini surga kita

PRE CHORUS X 2
 Am Dm 
Bila kita mencintai yang lain
 G Am 
Mungkinkah hati ini akan tegar
 F Dm  
Sebisa mungkin, tak akan pernah
 Bdim E 
Sayangku akan hilang…

CHORUS
 Am Dm 
If we love somebody could we be this strong
 G Am 
I will fight to win Our love will conquer all
 F Dm 
I wouldn’t risk my love Even just one night
 Bdim E 
Our love will stay in my heart

ENDING
 Am F Dm E  - 2X
My heart…

BY: ZAKY HDC

Heart Shaped Wreckage chords – Smash V3

 E C#m A B E 
I'm not scared to tell the truth
 C#m 
I've been to hell and back, and I went with you
 A 
Remind me what we were before
   B 
When we said you are mine and I am yours

 E 
I don't know much, but I know myself
 C#m 
And I don't want to love anybody else
 A 
So let's break the spell and lift the curse
 B 
Remember when we fell for each other head first

 E 
Look at this heart shaped wreckage
 B 
What have we done?
 C#m A 
We've got scars from battles nobody won
         E 
We can start over, better
 B C#m     
Both of us know if we just let the broken pieces
 A 
Let the broken pieces go

 E 
I can't find you in the dark
 C#m 
Will we get back to who we are?
 A 
And I can't fix this on my own
        B             
Our love is still the best thing I've ever known

 E 
Look at this heart shaped wreckage
 B 
What have we done?
 C#m A 
We've got scars from battles nobody won
         E 
We can start over, better
 B C#m     
Both of us know if we just let the broken pieces
 A E 
Let the broken pieces go

 A C#m 
Let the broken pieces go
 A E B 
Just hold on to each other tonight, oh

 E 
Look at this heart shaped wreckage
 B 
What have we done?
 C#m A 
We've got scars from battles nobody won
         E 
We can start over, better
 B C#m     
Both of us know if we just let the broken pieces
 A             
Let the broken pieces 
 A             
Let the broken pieces 
 A B E 
Let the broken pieces 

Beat Of My Heart solo Tabs – Noisettes

 -------------------------------------------------------------------------------
                             Beat of My Heart - The Noisettes
-------------------------------------------------------------------------------
: AngelLombard

Tuning: Standard

Dan plays it with plenty of vibrato so just throw some in here and there when it feels right :)
Any corrections or comments are 100% welcome.

e|---16161616--14--12-14--12--14--16-----------------------------------------|
B|---------------------------------------------------------------------------|
G|---------------------------------------------------------------------------|
D|---------------------------------------------------------------------------|
A|---------------------------------------------------------------------------|
E|---------------------------------------------------------------------------|

e|----16161616--14--12-17--16--14--12----------------------------------------|
B|------------------------------------161616-17--12-161616-17--12-161616-17--|
G|---------------------------------------------------------------------------|
D|---------------------------------------------------------------------------|
A|---------------------------------------------------------------------------|
E|---------------------------------------------------------------------------|

e|---------------------------------------------------------------------------|
B|----161616-17-19-----------------------------------------------------------|
G|---------------------------------------------------------------------------|
D|---------------------------------------------------------------------------|
A|---------------------------------------------------------------------------|
E|---------------------------------------------------------------------------|

e|----16161616--14--12-17--16--14--12----------------------------------------|
B|------------------------------------161616-17--12-161616-17--12-161616-17--|
G|---------------------------------------------------------------------------|
D|---------------------------------------------------------------------------|
A|---------------------------------------------------------------------------|
E|---------------------------------------------------------------------------|

e|---------------------------------------------------------------------------|
B|-----161616-1414(14)--12\--------------------------------------------------|
G|---------------------------------------------------------------------------|
D|---------------------------------------------------------------------------|
A|---------------------------------------------------------------------------|
E|---------------------------------------------------------------------------|




************************************

| /   slide up
| \   slide down
| h   hammer-on
| p   pull-off
| ~   vibrato
| +   harmonic
| x   Mute note
| b   Bend
| pb  Pre-bend
| br  Bend release
| pbr Pre-bend release
| brb Bend release bend

************************************

Heart Of Sword chords – Tm Revolution V1

 riff1
e|----------19p17--|
B|--17h19----------|
G|-----------------|
D|-----------------|
A|-----------------|
E|-----------------|


 G A F# B 
hitori de wa tooi ashita o 
yoake no mama de koe sou de 
bukkatte ikya kokeru omoi yo 
 G A B 
kon yo mo mata sure chigai

 A B 
sanzan sugite doryoku no ato mo 
nakunaru kekka only no tsunawatari 
yaru dake sonsuru yo na mainichi wa 
riff1
shani kamaeteta hou koso raku ni naru 

(-bass and drums only-)


(atsukute)
tsurai!
(jibun o)
kakushite!
(mijikai)
toki o ikiteru!

 G A F# B 
hitori de wa tooi ashita o 
yoake no mama de koe sou de 
hanatto keba hashiru omoi yo 
 G A B 
yume mo mata sure chigai 

 A B 
kanpe kitochau jinsei no ushushi 
puremai - zero dananteba honto ka na? 
shinu made ni tsukai kiru un no kazu 
semete jibun de dashi haire o sasete 

(wakacchai)
ni nai!
(kimi nara)
dooni demo!
(rikutsu o)
kaete ii no ni!

 G A F# B 
nando kimi ni ketsu mazuitemo 
modotte kichau aijou ni 
shinji kaneru utare tsuyo sayo
 G A B 
kon yo mo sootoo nemurenai 

Guitar Solo:


e|----------------------------------------9--12--9------7-----7---|
B|------------------------------------10------------10-----7------|
G|-----6--7--9--6--6--7--9--7--9--11------------------------------|
D|--9-------------------------------------------------------------|
A|----------------------------------------------------------------|
E|----------------------------------------------------------------|


e|--10---12b14r12---12--10--9----------------------------------------------|
B|-----------------------------10--------------------10------12b14r12p10---|
G|---------------------------------9-------------11------11----------------|
D|------------------------------------12--11~~~----------------------------|
A|-------------------------------------------------------------------------|
E|-------------------------------------------------------------------------|


e|----------------------10--12b14~~|
B|---------10--12b14---------------|
G|--9--11--------------------------|
D|---------------------------------|
A|---------------------------------|
E|---------------------------------|

(-shots only-)
nando nankai kuri kaeshite mo 
modotte kichau ai dakara 
bukkatteiku kesenu omoi o 
semeru hou ga sujichigai

 Ab Bb G C 
hitori de wa tooi ashita o 
yoake no mama de koete yuku 
aishou yori mo fukai futari wa
 Ab Bb C 
sore chigatte kamawanai 

Outtro (fading):

e|-----------8--10--11--10---------------------------------------------|
B|--11b13-----------------11-------------------------------------------|
G|------------------------------10--8-----------------8--10--10b12r10--|
D|-------------------------------------12--12--8--10-------------------|
A|---------------------------------------------------------------------|
E|---------------------------------------------------------------------|

e|-------------------------------------------------------------|
B|-------------------------------------------------18b20~~~----|
G|--10p8h10p8--7h8p7------7------------------------------------|
D|--------------------10-----10p8--10--12--12------------------|
A|---------------------------------------------10--------------|
E|-------------------------------------------------------------|

e|--18--18b20--18--15-----------------------------------------------------------------|
B|---------------------18--16-----------------15--16----------------------------------|
G|-----------------------------15--17-----17----------15--17----15--17--15------------|
D|-------------------------------------------------------------------------

Summer Guest chords – Asgeir

 Summer Guest
Ásgeir

 Vincent Castonguay

* Original song is tuned half-step down


 E E A E 
My bird flies home from afar
 E B E 
Brings the joy of spring to me
 E A E 
O'er the ocean's endless blue
          B E A E 
He never fails, his path is clear and true


 E E A E 
Perched upon a branch of green
 E B E 
He rests his legs from the long journey
 E A E 
Warms my heart with one true song
          B E A E 
I listen close, to tales of battles won


 B A Dbm F# 
From my heart I thank you friend for this precious melody
           B A Abm A 
For these sweet and pure tones, sweet and pure tones


 E E A E 
When the autumn comes again
 E B E 
I ask you from my heart, my friend
 E A E 
that you'll help me sing your song
            B E A E 
Oh, summer guest, I'll miss you while you're gone.

 B A Dbm F# 
From my heart I thank you friend for this precious melody
           B A Abm A 
For these sweet and pure tones, sweet and pure tones


 E B A Dbm F# 
You made a shelter for my soul if your language I could speak
         B A Abm A 
I would weave a song for you of my own


 E E E E A E E E B E E E A E B E A E E