Tag: Heart

I Had A Heart Christmas chords – Real Friends

         This is my first chords chart. is not 100% correct but its close enough. sorry 
ultomate guitar moves the chords. just listen and you should get it
        Intro:  Bb ,  Db ,  F# ,  Db Db 
I walk on this frozen lake,
Hoping to hit a spot that's weaker than I was,
A year a half ago.
I remember how Christmas used to be,
            Bb Db 
Before she spat me out.
     F# Db 
And left me to roam this empty place.
      Bb Db F# Db 
If I ran to the city sub lights, I'd still feel dull and worn out.
Chours:
 Bb Db F# 
It's time to start over and move on.
    Db Ab Bb Db 
My grandma keeps going on about the New Year
 F# Db Ab Bb 
She says "you can't miss what you forget."

I'll spend the night slamming doors,
 Db 
Smoking outside my grandparents house.
I thought Christmas was the time for us to feel loved.

I feel like no one understands me anymore.
Nothing is how it was last year.
But it's cold and lonely, just like before.

Chorus

 Bb Db F# 
I'll sit and wonder who she loves instead of me.
           Db 
If she told me who it was,
 Bb Db F# Db 
I'm afraid it would rip my heart out
                  Bb Db ,  F# ,  Db 
For my family to see.
 Bb Db F# Db 
At least they'd know I had a heart.

Harden My Heart Tabs by Quarterflash

 #----------------------------------PLEASE NOTE--------------------------------#
#This file is the author's own work and represents their interpretation of the#
#song. You may only use this file for private study, scholarship, or research.#
#-----------------------------------------------------------------------------#
#-----------------------------------------------------------------------------#
#   If you like this tab, please rate it above.  Thank you.
#-----------------------------------------------------------------------------#

 John Shaw (jashaw@shaw-web.net)
Artist:Quarterflash

SAX Solo
e|---------------7------| x2
B|------------7h9-9-b11-|
G|-----------9----------|
D|-----11-9-------------|
A|-9-12-----9-----------|
E|----------------------|

Guitar Fills
                       G   A   Bm   A    G     Bm  A  G  A   Bm          A        G A Bm 
A G
e|---------------------------------------------7---5--3--5----7----------5--------3-5-7--5-3-|
B|-------------7-5-3-2-0---2---3----2----0-----7---5--3--5----7--7-------5--7-----3-5-7--5-3-|
G|-------------7-6-4-2-0---2---4----2----0-----7---6--4--6----7--7--7-7--6--7-6-6-4-6-7--6-4-|
D|---------------------------------------------9---7--5--7----9-----9-9--7----7-7-5-7-9--7-5-|
A|---------------------------------------------9---7--5--7----9----------7--------5-7-9--7-5-|
E|---------------------------------------------7---5--3--5----7----------5--------3-5-7--5-3-|
...for you are lies

Guitar Solo (* Natural Harmonic)
e|----------------7----5-----3\2--------------------8-----*5-----*7-------*12--------9-7-----|
B|-7-----------/7-7-/5-5--/3-3\2------------------------*5--*5-*7--*7--*12---*12---10---7----|
G|--7-9-7---7-----------------------7-9/11--11\9p7-7-----------------------------11------9---|
D|---9---7h9-9-------------------7h9--------------9--9------------------------------------7--|
A|-----------------------------------------------------------------------------------------9-|
E|-------------------------------------------------------------------------------------------|

Hand On Heart chords – Olly Murs V2

 This has always been my favourite and it's great to hear it as a single! 
Hope you enjoy! This is how I play it and hope it's close :)

No Capo

 A 
 Come on, come on,
I'm right, I'm wrong and when I'm wrong I say,
 D 
 We always had the good and bad
And that will never change.
 F#m E 
This is the closest, I've ever been
       D 
Oohh yeah,

 A 
 We give, we take,
we mend, we break,
And so the cycle goes,
 D 
 We're doing well, we've been through hell,
And only heaven knows,
 F#m 
How far we get to,
  E D 
Thank God I met you though,
And if you don't know,

                            A 
Just put your hand on my heart,
Put your hand on my heart,
                      D 
And I don't have to say it,
And I don't have to fake it,
                           F#m 
Just put your hand on my heart
                            E 
Just put your hand on my heart,
            D 
And you'd know,

 A 
 Come on, come on
'Cause you're the one that I want for myself
 D 
 The strength you give, I wanna live,
Inside our little shell,
 F#m 
Nothing comes close to,
 E D 
Nothings supposed to, yeah,

 Bm A E 
     You have your doubts the same way I do,
 Bm A E 
   When you're wrapped safe in my love that's the truth.


                            A 
Just put your hand on my heart,
Put your hand on my heart,
                      D 
And I don't have to say it,
And I don't have to fake it,
                           F#m 
Just put your hand on my heart
                            E 
Just put your hand on my heart,
            D 
And you'd know,


 A 
 When you don't feel that your strong enough to make it,
 D 
 When life treats you hard and don't think you can take it,
 F#m E 
 When you don't know where you stand, you're close to breaking,
 D 
Just put your hand on my heart,
Put your hand on my heart


                            A 
Just put your hand on my heart,
Put your hand on my heart,
                      D 
And I don't have to say it,
And I don't have to fake it,
                           F#m 
Just put your hand on my heart
                            E 
Just put your hand on my heart,
            D 
And you'd know,

                            A 
Just put your hand on my heart,
Put your hand on my heart,
                     F#m 
And I don't have to say it,
And I don't have to fake it,
                           D 
Just put your hand on my heart
Just put your hand on my heart.
             A 
And you'd know.

Hand On Heart chords – Olly Murs

 Artist - Olly Murs
Song - Hand On Heart
ALbum - Right Place Right Time


Capo 2

 A 
Come on, come on, I'm right, I'm wrong, and when I'm wrong I say.
 D 
We always had the good and bad, and that will never change.
 Em E 
This is the closest I've ever been,
 D 
Oohh yeah.

 A 
We give, we take, we mend, we break, and so the cycle goes.
 D 
We're doing well, we've been through hell, and only heaven knows,
 Em E D 
How far we get too, thank God I met you though.
And if you don't know...

                          A 
Just put your hand on my heart, just put your hand on my heart,
                     D 
And I don't have to say it, and I don't have to think it.
                          Em E 
Just put your hand on my heart, just put your hand on my heart.
       D 
You know.

 A 
Come on, come On, cos you're the one that I want for myself.
 D 
The strength you give, I wanna live inside our little shell.
 Em E D 
Nothing comes close too, nothing's supposed too yeah.

 D A E    
You have your doubts the same way I do,
 D A E 
When you're wrapped safe in my love, that's the truth.

                          A 
Just put your hand on my heart, put your hand on my heart,
                     D 
And I don't have to say it, and I don't have to think it,
                          Em E 
Just put your hand on my heart, just put your hand on my heart.
     D 
You know.

 A                                    
When you don't feel that your strong enough to make it,
 D 
When life treats you hard and don't think you can take it,
 E 
When you don't the way you stand your close to breaking,
 D 
Just put your hand on my heart,
Put your hand on my heart

                          A 
Just put your hand on my heart, put your hand on my heart,
                     D 
And I don't have to say it, and I don't have to think it,
                          Em E 
Just put your hand on my heart, just put your hand on my heart.
     D 
You know.

                          A 
Just put your hand on my heart, put your hand on my heart,
                     D 
And I don't have to say it, and I don't have to think it,
                          Em E 
Just put your hand on my heart, just put your hand on my heart.
     D A 
You know.

Yonder Is Closer To The Heart Tabs by Parquet Courts

 YONDER IS CLOSER TO THE HEART - Parquet Courts-
---------------------------------------------------------------- 
:      n8cee Email: nbcline81tabs 
Tuning: Standard
    Em     A    G5
e|---7-----5---------------------------------------------------------------|
B|---8-----5---------------------------------------------------------------|
G|---9-----6----12---------------------------------------------------------|
D|---9-----7----12---------------------------------------------------------|
A|---7-----7----10---------------------------------------------------------|
E|---x-----5---------------------------------------------------------------|

Em                                      A                                                       
Pocket contents: Rizla pack, spare change, receipts in wads.

Em                                     A
Stacked in camps across my desk, each day another pile.
Em                                      A
Time was measured in balls of lent, laundry claim tags and number of cents
Em                                      A
It takes to drown your brain into a just-dowsed former fire.

Em A Em A Em A

Em                                    A
Coffee breaks and lamb's tail shakes aren't arbitrary marks.
Paycheck stubs, good sex and drugs can fade away distractions of the
Mantras of "keep going" that are lodged into my thoughts.
They replay on days when yonder is closer to the heart.

CHORUS RIFF X2
This thickness is just enough to wade through. [x2]

Pocket contents: Rizla pack, spare change, receipts in wads.
Stacked in camps across my desk, each day another pile.
Time was measured in balls of lent, laundry claim tags and number of cents
It takes to drown your brain into a just-dowsed former fire.

CHORUS RIFF X4
This thickness is just enough to wade through. [x4]

BRIDGE
G5 Em G5 Em G5 Em G5 Em

Em                                  A
Coffee breaks and lamb's tail shakes aren't arbitrary marks.
Paycheck stubs, good sex and drugs can fade away distractions of the
Mantras of "keep going" that are lodged into my thoughts.
They replay on days when yonder is closer to the heart.

CHORUS RIFF X4
This thickness is just enough to wade through. [x4]

CHORUS RIFF
e|---------------------------------------------------------------|
B|---------------------------------------------------------------|
G|--------------------12-12-12--9-9-9-9--9-9-9-9-----------------|
D|-----------------7--12-12-12--9-9-9-9--9-9-9-9-----------------|
A|-9-7---------7-9----10-10-10--7-7-7-7--7-7-7-7-----------------|
E|-----10-9-10---------------------------------------------------|

Create In Me A Clean Heart chords – Donnie Mcclurkin V3

 CHORUS
    Gb B Db Gb B Gb B Db 
Create in me a clean heart and purify me, purify me
    Gb B Db Gb Db Gb 
Create in me a clean heart so that I may worship Thee

VERSE
         B Db Db2 Gb 
Cast me not away from Thy presence
              B Db Db2 Gb 
Please don't take your Spirit from me
        B Db Db2 
And restore the joy of salvation
         Gb Db Gb 
So that I may worship Thee

Saints Heart In A Sinners Skin chords – Sean Mcconnell

 C G D G C G D  twice



      C G D G C G D  
Woke up wasted        with whiskey on my breath
            C G D G C G D 
I hate the taste of it,      the day after regret
            C G D G C G D      
I got down on my knees,     I said ‘God it’s me again
            C G D G C G D  
Don’t quit listening     yeah don’t give up on me yet, no’


Yeah I got the best of intentions, but the worst follow through
Sometimes when the night falls, it can cover up the truth
And there’s no excuse, except for every one I make
It goes on and on and on and on, feel like I’m gonna break


Chorus:
       Em D/F#   
I'm a saint’s heart in a sinner’s skin
   G C 
I feel them in there wrestling
        Em D/F# 
I know the spirit and the devil’s touch
        G C C/B Am  
I just never know which one’s gonna win
            C G D G C G D 
Yeah I’m a saint’s heart in a sinner’s skin
            C G D G C G D 
Yeah I’m a saint’s heart in a sinner’s skin


Father forgive me, I know exactly what I do
And I keep doin' it, right in front of you
Yeah, but I heard you’re patient, yeah, well I sure hope that’s true
Been a long, long, long time since I’ve been real with you

Chorus

Chorus


Yeah I’m a saint’s heart in a sinner’s skin
Yeah I’m a saint’s heart in a sinner’s skin 

Kenny Chandler – Heart chords

 Heart:Kenny Chandler.
#64 on BB Hot 100 on LAURIE Records
in 1963.

INTRO:  D 

#1.
 D 
Oh, heart..I hear you beating but her heart just
                    A 
ain't beating like you.
 A 
Oh, heart..you gotta watch out, now, or else she's 
                    D 
gonna break you in two.
 D 
Oh, heart, you better believe me..save yourself for 
          G 
somebody new.
 G D 
Don't make such a fuss..there's no hope for us.
 A D 
She don't care the way that you do.

#2.
 D 
Oh, heart..please stop your pounding..don't settle 
                               A 
yourself for something that's wrong.
 A 
Oh, heart..now don't let her hear you.
                           D 
Come on now, you gotta be strong.
 D 
Oh, heart..you better believe me..save yourself for 
          G 
somebody new.
 G D 
Don't make such a fuss..there's no hope for us.
 A D 
She don't care the way that you do.

#3.
 A D 
Let me tell you now, heart..(now be careful, heart)..

I'm going crazy..(now be careful, heart)..can you hear 
               A 
a word that I say..(now be careful, heart.)
 A 
Oh, heart..(now be careful, heart)..she doesn't want you.
                                                        D 
(Now be careful, heart)..there's no use in acting this way.

(Now be careful, heart.)

#4.
 D 
Yes, I'm telling you, heart..(won't you be careful, heart?)

you better believe me..(won't you be careful, heart)..
                            G 
Save yourself for somebody new..(won't you be careful, heart?)
 G D 
Don't make such a fuss..there's no hope for us.
 A D 
She don't care the way that you do..(now be careful, heart.)

OUTRO:
 D Bm 
Yes, I'm telling you, heart..(won't you be careful, heart?)
                  D 
You better watch out..(now be careful, heart)..
                  Bm 
I'm telling you, heart, heart, heart..(won't you be careful, heart?)
                    D 
Now watch out, you heart..(won't you be careful, heart?)
 D Bm 
Heart, heart, heart..come on now, heart, heart, heart..(Fade.)


A sixties smash from Kraziekhat.

My Heart Is The Worst Kind Of Weapon Tabs by Fall Out Boy V3

 I haven't found any tabs for the demo version of this song, only acoustic tabs. So
I thought i'd tab the demo version (:

Drop D ; DADGBE

(0:00 - 0:35)
E|-----------------------------------------------|
B|-----------------------------------------------|
G|--55---555---555---555---999---999---9-9-------|
D|--55---555---555---555---999---999---1010---4x-|
A|--00---000---033---333---777---777---8-8-------|
D|-----------------------------------------------|

(0:35 - 0:52)
E|-----------------------------------------------|
B|-----------------------------------------------|
G|---------------5557777777-10-10-10-10-10-10-10-|
D|--7777777-555--5557777777-10-10-10-10-10-10-10-|
A|--7777777-555--3335555555-8--8--8--8--8--8--8--|
D|--7777777-555----------------------------------|

(00:52 - 1:06)
E|-----------------------------------------------|
B|-----------------------------------------------|
G|--55---555---555---555---999---999---9-9-------|
D|--55---555---555---555---999---999---1010---4x-|
A|--00---000---033---333---777---777---8-8-------|
D|-----------------------------------------------|

(1:06 - 1:39)
Rhythm Guitar
E|-----------------------------------------|
B|-----------------------------------------|
G|-----------------------------------------|
D|-3-3-3-3-3-3-3-10-10-10-10-10-7-7-7-7-4x-|
A|-3-3-3-3-3-3-3-10-10-10-10-10-7-7-7-7----|
D|-3-3-3-3-3-3-3-10-10-10-10-10-7-7-7-7----|

Lead Guitar
E|--------------|
B|--------------|
G|-12----9------|
D|----10---10---|
A|--------------|
D|--------------|

(1:54 - 2:11)
Rhythm Guitar
E|-----------------------------------------------|
B|-----------------------------------------------|
G|--55---555---555---555---999---999---9-9-------|
D|--55---555---555---555---999---999---1010---2x-|
A|--00---000---033---333---777---777---8-8-------|
D|-----------------------------------------------|

Lead Guitar
E|--------------------------------|
B|--------------------------------|
G|--5~--9~--7~--10-9--------------|
D|--5~--9~--7~--10-10-------------|2x
A|--3~--7~--5~--8--8--------------|
E|--------------------------------|

(2:11 - 2:44)
Rhythm Guitar
E|-----------------------------------------|
B|-----------------------------------------|
G|-----------------------------------------|
D|-3-3-3-3-3-3-3-10-10-10-10-10-7-7-7-7-4x-|
A|-3-3-3-3-3-3-3-10-10-10-10-10-7-7-7-7----|
D|-3-3-3-3-3-3-3-10-10-10-10-10-7-7-7-7----|

Lead Guitar
E|--------------|
B|--------------|
G|-12----9------|
D|----10---10---|
A|--------------|
D|--------------|

Breakdown (2:51 - end)
          PM ------------------|
E|-----------------------15----|
B|-------------------------15--|
G|-----------------------------|
D|-----2-----------------------|
A|-----2--22222-222-222--------|
D|-----2--22222-222-222--------|

E|--------------------------------|
B|--------------------------------|
G|--5~--9~--7~--10-9--------------|
D|--5~--9~--7~--10-10-------------|let ring so much that feedback is all up in your face
A|--3~--7~--5~--8--8--------------|
E|--------------------------------|

Straight From The Heart chords – Gene Clark

 #-------------------------------PLEASE NOTE-------------------------------------#
# This file is the author's own work and represents their interpretation of the #
# song. You may only use this file for private study, scholarship, or research. #
#-------------------------------------------------------------------------------#
Straight From The Heart chords
Gene Clark (Hidden Treasures I)

Capo II

    A F#m C#m D 
My memory  fails to claim
       A E 
Every road of our flight
    A F#m    
It seems that we
 C#m D 
Lost our way
        A E 
In the dark of the night

 A F#m C#m D A 
I believe it was only love
          E 
From the start
      A F#m C#m D 
I'll find the song we can sing
 E E7 A 
Straight from the heart

 E D A 
Fortunes loss

Goes to show
   E D A  feeling
 E7 E 
Money can't buy

     A D 
And though the cost
    A D 
Of living seems so much
      E 
What do we need
    D E 
To really feel alive?

 A F#m C#m D 
There are sounds of emptiness
           A E 
Sounds of laughter and joy
       A F#m C#m D 
There is a song deep within
 A E 
Fear can't destroy

 A F#m C#m D A 
I believe it was only love
          E 
From the start

      A F#m C#m D 
I'll find the song we can sing
 E E7 F#m D A E 
Straight from the heart


Set8

Queen Of My Heart chords – Westlife V3

 Verse 1:
             C 
So here we stand

In our secret place
                        G 
Where the sound of the crowd

Is so far away
                C 
And you take my hand

And it feels like home
             G 
We both understand

It's where we belong


Bridge 1:
            F 
So how do I say?
             G 
Do I say goodbye?
                 F 
We both have our dreams
              G 
We both wanna fly
                C 
So let's take tonight
            G 
To carry us through
            C F C 
The lonely times


Chorus:
                 C F 
I'll always look back as I walk away
                 C G 
This memory will last for eternity
               C F 
And all of our tears Will be lost in the rain
                   C G C F 
When I find my way back to your arms again
               C F G F 
But until that day you know you are
                C F 
The queen of my heart
            C F 
Queen of my heart


Verse 2:
                C 
So let's take tonight

And never let go
                     G 
While dancing we'll kiss

Like there's no tomorrow
                     C 
As the stars sparkle down

Like a diamond ring
                     G 
I'll treasure this moment

Till we meet again


Bridge 2:
                  F 
But no matter how far
             G 
Away you may be
                   F 
I'll just close my eyes
    G F 
And you're in my dreams
                   C G 
And there you will be
         C 
Until we meet


Chorus:
                 C F 
I'll always look back as I walk away
                 C G 
This memory will last for eternity
               C F 
And all of our tears Will be lost in the rain
                   C G C F 
When I find my way back to your arms again
               C F G F 
But until that day you know you are
                C F 
The queen of my heart
            C F 
Queen of my heart


Chorus:
                 C F 
I'll always look back as I walk away
                 C G 
This memory will last for eternity
               C F 
And all of our tears Will be lost in the rain
                   C G C F 
When I find my way back to your arms again
               C F G F 
But until that day you know you are
                C F 
The queen of my heart
            C F 
Queen of my heart


Chorus :
                 G 
I'll always look back
           C 
As I walk away

This memory
      G D 
Will last for eternity
               G 
And all of our tears
                    C 
Will be lost in the rain
                       G 
When I've found my way back
   D G C 
To your arms again
               G C 
But until that day
    D C 
You know you are
                 G<

Dancing Away With My Heart chords – Lady Antebellum V4

 Lady Antebellum - Dancing Away With My Heart
capo 4th

Intro

  C            | Fmaj7        |  C            | Fmaj7         ||x2
-------------|------------|-------------|-------------|
-------------|------------|-------------|-------------|
-------0-----|----0-2-----|-------0-----|-------------|
-----2--0----|-2h3---2----|-----2--0----|-3--2--------|
-2h3---------|------------|-2h3---------|-------3-----|
-------------|------------|-------------|--------3h5--|

Verse 1
 C Fmaj7
I finally asked you to dance on the last slow song
 C Fmaj7
Beneath the moon that was really a disco ball
 Dm Am Fmaj7 G
I can still feel my head on your shoulder
     Dm Am Fmaj7 G
And hoping that song would never be over

Chorus
 C Fmaj7
I haven't seen you in ages
 C Am G
Sometimes I find myself wondering where you are
 C Fmaj7
For me you'll always be 18
      Am G
And beautiful and dancing away with my heart

Int     C       | Fmaj7   ||

Verse 2
 C Fmaj7
I brushed your curls back so I could see your eyes
 C Fmaj7
And the way you moved me was like you were readin my mind
 Dm Am Fmaj7 G
I can still feel you lean into kiss me
    Dm Am Fmaj7 G
I can't help but wonder if you ever miss me

Chorus
 C Fmaj7
I haven't seen you in ages
 C Am G
Sometimes I find myself wondering where you are
 C Fmaj7
For me you'll always be 18
      Am G Am G/B C C/E F
And beautiful and dancing away with my heart



Bridge
      Am G F
You headed off to college at the end of that summer and we lost touch
    Am G F
I guess I didn't realize even at the moment we lost so much

Chorus
 C Fmaj7
I haven't seen you in ages
 C Am G
Sometimes I find myself wondering where you are
 C Fmaj7
For me you'll always be 18
      Am G C
And beautiful and dancing away with my heart

Outro
            Fmaj7 C Fmaj7 C
Na na nah nah  Nana nah nah  Nana nah nah  away with my heart
            Fmaj7 C Fmaj7
Na na nah nah  Nana nah nah  Nana nah nah

Can You Feel My Heart Tabs by Bring Me The Horizon V2

 Drop D-Tuning

There is a pretty nice tab online, i just added some small corrections.



Synth Intro

e|-7-7-7-10-8-7-7---7-10-8-7-7-7-10-8-7-7---7---7---7--7|
B|----------------5-----------------------5---5---5-----|
G|------------------------------------------------------|
D|------------------------------------------------------|
A|------------------------------------------------------|
D|------------------------------------------------------|

Guitar Chords

e|-----------------------------------------|
B|-----------------------------------------|
G|-5---2-------------2---5-----------------|
D|-5---2---2-----5---2---5---2-------------|
A|-3---0---2-----5---0---3---2-------------|
D|---------2-----5-----------2-------------|
           ^
         hold it pretty long


Riff
e|---------------------------------------------|
B|---------------------------------------------|
G|-----------------------4---------------------|
D|-------------------5----------7p5------------|
A|--5/7---------5--7------------------7--------|
D|---------------------------------------------|

e|---------------------------------------------|
B|---5--5--5--5--------------------------------|
G|---------------4---5(hold)-------------------|
D|---------------------------------------------|
A|---------------------------------------------|
D|---------------------------------------------|


e|---------------------------------------------|
B|---------------------------------------------|
G|--------4------------------------------------|
D|--5--7-----7--5------------------------------|
A|------------------7(hold)--------------------|
D|---------------------------------------------|


Synth Bridge
e|----------7--------------7---------------------|
B|--8-----7----5-7-8-----7-----------------------|
G|-----------------------------------------------|
D|-----------------------------------------------|
A|-----------------------------------------------|
E|-----------------------------------------------|

Chorus

e|-----------------------------------------|
B|-----------------------------------------|
G|-5---2-------------2---5-----------------|
D|-5---2---2-----5---2---5---2-------------|
A|-3---0---2-----5---0---3---2-------------|
D|---------2-----5-----------2-------------|
           ^
         hold it pretty long


All thanks to pakopako for his great tab!

Black Heart Tabs by Stone Temple Pilots V2

 #----------------------------------PLEASE NOTE--------------------------------#
#This file is the author's own work and represents their interpretation of the#
#song. You may only use this file for private study, scholarship, or research.#
#-----------------------------------------------------------------------------#
#-- File created with Instab - http://www.pconline.com/~smcarey/instab.html --#
#-----------------------------------------------------------------------------#

Author/Artist: Stone Temple Pilots
Title: Black Heart
b bend
r release bend
h hammer on
/ slide up
A Arpeggio
m mute

G1 Two Guitars Arr. for One (eb A D f# a d), Down ~ 10%
G2 Solo Guitar Tuning (eb A D G B E), Down ~ 10%



----|--------------------------------------------------------------|----------|
----|--------------------------------------------------------------|----------|
----|-8---8--8-8--6-7-8---8--8-8--6-7-8---8--8-8-------------------|----------|
----|-5-5-5--5-5--x-x-5-5-5--5-5--x-x-5-5-5--5-5-5-5---------------|----------|
----|-------------8-9-------------8-9------------5-7-8--7--5-3-----|----------|
----|--------------------------------------------x-x-----------7-4-|----------|
 G1 Verse  m               m               m




----|---------------------------------------------|---------------------------|
----|---------------------------------------------|---------------------------|
----|-8b--8--8--8b--8--6b-8--8b-------------------|---------------------------|
----|-5b--5--5--5b--5--x--5--5b-5-5---------------|---------------------------|
----|------------------8b-------5-7-8--7--5-3-----|---------------------------|
----|---------------------------x-x-----------7-4-|---------------------------|
  Verse End




-|---------------------------------------------------------------------------|
-|---------------------------------------------------------------------------|
-|-------------13-13--------------13--8---------------13-13---------------13-|
-|---------12-----12----------12------------------12-----12-----------12-----|
-|-8h10-10------------8h10-10-------------8h10-10-------------8h10-10--------|
-|------------------------------------7--------------------------------------|
  Bridge          A                                      A



-|----------------------------------------------------------------------------|
-|----------------------------------------------------------------------------|
-|----------------------------------------------------------------------------|
-|-5--5--5-5-5-5--5--5--5-5-5-5--3--3--3-3-3-3--3--3--3-3-3-3--5--5--5-5-5-5--|
-|-6--6--6-5-6-5--6--6--6-5-6-5--5--5--5-3-5-3--5--5--5-3-5-3--6--6--6-5-6-5--|
-|-x--x--x-x-x-x--x--x--x-x-x-x--x--x--x-x-x-x--x--x--x-x-x-x--x--x--x-x-x-x--|
   Chorus       m  m  m        m  m  m        m  m  m



-------------------------------------|----------------------------------------|
-------------------------------------|----------------------------------------|
---------------------------13--13----|----------------------------------------|
--5--5-5-5-5------------12-12--12----|----------------------------------------|
--6--6-5-6-5------10-10--------------|----------------------------------------|
--x--x-x-x-x---11--------------------|----------------------------------------|
               Let Ring    A   A




----|-------------------------------------------------------|-----------------|
----|-------------------------------------------------------|-----------------|
----|---------------------------------------------------13--|-----------------|
----|------------------------------------------------12-----|-----------------|
-10-|-10---------------------------------------10-10--------|-----------------|
----|---------------------------------------11--------------|-----------------|
      "Rescue me..."                        "mind........."




----|------------------------------------

Fire In My Heart chords – Simple Plan

 chords - AdamD

Capo 2nd fret


[Intro]
 A D/F# G 


[Verse]
    A D/F# G D/F# 
I betcha didn't know, you started up a chain reaction, 
 A D/F# G D/F# 
I saw no intention on your face, 
 A D/F# G D/F#      
It might have been some kind of chemical attraction.
 A D/F# G 
I felt a spark, it left a mark I can't erase.


[Pre-chorus]
          G D/F# 
It likes oh, oh, 
  A D/F# 
Something like a bolt of lightning.
 G D/F# 
Oh, oh, 
  A 
It's going on inside! 


[Chorus]
             G D     
Cause I'm burning up it ain't no joke,
    Asus4 A D/F# 
And all my cells are growing old! 
   G D Asus4 D/F# 
Caught up in a blaze with no way out.
               G D    
And if my self-control goes up smoke, 
  Asus4 A D/F# Em7 
One more hit, I get so stoked that I, 
       D/F# G Asus4 
I'm glowing in the dark,
                        A D/F# G  
You lit a fire in my heart! 
                        A D/F# G  
You lit a fire in my heart.
                        A D/F# G  
You lit a fire in my heart.


[Verse]
It was kicking that beat, steady in my body, 
Till you pumped it up with gasoline, 
Struck a match and just like that you got me, 
Now I'm the brightest firework you've ever seen.


[Pre-chorus]
 
[Chorus]


[Bridge]
                        G A 
You lit a fire in my heart. (Fire in my heart)
                        Bm Asus4 
You lit a fire in my heart. (Fire in my heart)


[Pre-chorus]

[Chorus] x2

Shape Of My Heart chords – Sting V4

 The other versions I found on here were either wrong, not complete or overly complicated. 
So I decided to post this straightforward version for the intermediate player. Enjoy! 
-- Fejwin


Shape of my heart - Sting

 Gm Cm 
He deals the cards as a meditation
 Gm Cm 
And those he plays never suspect
 D# Bb D 
He doesn't play for the money he wins
 D# Gm 
He doesn't play for respect

 Gm Cm 
He deals the cards to find the answer
 Gm Cm 
The sacred geometry of chance
 D# Bb D 
The hidden law of a probable outcome
 D# Gm 
The numbers lead a dance

CHORUS:
 Gm Bb D 
I know that the spades are the swords of a soldier
 Gm Cm 
I know that the clubs are weapons of war
 D# Bb D 
I know that diamonds mean money for this art
 D# D 
But that's not the shape of my heart

 Gm Cm 
He may play the jack of diamonds
 Gm Cm 
He may lay the queen of spades
 D# Bb D 
He may conceal a king in his hand
 D# Gm 
While the memory of it fades

              D# D Bb D 
CHORUS.  ... But that's not the shape ... shape of my hea~~~~rt

 Gm Cm 
And if I told you that I loved you
 Gm Cm 
You'd maybe think there's something wrong
 D# Bb D 
I'm not a man of too many faces
 D# Gm 
The mask I wear is one

 Gm Cm 
Those who speak know nothing
 Gm Cm 
And find out to their cost
 D# Bb D 
Like those who curse their luck in too many places
 D# Gm 
And those who fear are lost

                          D# D Gm    
CHORUS.   ...2nd time:   But that's not the sha~~~pe ... of my hea~~rt

Half A Heart chords – One Direction V4

 No Capo. Simplified Version.


[Verse 1]

 C  
So your friends been telling me
 G Am 
You've been sleeping with my sweater 
 F                                  
And that you can't stop missing me 
 C G 
Bet my friends been telling you 
                     Am 
I'm not doing much better
 F 
Because I'm missing half of me 
 Am 
And being here without you 
 G 
It's like I'm waking up to 

[Chorus]

 C 
Only half a blue sky 
 G 
Candid there but not quite
 Am  
I'm walking round with just one shoe 
 F 
I'm a half a heart without you 
 C 
I'm half the man, at best 
 G 
With half an arrow in my chest 
 Am 
I miss everything we do 
 F 
I'm a half a heart without you 
 C G 
Forget all we said the night 
                      Am 
No it doesn't even matter 
 F 
Cause we both got split in two 
 C G 
If you could spare an hour or so
                                 Am 
We'll go for lunch down by the river 
 F 
We could really talk it through
 Am  
And being here without 
 G 
It's like I'm waking up to 
 C 
Only half a blue sky
 G  
Kinda there but not quite
 Am                                
I'm walking round with just one shoe 
 F 
I'm a half a heart without you 
 C 
I'm half the man, at best 
 G 
With half an arrow in my chest 
 Am 
I miss everything we do 
 F C    
I'm a half a heart without you 
 G Am 
Half a heart without you
 G C 
I'm a half a heart without you 

 C G 
Though I try to get you out of my head 
                     Am 
The truth is I got lost without you 
          F 
And since then I've been waking up to 
 C 
Only half a blue sky 
 G 
Kinda there but not quite 
 Am 
I'm walking round with just one shoe 
 F 
I'm a half a heart without you 
 C 
I'm half the man, at best 
 G 
With half an arrow in my chest 
 Am 
I miss everything we do 
 F 
I'm a half a heart without you 
 C 
Without you, without you
 G  
Half a heart without you
 C  
Without you, without you
 G C  
I'm half a heart without you

Half A Heart Tabs by One Direction V3

 :missbananadog
acarter98@nycap.rr.com

Tuning:EADGBe

 *strum once

       
   Intro: C x2            Verse: C x2                        Em x2
e|---5-------------5---------------5--------------5-------------------------|
B|---1-------------1---------------1--------------1--------------0----------|
G|------0-0-------------0-0------------0-0------------0-0--------0----------|
D|--2----2------2--------2------2-------2------2-------2-------2---2-2------|
A|-3----------3---------------3--------------3----------------2-----2-------|
E|--------------------------------------------------------------------------|
             Am x2                   F x2            (verse x2)
e|--------------------------------------------------------------------------|
B|----0----------1-----------1-----------1---------1------------------------|
G|----0----------2-----------2-----------2---------2------------------------|
D|--2---2-2----2----2-2----2----2-2----3---3-3---3---3-3--------------------|
A|-2-----2----0------0----0------0----3-----3---3-----3---------------------|
E|--------------------------------------------------------------------------|

  Pre-Chorus: Am x2         G x2
e|-----------------------------3--------3-----------------------------------|
B|------1----------1-----------3--------3-----------------------------------|
G|------2----------2----------0--0-0---0---0-0------------------------------|
D|----2---2-2----2----2-2---------0---------0-------------------------------|
A|---0-----2----0------2----------------------------------------------------|
E|--------------------------3---------3-------------------------------------|


   Chorus: C x2                      Em x2            Am x2
e|---5-------------5--------------------------------------------------------|
B|---1-------------1-------------0---------0---------1-----------1----------|
G|------0-0-------------0-0------0---------0---------2-----------2----------|
D|--2----2------2--------2------2---2-2---2--2-2----2---2-2-----2---2-2-----|
A|-3----------3---------------2------2---2----2----0-----0----0------0------|
E|--------------------------------------------------------------------------|
     F x2            
e|-----------------------------------|
B|----1--------1---------------------|
G|----2--------2---------------------|        Repeat Chorus twice
D|---3--3-3---3---3-3----------------|
A|--3----3---3-----3-----------------|
E|-----------------------------------|


  Interlude: C x2       Verse: C x2                        Em x2
e|---5-------------5---------------5--------------5-------------------------|
B|---1-------------1---------------1--------------1--------------0----------|
G|------0-0-------------0-0------------0-0------------0-0--------0----------|
D|--2----2------2--------2------2-------2------2-------2-------2---2-2------|
A|-3----------3---------------3--------------3----------------2-----2-------|
E|--------------------------------------------------------------------------|
             Am x2                   F x2            (verse x2)
e|--------------------------------------------------------------------------|
B|----0----------1-----------1-----------1---------1------------------------|
G|----0----------2-----------2-----------2---------2------------------------|
D|--2---2-2----2----2-2----2----2-2----3---3-3---3---3-3--------------------|
A|-2-----2----0------0----0------0----3-----3---3-----3---------------------|
E|--------------------------------------------------------------------------|


  Pre-Chorus: Am x2         G x2
e|-----------------------------3--------3-----------------------------------|
B|------1----------1-----------3--------3-----------------------------------|
G|------2----------2----------0--0-0---0---0-0------------------------------|
D|----2---2-2----2----2-2---------0---------0-------------------------------|
A|---0-----2----0------2-----------