Tag: hearts

Hearts Dont Break Around Here Piano Chords by Ed Sheeran

[Verse 1]
G                               D
  She is the sweetest thing that I know
Em                       C                             G
  Should see the way she holds me when the lights go low
                        D              Em      C
  Shakes my soul like a pothole every time
G                      D         Em
  Took my heart upon a one way trip
                 C                  G
  Guess she went wandering off with it
                        D
  None like most women I know
Em               C
  This one will bring it back whole


[Pre-Chorus]
C         G       D                 Em
Daisies, daisies perched upon your forehead
       C     G       D
Oh my baby, lately I know


[Chorus]
            G                           D         Em
That every night I’ll kiss you, you’ll say in my ear
             C            G
Oh we’re in love, aren’t we?
               D   Em
Hands in your hair
             C        G
Fingers and thumbs, baby
                        D          Em
I feel safe when you’re holding me near
          C                        G
Love the way that you conquer your fear
                        D           C
You know hearts don’t break around here
               G   D     Em
Oh yeah, yeah, yeah
C                  G  D    Em    C
Yeah-yeah, yeah-yeah


[Verse 2]
G                           D
  She is the river flowin’ Orwell
Em              C
  And tin wind chimes used for doorbells
G                      D    Em                 C
  Fields and trees and her smell fill my lungs
G                       D
  Spend my summertime beside her
Em                    C
  And the rest of the year the same
G                               D
  She is the flint that sparks the lighter
Em                        C
  And the fuel that will hold the flame, oh


[Pre-Chorus]
C       G     D             Em
Roses, roses laid upon your bed spread, oh my
C         G        D
All this, all this I know


[Chorus]
            G                           D         Em
That every night I’ll kiss you, you’ll say in my ear
             C            G
Oh we’re in love, aren’t we?
               D   Em
Hands in your hair
             C        G
Fingers and thumbs, baby
                        D          Em
I feel safe when you’re holding me near
          C                        G
Love the way that you conquer your fear
          Em            D           C
You know hearts don’t break around here

Oh yeah, yeah, yeah



[Bridge]
C                   G     D
  Well, I’ve found love inside
       Em         D        C       
  The arms of the woman I know
C             G                 D
  She is the lighthouse in the night
            Em      D        C
  That will safely guide me home
C              G                D
  And I’m not scared of passing over
         Em         D        C  
  Or the thought of growing old
                          D
  ‘Cause from now until I go


[Chorus]
            G                           D         Em
That every night I’ll kiss you, you’ll say in my ear
             C    D      G
Oh we’re in love, aren’t we?
               D   Em
Hands in your hair
             C      D G
Fingers and thumbs, baby
                        D          Em
I feel safe when you’re holding me near
          C                        G
Love the way that you conquer your fear
         Em             D           C
You know hearts don’t break around here, oh yeah, yeah

            G                           D         Em
That every night I’ll kiss you, you’ll say in my ear
             C    D       G
Oh we’re in love, aren’t we?
               D   Em
Hands in your hair
             C      D  G
Fingers and thumbs, baby
                        D          Em
I feel safe when you’re holding me near
          C                        G
Love the way that you conquer your fear
         Em             D           C                    Em
You know hearts don’t break around here, oh yeah, yeah, yeah
         Em             D           C                    G
You know hearts don’t break around here, oh yeah, yeah, yeah

Angels Serenade chords – Hearts At War

    Artist: Hearts at War
                    http://www.heartsatwar.com/
                YT: http://www.youtube.com/user/DookiefiedOfficial
   Song: Angel's Serenade
                  From album "Nowhere Kids" (2015)
                  


!!! HALF-STEP DOWN TUNING !!!
Transpose -1 (half-step) to play In standard tuning.


Verse:
  D 
   Angels serenading
  Bm A 
   Every nerve vibrating and I
                    G 
   I don't dare to move

  D 
   Safe from a world of harm
  Bm 
   Back in my mother's arms
    A G 
   I feel her beating heart


Chorus:
  D Bm A 
   I'm one with the sun and the stars
        G D 
   And everything that we are
              Bm A 
   I feel it, I see it, I know
           G D 
   I must never let go


Verse:
  D 
   Chasing fireflies
  Bm 
   The mesmerizing lights
    A G 
   I'm drifting high as a kite

  D 
   Like a soothing lullaby
  Bm 
   Like a summer breeze in July
    A G 
   I'm carried by the divine


Chorus:
  D Bm A 
   I'm weightless, drifting astray
      G D 
   A thousand light years away
                 Bm A 
   The grace and the heavenly frame
           G                   
   I wish all could feel the same


Bridge:
         F#m 
   I'll tell you I've been there
              Bm 
   Where the stars are aligned
        A 
   Catapulted through dimensions
           G 
   Places no one could find

    F#m 
   Secret doors, hallways
             Bm 
   Reaching out with no end
      A 
   Embraced by the beauty

   Like a long lost friend


[ INSERT SOLO HERE ]   D Bm A    X2


Chorus:

   Chorus:
  D Bm A 
   I'm one with the sun and the stars
        G D 
   And everything that we are
              Bm A 
   I feel it, I see it, I know
           G D 
   I must never let go

                   Bm A 
   I'm weightless, drifting astray
      G D 
   A thousand light years away
                 Bm A 
   The grace and the heavenly frame
           G D 
   I wish all could feel the same

Wrong Side Of Town chords – Hearts At War

    Artist: Hearts at War
                    http://www.heartsatwar.com/
                YT: http://www.youtube.com/user/DookiefiedOfficial
   Song: Wrong Side of Town
                  From album "Nowhere Kids" (2015)
                  


Verse:
           Bb F 
   We had dreams of fame and succes
        Eb Bb F 
   But look at you now, a sickly mess
            Bb F 
   Used to be joke now it's not so cool
           Eb F 
   You're looking like a fool

          Bb F 
   I was there when you wept, stripped off your pride
             Eb Bb F 
   When you crawled in the gutter I was at your side
          Bb F 
   But I can't do this, watch you fall apart
       Eb F 
   It breaks my heart


Chorus:
                  Bb Gm F Eb 
   You're on the wrong side of town (and I can't help you)
    Bb Gm F Eb  
   Wrong side of town (and I can't help you)
    Bb Gm F Eb 
   Wrong side of town (and I can't help you)
    Bb Gm F       
   Wrong side of town


Verse:
         Bb F 
   It's been 6 months still think of you
            Eb Bb F 
   Are you still shooting dope with the same old crew
           Bb F 
   Man, I know you come from a broken home
                 Eb F 
   But you were never alone

        Bb F 
   But some seem bound to burn out quick
         Eb Bb F 
   Live fast, die young, it's the same old shit
           Bb F 
   It was all revolution and teenage dreams
    Eb F 
   Suicidal schemes


Chorus:
                  Bb Gm F Eb 
   You're on the wrong side of town (and I can't help you)
    Bb Gm F Eb  
   Wrong side of town (and I can't help you)
    Bb Gm F Eb 
   Wrong side of town (and I can't help you)
    Bb Gm F       
   Wrong side of town


Bridge:
  Eb Bb F 
   Tell me what you're looking for
  Eb Bb Bb Gm F 
   A purpose or just something to kill the bore
  Eb Bb F 
   Or maybe to go out in flames
  Eb Bb Bb Gm F 
   Misunderstood or pathetically self-proclaimed


Chorus:
                  C Am G F 
   You're on the wrong side of town (and I can't help you)
    C Am G F  
   Wrong side of town (and I can't help you)
    C Am G F 
   Wrong side of town (and I can't help you)
    C Am G       
   Wrong side of town

Weight Of The World chords – Hearts At War

    Artist: Hearts at War
                    http://www.heartsatwar.com/
                YT: http://www.youtube.com/user/DookiefiedOfficial
   Song: Weight of the World
                  From album "Nowhere Kids" (2015)
                  


!!! HALF-STEP DOWN TUNING !!!
Transpose -1 (half-step) to play In standard tuning.(every note one fret down for riffs)!

(I'm not 100% sure of the endings of the riffs)


PART I:


Intro:

eb|-----------------------------9-9-------------------------------|
Bb|-----------------------------------9-9-------------------------|
Gb|/6-------4-6-6b-4---/9-9-7-6-----6-----------6-676-4-----------|
Db|-----7-7-------------------------------7-7-7-------------------|
Ab|---------------------------------------------------------------|
Eb|---------------------------------------------------------------|

                   A F#m E 
   I can take the pain, you know I won't stand down
             F#m D E 
   I rather bleed, than to give up my mind
                    A F#m E 
   I'm filled with rage, and emotional issues
                 D A E 
   I don't know why and I really don't care


PART II:


Chorus:
       D E A 
   Confined to his own private hell
       D E F#m 
   He knows the pain all too well
     D E A F#m 
   Emerged with the scars and a story to tell
        D E A 
   The ballad of Maxwell's hell
        D E A 
   The ballad of Maxwell's hell

Verse:
        D C#m F#m 
   You talk and you talk I just want you to leave
          D C#m F#m 
   Cause you don't really know a goddamn thing about me
         D C#m F#m 
   I've heard your confessions I know your black heart
                E 
   I know that part...

Chorus:
       D E A 
   Confined to his own private hell
       D E F#m 
   He knows the pain all too well
     D E A F#m 
   Emerged with the scars and a story to tell
        D E A 
   The ballad of Maxwell's hell

Verse:
       D C#m F#m 
   So now you come around trying to be my best friend
       D C#m F#m 
   To look for redemption and ways to amend
        D C#m F#m 
   But you won't find salvation in me that's for sure
                 E 
   So close the door...

Chorus:
       D E A 
   Confined to his own private hell
       D E F#m 
   He knows the pain all too well
     D E A F#m 
   Emerged with the scars and a story to tell
        D E A 
   The ballad of Maxwell's hell
        D E A E 
   The ballad of Maxwell's hell


PART III:


eb|---------------------------------------------------------------|
Bb|---------------------------------------------------------------|
Gb|-6-4-6-4-6-4-6--4-4-4------------------6-6-6-4-----------------|
Db|----------------------6--7-6-7-6-7-6-7-------------------------|
Ab|---------------------------------------------------------------|
Eb|---------------------------------------------------------------|

eb|---------------------------------------------------------------|
Bb|----------------------

Virgin Suicide chords – Hearts At War

    Artist: Hearts at War
                    http://www.heartsatwar.com/
                YT: http://www.youtube.com/user/DookiefiedOfficial
   Song: Virgin Suicide
                  From album "Nowhere Kids" (2015)
                  

Intro:

    Bb Eb Bb Eb Bb Eb F     X3

Verse:
            Bb 
   You and I, let's go for a ride
    Gm 
   Shoot the moon, aim for the sky
          Dm F 
   We're nowhere kids, we don't know where we're going

      Bb 
   A burden to society
    Gm 
   Ignoring adversity
    Dm F 
   Running so fast even life cannot catch us

Chorus:
                Eb F 
   We'll never die, never grow old
             Bb F Gm F 
   And we refuse to be pushed and controlled
                   Eb 
   That's what we are
            F Bb     
   Bastard sons dressed in battle scars

[INTRO]

Verse:
    Bb  
   Heads filled with manic dreams
    Gm 
   Making plans and crazy schemes
         Dm F 
   We refuse to excuse our existence

    Bb      
   Turning inwards, locked inside
    Gm 
   Shutting out not trying to hide
    Dm F 
   Misunderstood and rejected

Chorus:
                Eb F 
   We'll never die, never grow old
             Bb F Gm F 
   And we refuse to be pushed and controlled
                   Eb 
   That's what we are
            F Bb Eb F Bb 
   Bastard sons dressed in battle scars

Bridge:
                         Eb F Bb 
   Where are we going?
                         Eb F Bb 
   I'll just follow you around
                     Eb F Bb   
   Like a couple of losers
                F 
   We're going down

 Chorus:
                Eb F 
   We'll never die, never grow old
             Bb F Gm F 
   And we refuse to be pushed and controlled
                   Eb 
   That's what we are
            F Eb     
   Bastard sons dressed in battle scars
                   F 
   That's what we are

[INTRO]

Rosewater Blues chords – Hearts At War

    Artist: Hearts at War
                    http://www.heartsatwar.com/
                YT: http://www.youtube.com/user/DookiefiedOfficial
   Song: Rosewater Blues
                  From album "Nowhere Kids" (2015)
                  


!!! HALF-STEP DOWN TUNING !!!
Transpose -1 (half-step) to play In standard tuning.

Intro:

    G C G C G C D 


Verse:
  G 
   I lie awake in the midnight hour
  C D 
   Talking to you in my head
  G 
   Oh baby the dress you're wearing
  C D 
   And those lips so cherry red

  G 
   You're too good to be true you are
  C D 
   The one I fantasize about
  G 
   Keep going, oh keep going
  C D 
   I wanna hear you scream and shout


Chorus:
  Am D 
   Oh I'm not lying
                  Em D C 
   I wasn't even trying to fall in love
  Am D 
   It's all so crazy
                   Em D C 
   And now she is all that I'm thinking of
             D 
   Thinking of


    G C G C G C D 


Verse:
   G 
   I lie awake in the midnight hour
   C D 
   Having a date on my own
   G 
   Rub it for luck and wave the wand well
   C D 
   What do you do when you're all alone

   G 
   I've composed a letter to you
   C D 
   The words I dear not to speak
   G 
   I even drew a heart and signed it
   C D 
   With a kiss, it's oh so neat

Chorus:
  Am D 
   Oh I'm not lying
                  Em D C 
   I wasn't even trying to fall in love
  Am D 
   It's all so crazy
                   Em D C 
   And now she is all that I'm thinking of
             D 
   Thinking of



[ INSERT SOLO HERE ]  G   C D  x3 
                       G C E 
   
( Key change 1 whole step up )


Verse:
   A 
   I lie awake in the midnight hour
   D E 
   Talking to you in my head
   A              
   Oh baby the dress you're wearing
   D E 
   And those lips so cherry red

   A  
   You're too good to be true you are
   D E 
   The one I fantasize about
   A 
   Keep going, oh keep going
   D E 
   I wanna hear you scream and shout

Chorus:
  Bm E 
   Oh I'm not lying
                  F#m E D 
   I wasn't even trying to fall in love
  Bm D 
   It's all so crazy
                   F#m E D 
   And now she is all that I'm thinking of


   A E 
   Oh I'm not lying
                  F#m E D 
   I wasn't even trying to fall in love
   A E 
   It's all so crazy
                   F#m E D 
   And now she is all that I'm thinking of
             E 
   Thinking of


    A D A D A D A

Saltwater Hearts chords – Dave Gunning

 Dave Gunning - Saltwater Hearts


CAPO: 2nd Fret



INTRO:  Am G C Am G F G F G C F G C 
Saltwater hearts underneath the moon
          Am F G C 
Changing tides rolling like a tune
          F C G 
Into the days that keep ending much too soon
           Am F G C 
Saltwater hearts always drifting back to you


            F Dm7 G C 
I remember back to when we were young
              F Dm7 G C 
Our love was new like the morning sun
             F C G 
And all the battles we fought, we won
              Am F G C 
With healing words and the distance that we've come


           C F G C 
Saltwater hearts underneath the moon
          Am F G C 
Changing tides rolling like a tune
          F C G 
Into the days that keep ending much too soon
           Am F G C 
Saltwater hearts always drifting back to you


CHORUS:
         F C 
All the things that we love best
        F G Am 
Always seem to stand the test
        Em F 
In the shadows fear can hide
         C F 
But our dreams are still alive


INSTRUMENTAL:  Am F G C Am F G C F Dm7 G C 
Boats afloat and shipwrecks never found
         F Dm7 G C 
Carried chests that were buried in the ground 
          F C G 
Some had left their posts before their ships went down
               Am F G C 
The rest have gone, forever sleep without a sound


INTERLUDE:            Am F G C 
           Ooh, ooh, oooh, ooh, ooh, oooh
                      Am F G C 
           Ooh, ooh, oooh, ooh, ooh, oooh


CHORUS:
         F C 
All the things that we love best
        F G Am 
Always seem to stand the test
            Em F 
Behind the doors fear can hide 
           C F 
But we've swung them open wide


           C F G C 
Saltwater hearts underneath the moon
          Am F G C 
Changing tides rolling like a tune
          F C G 
Into the days that keep ending much too soon
           Am F G C 
Saltwater hearts always drifting back to you


OUTRO:   (## fade to end ##)
           Am F G Am G C Am G F 
Saltwater hearts always drifting back to you______
 Am G C Am G F 
You______
 Am G C Am G F 
You______
 Am G C Am G F 
You______

Maybe chords – Candy Hearts V2

 (Capo 2)

Verse 1: 

 G      
The way you hold your cigarette

 C 
Like it is a habit you're not

 Em C G 
sure you, should hold on to

 G 
The way I hold my shoulders low

 C 
and wait around for you to call

 Em C G 
don't have much, to hold on to



Chorus:


 C Em 
Well, you could hold on to 

 D G 
me like your bad habits

 C Em D 
I will hold on to you 

 G 
like you're good for me,

 C Em  
you could hold on to 

 D G 
me like your bad habits

 C Em D 
you might just prove me wrong, 

      G 
But we'll see



Verse 2:

 G    
I bite my nails but not my tongue

 C 
I get nervous and say too much 

      Em C G 
I'm trying to be better

 G           
To not call you every time I drink

 C Em 
As an excuse to say the things     

         C G 
You'd never say to me



Chorus:

      C Em 
Well I will hold on

     D G 
to you like a bad habit

 C Em 
You could hold on like 

     D G 
I'm someone you'd want

 C Em D 
I will hold on to you

         G 
like a bad habit

 C Em D 
I might just prove you wrong

              G  
but probably not



Verse:

 G      
The way you hold your cigarette

 C 
Like it is a habit you're not

 Em C G 
sure you, should hold on to

 G 
The way I hold my shoulders low

 C 
and wait around for you to call

 Em C G 
don't have much, to hold on to


Outro:

 C Em D G  
well you could hold on to me like your bad habits

 C Em D G 
you could hold on like I'm someone you'd want

 C Em D G 
you could hold on to me like your bad habits

 C Em D 
you might just prove me wrong

 C Em D 
i might just prove you wrong

               G 
but probably not.

Queen Of Hearts Tabs – Juice Newton

 QUEEN OF HEARTS

As recorded by Juice Newton
(From the 1981 Album JUICE)

Words and Music by Hank DeVito

 Slowhand


Gtr I (E A D G B E) - 'Robert Otha Young - Electric Guitar'
Gtr II (E A D G B E) - 'Juice Newton - Acoustic Guitar'
Gtr III (E A D G B E) - 'Chuck Martin - Electric Guitar'


 Intro
  Q=166
  N.C.                D               N.C.                G
 4/4
  Gtr I (El. Gtr.)
  PM------------------------------------------------------------------|
  E E E E E E E E   E E E E E E E E   E E E E E E E E   E E E E E E E E
|-----------------|-----------------|-----------------|-----------------|
|-----------------|-----------------|-----------------|-----------------|
|-----------------|-----------------|-----------------|-----------------|
|-----------------|-----------------|-----------------|-----------------|
|-----------------|-5-5-5-5-5-5-5-5-|---------5-5-5-5-|-----------------|
|-5-5-5-5-3-3-3-3-|-----------------|-5-5-5-5---------|-3-3-3-3-3-3-3-3-|
|
| Gtr II (Ac. Gtr.)
| W                 E E E E E E E E   W                 E E E E E E E E
|-----------------|---2-2-2-2-2-2-2-|-----------------|---3-3-3-3-3-3-3-|
|-----------------|---3-3-3-3-3-3-3-|-----------------|---0-0-0-0-0-0-0-|
|-----------------|---2-2-2-2-2-2-2-|-----------------|---0-0-0-0-0-0-0-|
|-----------------|---0-0-0-0-0-0-0-|-----------------|---0-0-0-0-0-0-0-|
|-----------------|-----------------|-----------------|---2-2-2-2-2-2-2-|
|-----------------|-----------------|-----------------|---3-3-3-3-3-3-3-|


  N.C.                D               N.C.                D
  PM------------------------------------------------------------------|
  E E E E E E E E   E E E E E E E E   E E E E E E E E   E E E E E E E E
|-----------------|-----------------|-----------------|------------------|
|-----------------|-----------------|-----------------|------------------|
|-----------------|-----------------|-----------------|------------------|
|-----------------|-----------------|-----------------|------------------|
|-----------------|-5-5-5-5-5-5-5-5-|-----------------|-5-5-5-5-5-5-5-5--|
|-3-3-3-3-5-5-5-5-|-----------------|-3-3-3-3-5-5-5-5-|------------------|
|
| W                 E E E E E E E E   W                 E E E E E E E E
|-----------------|---2-2-2-2-2-2-2-|-----------------|---2-2-2-2-2-2-2--|
|-----------------|---3-3-3-3-3-3-3-|-----------------|---3-3-3-3-3-3-3--|
|-----------------|---2-2-2-2-2-2-2-|-----------------|---2-2-2-2-2-2-2--|
|-----------------|---0-0-0-0-0-0-0-|-----------------|---0-0-0-0-0-0-0--|
|-----------------|-----------------|-----------------|------------------|
|-----------------|-----------------|-----------------|------------------|


                   1st - 3rd Verses
                $
                    N.C.
                    PM------------------------------------------------|
  Q  e E Q  Q       E E E E E E E E   E E E E E E E E   E E E E E E E E
|---------------||------------------|-----------------|------------------|
|----7----------||o-----------------|-----------------|------------------|
|----7----------||------------------|-----------------|------------------|
|----7----------||------------------|-----------------|------------------|
|-5----5-5------||o-5-5-5-5-5-5-5-5-|-5-5-5-5-5-5-5-5-|-5-5-5-5-5-5-5-5--|
|-----------5\--||------------------|-----------------|------------------|


                                                        C/G
  PM------------------------------------------------|
  E E E E E E E E   E E E E E E E E   E E E E E E E E   Q  E E E E E E
|-----------------|-----------------|-----------------|-----------------|
|-----------------|-----------------|-----------------|----1-0---1-0----|
|-----------------|-----------------|-----------------|----0-0---0-0----|
|-----------------|-----------------|-----------------|----2-0---2-0----|
|-5-5-5-5-5-5-5-5-|-5-5-5-5-5-5-5-5-|-5-5-5-5---------|-----------------|
|-----------------|-----------------|---------0-

Stereo Hearts intro Tabs – Gym Class Heroes

 -------------------------------------------------------------------------------
                           Stereo Hearts - Gym Class Heroes
-------------------------------------------------------------------------------
: AGee
Please use '' once copied, hope you like it!

Tuning:Standard
Capo 2

e|--3--2-0------------0---------------0----------------------------------------|
B|---------3--0--0--3---3--1------3----3--1--------3---------------------------|
G|---------------------------2-4-------------2--4-----2------------------------|
D|-----------------------------------------------------------------------------|
A|-----------------------------------------------------------------------------|
E|-----------------------------------------------------------------------------|

Repeat

With Hearts Toward None I Tabs – Mgla

 Artist: Mgła

 With Hearts Toward None

Song: With Hearts Toward None I

Tuning: C-standard(C F A# D# G C). Though live they seem to play tuned to D-standard, one step up from this.

All bars are 4/4

Riff 1 Lead(Tremolo-picked the whole way through):
|------------------|------------------|------------------|------------------|
|------------------|------------------|------------------|------------------|
|------------------|-9---5-------7----|------------------|-9---5------------|
|-7-------5---7----|---------3--------|-7-------5---7----|------------------|
|------------------|------------------|------------------|---------3---5----|
|------------------|------------------|------------------|------------------|
  h       q   q      q   q   q   q      h       q   q      q   q   q   q

|------------------|------------------|------------------|------------------|
|------------------|------------------|------------------|------------------|
|------------------|-9---5-------7----|---------5---7----|-2-------5---0----|
|-7-------5---7----|---------3--------|-7----------------|-----3------------|
|------------------|------------------|------------------|------------------|
|------------------|------------------|------------------|------------------|
  h       q   q      q   q   q   q      h       q   q      q   q   q   q

Riff 1 Rhythm(Played regularly the two first times it is played, tremolo-picked after that):
|-----|-----|-----|-----|-----|-----|-----|-----|
|-----|-----|-----|-----|-----|-----|-----|-----|
|-----|-----|-----|-----|-----|-----|-----|-----|
|-----|-----|-----|-----|-----|-----|-----|-----|
|--7--|-(7)-|--8--|-(8)-|--7--|-(7)-|--3--|--3--|
|--5--|-(5)-|--5--|-(5)-|--5--|-(5)-|--5--|--1--|
   w     w     w     w     w     w     w     w

Riff 2 Lead(Tremolo-picked the whole way through): 
|---|-----5-|-(5)-|-(5)-3-|-(3)-|-(3)---|-----|-------|
|-5-|-(5)---|-----|-------|-----|-----6-|-(6)-|-(6)-5-|
|---|-------|-----|-------|-----|-------|-----|-------|
|---|-------|-----|-------|-----|-------|-----|-------|
|---|-------|-----|-------|-----|-------|-----|-------|
|---|-------|-----|-------|-----|-------|-----|-------|
  w    h  h    w     h  h    w     h  h    w     h  h

Riff 2 Rhythm(Palm mute chords):
|------------------|---|---|---|------------------|---|---|---|
|------------------|---|---|---|------------------|---|---|---|
|------------------|---|---|---|------------------|---|---|---|
|-7-7-7---7---r----|-r-|-r-|-r-|-7-7-7---7---r----|-r-|-r-|-r-|
|-7-7-7---7---r----|---|---|---|-7-7-7---7---r----|---|---|---|
|-5-5-5---5---r----|---|---|---|-5-5-5---5---r----|---|---|---|
  e e q   q   q      w   w   w   e e q   q   q      w   w   w

Riff 2 Extra guitar(Really hard to hear, so possibly not 100% correct. Played by the rhythm guitar live): 
|---------|---------|---------|---------|---------|---------|---------|----------|
|---------|---------|---------|---------|---------|---------|---------|----------|
|---------|---------|---------|---------|---------|---------|---------|----------|
|-7---7---|-7---7---|-7---7---|-7---7---|-7---7---|-7---7---|-7---7---|-10--10-9-|
|---7---7-|---7---7-|---7---7-|---7---7-|---7---7-|---7---7-|---7---7-|---7------|
|---------|---------|---------|---------|---------|---------|---------|----------|
  q q q q   q q q q   q q q q   q q q q   q q q q   q q q q   q q q q   q q q  q  

Riff 3 Lead(Tremolo-picked the whole way through):
|-----|-----|-3---|-----|
|-3---|-6-3-|---3-|-----|
|---3-|-----|-----|-3-5-| x 4
|-----|-----|-----|-----|
|-----|-----|-----|-----|
|-----|-----|-----|-----|
  h h   h h   h h   h h

Riff 3 Rhythm:
|-----|-----|-----|-----|-----|-----|-----|-----|-----|-----|-----|-----|-----|-----|-----|-----|
|-----|-----|-----|-----|-----|-----|-----|-----|-----|-----|-----|-----|-----|-----|-----|-----|
|-----|-----|-----|-----|-----|-----|-----|-----|-----|-----|-----|-----|-----|-----|-----|-----|
|--7--|-(7)-|-(7)-|-(7)-|--7--|-(7)-|-(7)-|-(7)-|--3

Full Hands Empty Hearts Tabs by Worthwhile

 e------------------|
B------------------|
G-7777-------------|
D-xxxx-------------|
A-5555-------------|
E------------------|


e------------------------|
B------------------------|
G------------------------|
D-0xx0xxxx00-----333-----|
A-0xx0xxxx00-----333-----|   REPEAT, replace 3 with 1 the second time.
E-0xx0xxxx00--x4--333----|

Ring out and then 3. Ring out again and then 1.


e------------------------------------------------------|
B------------------------------------------------------|
G-------5/777777-----101010/12/999999------------------|
D-0000--x/xxxxxx-----x-x-x--x--xxxxxx------------------|
A-0000--3/555555-----8-8-8/10/777777-------------------|
E-0000-------------------------------------------------|

e-------------------------------------|
B-------------------------------------|
G-------5/777777/77777/3---3----------|
D-0000--x/xxxxxx/xxxxx/x---x----------|
A-0000--3/555555/55555/1---1----------|
E-0000--------------------------------|   Both parts twice.


Ring out

e--------------|
B--------------|
G--7-----------|
D---7----------|
A----5---------|
E--------------|

Ring out


e-----------------------------------|
B-----------------------------------|
G-------7777--------777/8-----------|
D-000--xxxx---000---xxx/x-----------|
A-000--5555---000---555/6-----------|
E-000----------000------------------|

e---------------------------------|
B---------------------------------|
G------7777-----------------------|
D-000--xxxx/333/111---------------|
A-000--5555/333/111---------------|
E-000-------/333/111--------------|x2

End on open palm mute.


Listen to this band, they rule. Also my first tab, I barely know how this works.

King Of Broken Hearts chords – Carolina Liar

 intro:
 Gm Eb Bb  x2

 Gm Eb Bb 
  My lungs lay still but I'm breathing out
 Gm Eb Bb 
  I know your name but it won't come out
 Gm Eb Bb 
  If there's a way to believe I can't feel a thing
 Gm Eb F Bb 
  I'm free as a bird with a broken wing

          Eb F 
Maybe I built this house just to burn it down
          Gm Dm 
From the ashes I shall wear a crown
        Eb F Gm Dm 
'Cause I'm, I'm the king of broken hearts
             Eb F 
Maybe the cross I bear is one I made
 Gm Dm 
It's my choice maybe my mistake
    Eb F Gm Dm 
Oh I'm, I'm the king of broken hearts

No I won't cry won't she'd a tear
A bitter man stand free and clear
If this is reeze why can't I feel a thing?
I'm here again nowhere but somehow in between

Maybe I built this house just to burn it down
From the ashes I shall wear a crown
'Cause I'm, I'm the king of broken hearts
Maybe the cross I bear is one I made
It's my choice maybe my mistake
Oh I'm, I'm the king of broken hearts

     Eb F                       
The one who lives in this useless heart
      Gm Dm 
What part of this journey have I overlooked?
    Eb F 
A useless martyr and no sense of shame
              Gm Dm 
Doesn't have anything mean everything?
          Eb                  
Play it over again and again and again
         F 
Play it over again and again and again

 Eb F Gm Bb Eb F 
  I play this part
          Gm Bb Eb 
Over and over and over and over and over again
              F 
I play this part
          Bb 
Over and over and over and over yeah

Maybe I built this house just to burn it down
From the ashes I shall wear a crown
'Cause I'm, I'm the king of broken hearts
(I'm the king of broken hearts)
Maybe I built this house just to burn it down
From the ashes I shall wear a crown
'Cause I'm, I'm the king of broken hearts
Maybe the cross I bear is one I made
It's my choice maybe my mistake
Oh I'm, I'm the king of broken hearts

Hearts At War – Black Heart chords

    Artist: Hearts at War
                FB: https://www.facebook.com/HeartsAtWar
                YT: http://www.youtube.com/user/DookiefiedOfficial
   Song: Black Heart  
                From album "Brainspin" (2014)
                

   !!! HALF-STEP DOWN TUNING !!!

   Note: If using power chords E is from the 7th fret of the A-string!
 
   !!! HALF-STEP DOWN TUNING !!!

   Verse:
 Em G D A Em 
   Every time I've fallen, fallen down, I've picked myself up again from the ground
                  G D A Em  
   And just as I thought that it would cease, this black fever came over me
                   G D A 
   I won't let it show and you won't know

 Em G D A Em 
   To me it seems like I've lost my way, drifting like a ship without a sail
            G D A Em 
   Turning inwards silently, a battle raging deep within me
               G D A 
   Whisper my words in desperate need

   Chorus:
 Bm G D A 
   Black heart, circulate anxiety
 Bm G D A 
   Black heart, in a state of sobriety
 Bm G D A 
   Black heart, memories in solitude
 Bm G A 
   This black heart is suffering

    Em G D A 

   Verse:
 Em G D A Em 
   The walls are closing in on me, got to find myself in the debris
               G D A Em 
   Maybe if I read between the lines, maybe I failed to see the signs
                 G D A 
   Wish I could see through these dark clouds

 Em G D A Em  
   I'll have to find peace inside of me, and somehow set myself free
                  G D A Em 
   But I can't express what I feel, this black heart will never heal
                G D A 
   I'm letting go, don't let me go

   Chorus:
 Bm G D A 
   Black heart, circulate anxiety
 Bm G D A 
   Black heart, in a state of sobriety
 Bm G D A 
   Black heart, memories in solitude
 Bm G A 
   This black heart is suffering

   [ INSERT SOLO HERE ]

   Verse:
 Em G D A Em 
   Every time I've fallen, fallen down, I've picked myself up again from the ground
                  G D A Em  
   And just as I thought that it would cease, this black fever came over me
                   G D A Em 
   I won't let it show and you won't know

Hearts On Fire chords – Eddie Rabbitt

 Intro:  D  -  A  -  D D Em 
We should't be here tonight,  But here we are
              A D 
I shouldn't taste the thrill of your kiss,  here in the dark
                 D                                 G (STOP) / /
Cause we're not free to be,  this free or go this far


[Chorus]
            D G 
Hearts on fire, Burnin' for each other
         D A 
Going down in flames,  Somewhere in the night
           D G 
Stealin' love again,  when we're together
 G D A Bm  -  A  -  G ,  G  -  E  -  D 
It's too late now,  we can't pull out,  hearts on fire


Lead Ride:  D  -  A  -  D D Em 
You shouldn't feel this good in my arms,  but you do
                A D 
I shouldn't whisper these things in your ear,  but there true
                          D                 G  (STOP) / / 
So wrong or right,  I'll stay tonight with you


Repeat Chorus:

Outro:  D  -  A  -  D

Hearts At War – Butterfly chords

    Artist: Hearts at War
                FB: https://www.facebook.com/HeartsAtWar
                YT: http://www.youtube.com/user/DookiefiedOfficial
   Song: Butterfly
                From EP "Nowhere Kids" (2013)
                

   !!! HALF-STEP DOWN TUNING !!!
  
   Note: If using power chords, E is from the 7th fret of the A-string!

   !!! HALF-STEP DOWN TUNING !!!


    Intro: Chords:  A D E A F#m D E 
  
   e|---------------------------------------------------------------------------|
   B|-5-5-5------------------------------------5-5------------------------------|
   G|------7-6-7-9-7-6-4-4-7-7-6-4-6-7-6-4-2-2----7-6-7-9-7-6-4-4-6-7-9---------|
   D|---------------------------------------------------------------------------|
   A|---------------------------------------------------------------------------|
   E|---------------------------------------------------------------------------|

   Verse:
 A D E A 
   I wished upon a star and suddenly there you are
 F#m D E 
   Even fool like me deserves some luck
 A D E A    
   If you knew how lonely I've been, don't even know where to begin
 F#m D E 
   But now you're here so never mind at all

   Chorus:
 F#m D E A G# 
   I guess I was a bitter fool, hanging out alone in my room
 F#m D E 
   Never thought I'd meet someone to love
 F#m D E A G# 
   Too shy, too insecure, nothing worth living for
 F#m D E 
   Never dreamed of finding love at all

   INTRO
   
   Verse:
 A D E A 
   I was lost I didn't care, Entangled in my own despair
 F#m D E 
   Spent my days in fear and isolation
 A D E A 
   What could be worse than a broken heart? a heart that's never felt loved at all
 F#m D E 
   So I waited in my corner all alone

   Chorus:
 F#m D E A G# 
   I guess I was a bitter fool, hanging out alone in my room
 F#m D E 
   Never thought I'd meet someone to love
 F#m D E A G# 
   Too shy, too insecure, nothing worth living for
 F#m D E 
   Never dreamed of finding love at all

   Solo/Bridge:

    A D E A F#m A D E A F#m E 

   Chorus:
 F#m D E A G# 
   People passed by everyday, none of them seemed to come my way
 F#m D E 
   Till you appeared and touched my heart so gently
 F#m D E A G# 
   Too shy, too insecure, nothing worth living for
 F#m D E 
   Never dreamed of finding love at all
   
   INTRO

Hearts At War – Blatant chords

    Artist: Hearts at War
                FB: https://www.facebook.com/HeartsAtWar
                YT: http://www.youtube.com/user/DookiefiedOfficial
   Song: Blatant
                From EP "Nowhere Kids" (2013)
                

   !!! HALF-STEP DOWN TUNING !!!
  
   Note: If using power chords, E is from the 7th fret of the A-string!

   !!! HALF-STEP DOWN TUNING !!!

   Intro:

        C Am G C Am G      |1st end  |2nd end
   eb|-----------------5-3-------3-3-3------5-3----------------------------------|
   Bb|-5-553---------------5-553------5-3-------------5-3------------------------|
   Gb|------5-55-4-2-0-----------------------------------------------------------|
   Db|---------------------------------------------------------------------------|
   Ab|---------------------------------------------------------------------------|
   Eb|---------------------------------------------------------------------------|
   
        C Am G 
   I'm sick of arguing all the time
             C Am G 
   And I've realized that I can't change your mind
                 F G Em Am 
   I try to get my point through, but all I do is to hurt you
                F G 
   I guess the battle's lost, even if I'd win

        C Am G 
   I'm too proud to admit when I am wrong
            C Am G 
   And I'd rather stand my ground all night long
                       F G Em Am 
   I don't care who's wrong or right, I just need to win this fight
             F G 
   Yeah the battle's lost, even before it starts

          Dm G 
   And I never seem to learn
          Dm G 
   And I know that you're concerned
                    F G Em Am 
   What the hell's wrong with me, maybe its insecurity?
       F G 
   Oh I...apologize

   INTRO (with 2nd end)

     C Am G 
   Around the roundabout we seem to go
               C Am G 
   Yeah we've been there a thousand times before
                      F G Em Am 
   I try to find the words to say, but you know this game
    F G 
   Build it up just to tear it down again

           C Am G        
   Well I know I don't know how to compromise
          C Am G 
   And I do my best to try to drain you out
                        F G Em Am 
   I'll take it to the end of the world, and I know that it's absurd
        F G 
   But life is a bitch and so am I

           Dm G 
   Well I aint no saint, not at all
             Dm G 
   And I've taken this too far
                    F G Em Am 
   What the hell's wrong with me, maybe its insecurity?
       F G 
   Oh I...apologize

   [ INSERT SOLO HERE ]

             Dm G 
   And I never seem to learn
          Dm G 
   And I know that you're concerned
                    F G Em Am 
   What the hell's wrong with me, maybe its insecurity?
       F G 
   Oh I...apolog

We Thought Your Hearts Were Beating Tabs by From Indian Lakes

 -------------------------------------------------------------------------------
We Thought Your Hearts Were Beating - From Indian Lakes
-------------------------------------------------------------------------------

Tuning: Standard

Intro
e|-19p17p16---------------------16----16h17p16---------------------16~\12---|
B|----------17--------------17~----------------17-------------17~---------14|
G|-------------16-18-16/18~-----------------------16-18-16/18~---16---------|
D|--------------------------------------------------------------------------|
A|--------------------------------------------------------------------------|
E|--------------------------------------------------------------------------|

e|-19p17p16---------------------16---16h17p16---------------------16~-------|
B|----------17--------------17~---------------17-------------17------17---17|
G|-------------16-18-16/18~----------------------16-18-16/18~---16------18--|
D|--------------------------------------------------------------------------|
A|--------------------------------------------------------------------------|
E|--------------------------------------------------------------------------|

e|-19p17p16---------------------16---16h17p16---------------------16~-------|
B|----------17--------------17~---------------17-------------17------17---17|
G|-------------16-18-16/18~----------------------16-18-16/18~---16------18--|
D|--------------------------------------------------------------------------|
A|--------------------------------------------------------------------------|
E|--------------------------------------------------------------------------|

e|-19p17p16---------------------16--16h17p16---------------------16~-----16~|
B|----------17--------------17~---------------17-------------17------17-----|
G|-------------16-18-16/18~----------------------16-18-16/18~---16------18--|
D|--------------------------------------------------------------------------|
A|--------------------------------------------------------------------------|
E|--------------------------------------------------------------------------|

Verse 1
e|---------------------------------------------------------------------------|
B|---------------------------------------------------------------------------|
G|---------------------------------------------------------------------------|
D|--(6)--(6)-----------------------------------------------------------------|x2
A|---4x16-0x16---------------------------------------------------------------|
E|---------------------------------------------------------------------------|

e|--------16~----19-------19-16~-16~-----------------------------------------|
B|----17~--------------17----------------------------------------------------|
G|-18---------------18-------------------------------------------------------|
D|---------------------------------------------------------------------------|
A|---------------------------------------------------------------------------|
E|---------------------------------------------------------------------------|

Chorus 1, 6/4 Version
e|---------------------------------------------------------------------------|
B|------------------------------------------------12-------------------------|
G|-9-9-9-8-8-8---------------9-9-9-8-8-8-----9-11----------------------------|
D|-------------9---11-11-----------------9-----------------------------------|x4
A|-----------------------9---------------------------------------------------|
E|---------------------------------------------------------------------------|






Verse 2
e|---------11~-----------------------------11~-------------------------------|
B|----12-------12------------12~-----12--------12----------------------------|
G|-13----13-------13~-----13------13----13--------13~------------------------|
D|---------------------------------------------------------------------------|
A|-----------------

Oh My Brave Hearts chords – Chris De Burgh

 Chris de Burgh - Oh My Brave Hearts
From the  This Way Up (1994)
Comment for any corrections and please rate


Capo 3

Verse 1:
         Am C G F 
Oh my brave hearts, we must leave this land tomorrow.
           F Em7 F 
We can't live here anymore.
             G Am7 
And in the quiet hours, we talk before the dawn.

Verse 2: 
         Am C G F 
And the old hearts, they are calling from the shadows.
         F Em7 F 
Telling us we must not go, 
            G F 
Oh but we cannot fight, the power of the gun,
                   G F G 
To take away our land, they take it from our sons, swear it on my hands.

Chorus:
            C G 
We will return to run here like the wolf,
                       F G 
And see the hunter's moon and watch our river flow,
                  Am7 
It's not gone forever.

Verse 3:
        Am C G F 
Oh my bold hearts, we will go down to the city.
          F Em7 F 
We will live by city light.
             G Am7 
But in the darkest hour, keep this fire alive.

Verse 4:
           Am C G F 
We will grow strong, we will bring our wealth together.
         F Em7 F 
Never showing what we have,
               G F 
And when the time has come, we'll reach out for the gun.
                  G F G 
Taking back our land, take it for our sons, swear it on my hands.

Chorus:
            C G 
We will return to run here like the wolf,
                       F G 
And see the hunter's moon and watch our river flow.
            C G 
We will return to touch the open sky,
                     F G 
And see the eagle fly and feel the morning rain.
                  Am7 D Am7 D Am7 D F G Am7 
It's not gone forever...

Hearts At War – Ryan Ben Obay chords

    Hi, this is my first tab, all comments welcome!

   Artist: Hearts at War
                FB: https://www.facebook.com/HeartsAtWar
                YT: http://www.youtube.com/user/DookiefiedOfficial
   Song: Ryan Ben O'Bay
                From album "Brainspin" (2014)
                

   !!! HALF-STEP DOWN TUNING !!!

   Verse:

    D 
   Little Ryan Ben O´Bay
    G 
   Hangin´ in the mall all day
    D A 
   Not much of an output in this shitty little dirty town
    D 
   Did not take so long before
       G 
   He found out how to kill the bore
    D A 
   Gathered dads best whisky and he passed the bottle ´round the ring

   Chorus:

    Bm G 
   Little Ryan Ben O´Bay 
    D A 
   Broken in so many ways
    Bm G A 
   Bound to be another hopeless kid
    Bm G       
   Little Ryan Ben O´Bay
    D A 
   Brought a bottle everyday
        Bm G A 
   You got to make the best of what you have

   Verse:

       D 
   He didn´t need his mind no more
       G 
   He smoked it out behind locked doors
    D A 
   4 or maybe 5 big drags and he was off to wonderland
    D 
   Mom and dad had tried so hard
        G 
   But now the kid had gone too far
    D A 
   Ryan had his life set on drugs and booze and rock n roll

   Chorus:

    Bm G 
   Little Ryan Ben O´Bay 
    D A 
   Broken in so many ways
    Bm G A 
   Bound to be another hopeless kid
    Bm G       
   Little Ryan Ben O´Bay
    D A 
   Brought a bottle everyday
        Bm G A 
   You got to make the best of what you have

   Bridge:

 G D A D  
   Try to move up one notch and show them what you´ve got
    G D A     
   Tell me Ben O´Bay are you ready or not
 G D A D 
   You better believe it, this is as good as it gets
        G A 
   But no, don´t let go


   [ INSERT SOLO HERE ]
   
   Chorus:

    Bm G 
   Little Ryan Ben O´Bay 
    D A 
   Broken in so many ways
    Bm G A 
   Bound to be another hopeless kid
    Bm G       
   Little Ryan Ben O´Bay
    D A 
   Brought a bottle everyday
        Bm G A 
   You got to make the best of what you have
                G D A D 
   Of what you have