Tag: Heaven

Heaven Must Be Wondering Where You Are chords – George Strait

 G D7 Am 
Somewhere up there beyond the blue

 D7 C G 
Surely by now somebody's missing you

                        C 
I found the angel they must be looking for

 D7 G 
Heaven must wondering where you are


 D7 G 
When I look into your eyes it's so plain to see

 A7 D7 
Nothing here on earth describes what you mean to me

 G C 
Out of this world when I hold you in my arms

 D7 G 
Heaven must wondering where you are


                    D7 Am 
Lucky me to be the one to find

 D7 C G 
Someone like you this side of paradise

                        C 
I know how lost I'd be without you here sweetheart

 D7 G 
Heaven must wondering where you are


 D7 G 
When I look into your eyes it's so plain to see

 A7 D7 
Nothing here on earth describes what you mean to me

 G C 
Out of this world when I hold you in my arms

 D7 G 
Heaven must wondering where you are


                   C 
I found the angel they must be looking for

 D7 G 
Heaven must wondering where you are

Tears In Heaven Acoustic Tabs – Eric Clapton V3

 This is an arrangement of Tears in Heaven by H. des Bouvrie. It's slightly different from the original
version, but it might be fun to try!

h: hammer on
p: pull off
\: slide down


e||--------------------|----------------0-----0-----|-------7\5--------------|------------------------|
B||--------------------|-------2h3p2-------------2--|-------7\5--7\5----2----|-3-----3-----3-----3----|
G||--------------------|----2--------2--------------|------------6\4----2----|-2-----2-----2-----1----|
D||--------------------|-------------------2--------|------------------------|------------------------|
A||--------------------|-0--------------------------|------------------------|------------------------|
E||----------------0h2-|----------------4--------2--|----2-------0---------0-|-2--2-----2--0--0-----0-|


--------------------------|----------------0-----0-----|------------------------|----------0-------------|
-2-----2-----2-----2------|-------2h3p2-------------2--|-------2-----2-----2----|-3-----3-----2--0-------|
-2-----2-----2-----2------|----2--------2--------------|-------2-----2-----2----|-2-----2-----2-----2----|
--------------------------|-------------------2--------|------------------------|------------------------|
-0--0-----0--0--0--0------|-0--------------------------|------------------------|------------------------|
----------------------0h2-|----------------4--------2--|----2-----2--0--0-----0-|-2--2--2-----0--------0-|


------------------------|----------------0-----0-----|-------7\5--------------|----------0-------------|
-0-----0-----2-----3----|-2-----2h3p2-------------2--|-------7\5--7\5----2----|-3-----3-----2--0-------|
-1-----1-----2-----4----|-2-----------2--------------|------------6\4----2----|-2-----2-----2-----2----|
------------------------|-------------------2--------|------------------------|------------------------|
------------------------|-0--0-----------------------|------------------------|------------------------|
-0--0-----0-----0-----0-|----------------4--------2--|----2-------0---------0-|-2--2--2-----0--------0-|


------------------------|------------------------|------------------------|------------------------|
-0-----0-----2-----3----|-------2--------2-----2-|-------2--------2-----2-|-------2--------2-----2-|
-1-----1-----2-----4----|----2-----2-----2-------|----1-----1-----1-------|----0-----0-----0-------|
------------------------|------------------------|------------------------|------------------------|
------------------------|------------------------|------------------------|------------------------|
-0--0-----0-----0-----0-|-2-----------2-----2----|-1-----------1-----1----|-0-----------0-----0----|


---------------------|--------------------------|------------------0--|----------------0-----0-----|
-------2-----0----2--|--------3-----------------|----3--3-----3----3--|-------2h3p2-------------2--|
----3-----3----------|-----------4------4--4--2-|----2--2-----2----1--|-----2-------2--------------|
---------------------|-----4------------4-------|----2--2-----2-------|-------------------2--------|
------------------1--|--2-----------2-----------|---------------------|--0-------------------------|
-2-----------4-------|--------------------------|-2--------2----------|----------------4--------2--|


-------7\5--------------|------------------------|--------------------------|----------------0-----0-----|
-------7\5--7\5----2----|-3-----3-----3-----3----|-2-----2-----2-----2------|-------2h3p2-------------2--|
------------6\4----2----|-2-----2-----2-----1----|-2-----2-----2-----2------|----2--------2--------------|
------------------------|------------------------|--------------------------|-------------------2--------|
------------------------|------------------------|-0--0-----0--0--0--0------|-0--------------------------|
----2-------0---------0-|-2--2-----2--0--0-----0-|----------------------0h2-|----------------4--------2--|


------------------------|----------0------------

Heaven Knows Im Miserable Now Tabs – The Smiths V4

 Heaven Knows...  (capo 2nd fret) – figure out the rhythm by listening to the song

    Play these first four with tremolo bar, then alternate strumming between the following open chords
     F#maj7     Dmaj7       C#m       B       open B                 open C#
F#|---8-----------3----------2--------0-------0-0-0-0-0--0-0-0-0-0---0-0-0-0-0--0-0-0-0-0--
C#|---10----------5----------3--------2-------5-5-5-0-0--5-5-5-5-0---7-7-7-0-0--7-7-7-7-0--
A |---9-----------4----------2--------2-------6-6-6-6-6--6-6-6-6-6---8-8-8-8-8--8-8-8-8-8--
E |---10----------5----------4--------2-------7-7-7-7-7--7-7-7-7-7---9-9-9-9-9--9-9-9-9-9--
B |---8-----------3----------2--------0----------------------------------------------------
F#|----------------------------------------------------------------------------------------


Verse 1 and 3
       F#maj7                             D#m                      G#m
F#|------7------7---7----7----7---7---7----9---9---9---9---9---9----9----9----9------------
C#|------9------9---9----9----9---9---9----9---9---9--12--12---9---10---10----9------------
A |------8------8---8----8----8---8---8----9---9---9---9---9---9----9----9----9------------
E |------9------9---9----9----9---9---9---11--11--11--11--11--11---11---11---11------------
B |------7------7---7----7----7---7---7----------------------------------------------------
F#|----------------------------------------------------------------------------------------

         B          slide to  C#                  Third verse, do this instead:
F#|------0----0----0----0--/--0------0--------|--------------------------------------------
C#|------5----5----5----5--/--7------0--------|--------5---------------7-------------------
A |------6----6----6----6--/--8------8--------|-----------6---------------8----------------
E |------7----7----7----7--/--9------9--------|----7---------7---7/9---------9-------------
B |-------------------------------------------|--------------------------------------------
F#|-------------------------------------------|--------------------------------------------


       F#maj7                             D#m                     G#m
F#|------7------7---7----7----7---7---7----9---9---9---9---9--9----9----9----9-------------
C#|------9------9---9----9----9---9---9----9---9---9--12--12--9---10---10----9-------------
A |------8------8---8----8----8---8---8----9---9---9---9---9--9----9----9----9-------------
E |------9------9---9----9----9---9---9---11--11--11--11--11--11--11---11---11-------------
B |------7------7---7----7----7---7---7----------------------------------------------------
F#|----------------------------------------------------------------------------------------


         B                               
F#|------0----0----0----0----0----0---------
C#|------5----5----5----5----5----0---------
A |------6----6----6----6----6----6---------
E |------7----7----7----7----7----7---------
B |-----------------------------------------
F#|-----------------------------------------


The Chorus: “In my life...” 
       F#maj7         B          slide to  C#
F#|------7------7-----0----0----0----0--/--0------0---------------------------------------
C#|------9------9-----5----5----5----5--/--7------0---------------------------------------
A |------8------8-----6----6----6----6--/--8------8---------------------------------------
E |------9------9-----7----7----7----7--/--9------9---------------------------------------
B |------7------7-------------------------------------------------------------------------
F#|---------------------------------------------------------------------------------------

“Why do I smile...”
       F#maj7        C#               B                  A#m
F#|------7------7-----0----0----0--/--0----0-----0--------4---4--4--4---4-----------------
C#|------9------9-----7----7----7--/--5----5-----5--------4---4--4--4---4-----------------
A |------8------8-----8----8----8--/--6----6-----6--------4---4--4--4---4-------

Let The Sound Of Heaven chords – Bryan And Katie Torwalt

 Verse 1:
 Em G Am7 C/G 
Let the sound of heaven ring out
 Em G Am7 C/G 
Join the songs of angels sung loud
 Em G Am7 C/G  
Let all heaven and earth praise 
      Em G Am7 C/G 
Your name Lord Jesus

Verse 2:
 Em G Am7 C/G 
Let the signs and wonders break out,
 Em G Am7 C/G 
Let revival fire burn bright
 Em G Am7 C/G  
Let all heaven and earth praise
      Em G Am7 C/G 
Your name Lord Jesus

Chorus:
             G Am7 
        Let praise come from my lips all my days
              G/B C 
        Your love overtake me and flow through my veins
             G Am7 
        Let Heaven on earth be reality here
             G/B C 
        Let Your Kingdom come and Your glory dwell here

Bridge:
 D C G/B Am7 
All my love and affection belongs to You (3x)

Heaven Sent chords – Front Porch Step

 D A Bm G 
I heard your name the other day
 D A G Bm G 
And I got sick in the most wonderful of ways
 D Bm G 
I thought about the days we laughed about our past
 D A Bm D G 
And now you’re stuck there like the time I can’t get back


 D A Bm G D A Bm G 
I said some things that I don’t mean
 D A Bm G 
When I said I hate you I was lying through my teeth
      D A Bm D G 
And when you grabbed your bags and walked out of my door
 D A Em D G 
I lost the love, that couldn’t love me anymore

 A Bm A Bm 
I miss your smile the way we kiss 
 E    
Who knew that hell could come from something heaven sent


 D A Bm G  x2

 D A Bm G 
I heard your voice inside my head
 D A Bm D G 
I drank all night so i could drown you out of it
 D Bm G 
I woke up in my car but I couldn’t drive away
           D A Bm G 
I just couldn’t bring myself to leave the girl that couldn’t stay


 F#m Bm D G Bm 
I miss your smile   the way we kiss
 Em                                                    
Who knew that hell could come from something heaven sent


 D A Bm G  x2

 D A                
Whether I was right or I was wrong
 Bm G 
Or which of us hung up the phone
 D A 
I just had to write this song
 Bm G 
So I could just feel less alone x2


 D A Bm G D A Bm G 
I saw your name the other day
 D A Bm Em G 
I cried myself to sleep and crumbled from the pain
     D A Bm G     
And i couldn’t believe what your daddy asked of me
     D F#m Bm G 
I never thought id live to give your eulogy

Stairway To Heaven solo Tabs – Led Zeppelin V4

 
                                 ~ SETTINGS ~


FOR TAB: SCROLL DOWN TO BLANK SPACE



Standard Tuning:     E, A, D, G, B, e

Amp Settings:                 My Choice:
Treble...... 7 > 10      |    Treble         10
Middle...... 4 > 8       |    Middle         7
Bass........ 0 > 3       |    Bass           2
Gain........ 7 > 10      |    Gain           10
Reverb...... 7 > 10      |    Reverb         9

The Bridge Pickup on my Les Paul sounds right, however i think it is recorded with a Telecaster (?)
All of which depends on your guitar, pickups, picks, amp, play-style


                                  ~ KEY ~


 x       = Killed note, suddenly stopped and not allowed to ring, e.g ----5x----

(5)      = Dead pluck note, Produces a Strum effect. 2 string Picks but only   
           the one note heard - To Add Grit.
           (NUMBER 5 IS GIVEN AS EXAMPLE)

 v       = Vibrato when next to a note, e.g: ----5v----
            OR
            Downward Strum or Pick - WHEN OUTSIDE TAB LINES

 ^       = Upward Strum or Pick

 ,,,     = An Extended, Screaming Note or Ringing Chord, e.g ----5,,,,,----

 b       = Bending the String, As Usual. 
            example 1: 15b       means bend note 15 up a bit, to no particular note
            example 2: 15b17     means bend 15 up to a 17 note
            example 3: 15b17b16  means bend up to 17 note, then down to 16 note, without leaving 15th fret

 |       = Start of Tab Section, Breaking of Tab Bodies etc
          
           Anything Else is as Usual.


                               ~ Note of Appreciation & Introduction ~

Tab Written By Joe Clilverd with help from the previous three Tabs on Ultimate Guitar.
So Hats off to them! Thank-you Anonymous, Anonymous & Morpheus.
I believe this to be at least 95% Correct.
This TAB covers Jimmy Pages guitar part from the first note of the Solo all the way to the end,
And includes a vague sequence of the 3-chord riff played with Robert Plants end-vocals after the Main Solo.

------------------------------------------------------------------------------------------------------------











                                   START













1,2,3,4: 
DUN DUN DUN, DUN DUN DUN, DUN DUN DUN, DUN, DUN, DING BE DO, DO, DO DO DO, DO BE DO DO, DO DO, DO
DUN DUN DUN, DUN DUN DUN, DUN DUN DUN, DUN, DUN, DING BE DO, DO, DO DO DO, DO BE DE DO DA DO DIDIDUM



|-----5----------------------|----8x-8x-8b--8p5-5----8-10p8---------------|
|-------8-5------------------|-8b----------------/10--------10-8----8h10v-|
|-7bv-------7-5---7-5--------|-----------------------------------10-------|
|---------------7-----7-5----|--------------------------------------------|
|-------------------------8v-|--------------------------------------------|
|----------------------------|--------------------------------------------|

                                    v   ^   v   ^   v
|----5--------------------------------------------------|
|------8p5----------------------------------------------|
|-7b---------7-5---7p5--------------5x-(5)--5x-(5)--5p0-|  
|----------------7-----7p5---5-7---(5)-(5)-(5)-(5)-(5)--|
|--------------------------7----------------------------|
|-------------------------------------------------------|
                                    |
                                    |
The "A" note (D String - 7th) that other people put here in their tabs is assumed by our ears, 
However i think the "noise/tune" we hear in between those "5"s are actually 
just upward G/D string strokes - not A notes. They are "Dead Strums", where JP is positioning 
his pick to blast downwards on the next note while filling the sound out.
Anyway,


|-5--------------------------|
|---8-5----------------------|
|-------7-5---7-5------------|
|-----------7-----7-5-7-5----|
|-------------------------8v-|
|----------------------------|


|--------------------|---------------------|
|--------------------|-----------------13x-|
|------(10)----------|-------12x--12-14----|
|-

Dairybeat – Heaven – Bryan Adams – Cover chords

 DAIRYBEAT: HEAVEN (Bryan Adams) 70 – 8/4

|./.    |: Repeat the previous Chord and/or Measure of 4-Counts.


Intro: | G Em   | D     | C Em   | F D   |

Verse 1:

 G Em                 | D                        | Am Em 
  OH, THINKIN' ABOUT OUR YOUNGER YEARS, THERE WAS ONLY YOU AND ME,

       | F D    |
WE WERE YOUNG AND WILD AND FREE.

 G Em                     | D                       | Am Em 
  NOW NOTHING CAN TAKE YOU A-WAY FROM ME, WE'VE BEEN DOWN THAT ROAD BE-FORE, 

      | F C             | D               |./.
THAT'S OVER NOW,  YOU KEEP ME COMING BACK FOR MORE.

Chorus:

      | C D Em                | G C 
‘CAUSE BABY YOU'RE ALL THAT I WANT, WHEN YOU'RE LYING HERE IN MY ARMS,

   | C D Em              | D 
I'M FINDING IT HARD TO BE-LIEVE, WE'RE IN HEAVEN.

   | C D Em          | G C 
AND LOVE IS ALL THAT I NEED, AND I FOUND IT THERE IN YOUR HEART,

  | C D Em            | D      |
IT ISN'T TOO HARD TO SEE, WE'RE IN HEAVEN.

Verse 2:

 G Em                    | D                      | Am         
  OH, ONCE IN YOUR LIFE YOU FIND SOMEONE, WHO WILL TURN YOUR WORLD

   Em              | F D    |
A-ROUND, PICK YOU UP WHEN YOU'RE FEELING DOWN.

 G Em                          | D                     | Am 
  NOW NOTHING CAN CHANGE WHAT YOU MEAN TO ME, THERE'S A LOT THAT I COULD

 Em            | F C         | D                   |./.
SAY, BUT JUST HOLD ME NOW,  AND OUR LOVE WILL LIGHT THE WAY.

Chorus:

      | C D Em                | G C 
‘CAUSE BABY YOU'RE ALL THAT I WANT, WHEN YOU'RE LYING HERE IN MY ARMS,

   | C D Em              | D 
I'M FINDING IT HARD TO BE-LIEVE, WE'RE IN HEAVEN.

   | C D Em          | G C 
AND LOVE IS ALL THAT I NEED, AND I FOUND IT THERE IN YOUR HEART,

  | C D Em            | D       |
IT ISN'T TOO HARD TO SEE, WE'RE IN HEAVEN.

Bridge:

 Am                          | Em C               | G 
   I'VE BEEN WAITING FOR SO LONG, FOR SOMETHING TO AR-RIVE,

                  | D     | Am                           | Em  
FOR LOVE TO COME A-LONG.    NOW OUR DREAMS ARE COMING TRUE,

             C                  | G              | D                 | Dsus4 D   
THROUGH THE GOOD TIMES AND THE BAD, I WILL BE STANDING THERE BY YOU.

Chorus:

      | C D Em                | G C 
‘CAUSE BABY YOU'RE ALL THAT I WANT, WHEN YOU'RE LYING HERE IN MY ARMS,

   | C D Em              | D 
I'M FINDING IT HARD TO BE-LIEVE, WE'RE IN HEAVEN.

   | C D Em          | G C 
AND LOVE IS ALL THAT I NEED, AND I FOUND IT THERE IN YOUR HEART,

  | C D Em            | D       |
IT ISN'T TOO HARD TO SEE, WE'RE IN HEAVEN.

Outro:
                                                /  / (Breaks)
 C 

Heaven Tabs – Delirious

 -------------------------------------------------------------------------------
                             Heaven - Delirious?
-------------------------------------------------------------------------------

Tuning: Standard

This song is somewhat tricky at times, so listening to the song while playing it may be handy.

Intro:
e|----------------------------------------------------------------------------------|
B|----------------------------------------------------------------------------------|
G|----------------------------------------------------------------------------------|
D|----------------------------------------------------------------------------------|
A|----------------------------------------------------------------------------------|
E|--0--0--0-----------------0--0--0-----------------0--0--0------------------0--0--0|

Continued Intro and first two lines of verse:
e|---------------------------|
B|---------------------------|
G|---------------------------|  Repeat as needed
D|-----------x--x--x--x--x---|
A|-----------x--x--x--x--x---|
E|--0--0--0--x--x--x--x--x---|

Third Line of Verse (This isn't exact, but it sounds okay)
e|---------------------------|
B|---------------------------|
G|--5--3--5------------------|
D|--5--5--5--x--x--x--x--x---|
A|--3--5--3--x--x--x--x--x---|
E|-----------x--x--x--x--x---|

Fourth Line of Verse (Not exact either, but still sounds okay)
e|---------------------------------------------------------------------------|
B|---------------------------------------------------------------------------|
G|--6--6--6------------------------------------------------------------------|
D|--6--6--6--x--x--x--x--x---------------------------------------------------|
A|--4--4--4--x--x--x--x--x---------------------------------------------------|
E|-----------x--x--x--x--x---------------------------------------------------|

Pre-Chorus (play this twice after the first verse, but only once after verse two)
e|--------10----------5-----------3-------|
B|-----8-----------3-----------1----------|
G|--9-----------4-----------2-------------|
D|----------------------------------------|
A|----------------------------------------|
E|----------------------------------------|

For the chorus, play octaves on the A string, like so (only go up to the fourth one in chorus one)
(this is just the way to play it, not the exact way it is played in the song, so timing is not included)
(listen to the song to figure that out)
e|---------------------------------------------------------------------------|
B|---------------------------------------------------------------------------|
G|--5--7--9--11--12----------------------------------------------------------|
D|--x--x--x--x----x----------------------------------------------------------|
A|--3--5--7--9---10----------------------------------------------------------|
E|---------------------------------------------------------------------------|

Solo:
Ok,I'm primarily a rhythm guitarist, so I didn't actually try to tab out the lead.  But here is the rhythm for
the solo.

e|---------------------------------------------------------------------------|
B|---------------------------------------------------------------------------|
G|-----9---7-9-7-9--9-7-9--------------------------------9---7-9-7-9--9-7-9--|
D|-----9---7-9-7-9--9-7-9----7--7---5-7-5---7-5-7--------9---7-9-7-9--9-7-9--|
A|---------------------------7--7---5-7-5---7-5-7----------------------------|
E|--0-------------------------------------------------0----------------------|

e|-------------------------|
B|-------------------------|
G|-5----------7------------|
D|-5----------7------------|
A|-3----------5------------|
E|-------------------------|

e|---------------------------------------------------------------------------|
B|---------------------------------------------------------------------------|
G|-----9---7-9-7-9--9-7-9--------------------------------9---7-9-7-9--9-7-9--|
D|-----9---7-9-7-9--9-7-9---

God In Heaven intro Tabs – Delirious

 -------------------------------------------------------------------------------
                             GOD IN HEAVEN - Delirious?
-------------------------------------------------------------------------------
:


Tuning: Standard Tuning

e|-3-3-3-3-x-x-x-x--------------------------------------------------------3|
B|-3-3-3-3-x-x-x-x-------2--17-17-17-17-17-19-19-19-15-15-12-12-12--------3|
G|-0-0-0-0-0-0-0-0--------------------------------------------------------0|
D|-2-2-2-2-2-2-2-2--------------------------------------------------------2|
A|-3-3-3-3-2-2-2-2-----2------------------------------------------------2-3|
E|-x-x-x-x-x-x-x-x-2-3----------------------------------------------2-3---x|

The two-three-two rift on the E and A strings is repeated several other times in the song.
And that's about it.

************************************

| /   slide up
| \   slide down
| h   hammer-on
| p   pull-off
| ~   vibrato
| +   harmonic
| x   Mute note
| b   Bend
| pb  Pre-bend
| br  Bend release
| pbr Pre-bend release
| brb Bend release bend

************************************

A Little Peace Of Heaven Acoustic chords – Avenged Sevenfold

 Avenged Sevenfold – A Little Piece Of Heaven (Acoustic)

Intro (sing the intro melody while playing these chords):  D5 ,  C#5 ,  Bb5 ,  A5 ,  E5  2x

Enter Drums:  Dm ,  Fm  2x

 Dm C#5 
Before the story begins, is it such a sin,
 Fm G#m 
For me to take what's mine, until the end of time?
 Dm C#5 
We were more than friends, before the story ends,
 Fm G#m 
And I will take what's mine, create what

God would never design

 Dm A 
Our love had been so strong for far too long,
 G#m 
I was weak with fear that
 Dm  [followed by A small breakdown of  G#5 ,  G5 ,  F5 ]
Something would go wrong,
 Dm A 
Before the possibilities came true,
 G#m Dm  [followed by A small breakdown of  G#5 , F5 ]
I took all possibility from you

 Dm F Fm G#m 
Almost laughed myself to tears, (CRAZY LAUGHTER)
 Dm F Fm Dm 
Conjuring her deepest fears (COME HERE YA’ FUCKIN’ BITCH!!!)

 Dm C#5            ( F5  slide to  G#5    3x)
Must have stabbed her fifty fucking times,

I can't believe it,
 Dm C#5                  ( F5  slide to  G#5    3x)
Ripped her heart out right before her eyes,
                    (guitar silent for eat it eat it eat it)
Eyes over easy, eat it, eat it, eat it

 Dm 
She was never this good in bed

Even when she was sleepin'

 A 
Now she's just so perfect I've

Never been quite so fucking deep in

One Bar of  Dm ,  Bb  before singing continues

         Dm Bb 
It goes on, and on, and on,
                   Dm Bb 
I can keep you lookin' young and preserved forever,
         Dm Bb 
With a fountain to spray on your youth whenever

(the string walk down section which I simplified is now over)

              Gm C 
'Cause I really always knew that my little crime
           F Dm 
Would be cold that's why I got a heater for your thighs
          Bb C F 
And I know, I know it's not your time
       Dm 
But bye, bye
         Bb C 
And a word to the wise when the fire dies
                 A Dm ,  C ,  Bb 
You think it's over but it's just begun
                   C 
But baby don't cry

                  Bb C 
You had my heart, at least for the most part
           F C Dm C Bb 
'Cause everybody's gotta die sometime, we fell apart
               C 
Let's make a new start
           F C Dm C Bb 
'Cause everybody's gotta die sometime yea-yeah
                   C 
But baby don't cry-ay-ay-ay-ay

             Dm A 
The possibilities I'd never considered
 G#m Dm A      
Are occurring the likes of which I'd never heard
       Dm A 
Now an angry soul comes back from beyond the grave
       G#m Dm A 
To repossess a body with which I'd misbehaved
 Dm F Fm G#m 
Smiling right from ear to ear
 Dm F Fm Dm 
Almost laughed herself to tears
 Dm C#5</

I Wanna See Heaven chords – The Katinas

 KEY: F
This is my first-ever submitted tab..
I think it's accurate enough.. Feel free to correct it though..


VERSE I
           F 
There are moments in my life            
            C/E 
When it’s hard to carry on
         Ebdim7           
When I think about our mother
              Bb/D                
And all the loved ones that are gone
 Bbm/Db 
Friends and close relations
           F/C            
Somewhere on the other side
          Gadd9           
They've passed into forever
          Bb Csus C                
But the love will never die             


VERSE II
       F 
Sometimes this tired old world
         C/E 
Starts bringing my heart down
          Ebdim7 
But you gotta bear the cross
         Bb/D 
If you wanna wear a crown
    Bbm/Db 
I often get impatient
           F/C 
As Father Time keeps dragging on
       G 
I’ve waited through the darkness
          Gm7 
Now I’m ready for the dawn
         Bb Csus C   (alternative:  Bbm )
(I’m)…ready for the dawn



CHORUS
               Bb  -  F 
I want to see hea- ven
            Am Dm 
Where the faithful carry on
               Gm7  -  Dm7 Bb/C C 
I want to see hea - ven, Oh Lord
               Bb  -   F 
I want to see hea - ven
            Am Dm 
Where the pain of sin is gone
               Gm7  -  Dm7 Bb C 
I want to see hea - ven, Oh Lord
              Bb C 
I Wanna See Hea - ven


VERSE III (Same Chords with Verse 1)

As I read the morning paper
I’m reminded once again
We’re surrounded by evil
Of a world that’s dead in sin
But the only sane conclusion
That my crazy mind can reach
Is to set my heart on heaven
And to live the things I preach


VERSE IV (Same Chords with Verse 2)

So I’m living every moment
As if each one was my last
Put my treasures where my heart is
And forget about the past
And if Jesus comes tomorrow
I’ll be ready to depart
As He leads me to my mansion
I’ll be following my heart


Repeat Chorus..

CODA
         Bbadd9 F 
When we all get to hea - ven
        Bb C 
What a day of rejoicing there will be
          F  -  C/E Bb/D  -  F 
When we all     see Je  -  sus,
        Bb C Dm7    ( C )
We’ll sing and shout the victory
        Gm9 C F 
We’ll sing and shout the victory




If you're having difficulties following the bass-lines you could omit them..
You could also always play a Cm  Chord instead of Ebdim7 for your convenience.

We played it once during the funeral of the mother of one of our church members.
That's it.. God bless everyone..Most Especially to Brgy Harvest (LOTN CAGAY)and all
Christian Churches out there.... 

Heaven Knows chords – First Aid Kit V2

 Heaven knows

Capo 3

 G *                                       C *
You've spent a year staring into a mirror
         G *                                 D *
Another one trying to figure out what you saw
 G *                          C *            G *
Paid so much attention to what you're not
         G *     D *           G *
You had   no idea who you  a re


(Chorus)
            G 
But heaven knows, knows
 C G 
  That you're lying
           G 
As far as heaven goes, heaven goes
 C D 
  I just stopped trying


(Interlude)
 G G G G 


(Verse)
           G C 
Now I can hear every word you're saying
              G D 
I'm just not sure I want to know
         G C G 
You can play the fool and still follow the rules
        G D G 
If you seem like you care or you're good


(Chorus)
            G 
But heaven knows, knows
 C G 
  That you're lying
           G 
As far as heaven goes, heaven goes
 C D 
  I just stopped trying



(Interlude)
 G G 


(Solo)
 G C G C G C D G 


(Middle Eight)
 Em C 
  You've lost yourself in others' 
 D G 
  Expectations of you
 Em C 
  Now you prefer this cari-
   D G 
cature before being true
                                         Em C 
  But you're better than that,   you're so much better than that
 D G 
  I know you better than that

(Verse)
           G *                    C *
Now baby, tell me, what's your story?
        G *                D *
Do you think it'll ever sell?
     G C G 
And what'll you do if it comes down to it?
       G D G 
If it all goes STRAIGHT TO HELL?


(Chorus)
            G 
But heaven knows, knows
 C G 
  That you're lying
           G 
As far as heaven goes, heaven goes
 C D 
  I just stopped trying
  

 G 
Heaven knows (heaven knows)
        C 
Heaven knows
 G 
Heaven knows (heaven knows)
        C G 
Heaven knows,  that you're
 C C C D  
Ly---Ly---ly--ing

OUTRO: (slowly)
 G C G D G C G D G 

* - one strum

Make It Rain chords – Tom Waits V2

 Bm 
 She took all my money...and my best friend
               E7 Bm 
 You know the story...here it comes again
             F#7 E7    
 I have no pride...I have no shame
                  Bm              
You gotta make it rain...make it rain!

  Bm 
Since you're gone...deep inside it hurts
 E7 Bm 
I'm just another sad guest on this dark earth(1)
           F#7 E7 
I want to believe...in the mercy of the world again(2)
 Bm 
Make it rain...make it rain!


 E7 Bm 
The nite's too quiet...stretched out alone
                      F#7 Bm 
I need the whip of thunder...and the wind's dark moan
 E7 Bm 
I'm not Able...I'm just Cain(3)
 C#7 F#7 
Open up the heavens...make it rain!


 Bm 
I'm close to heaven...crushed at the gate
They sharpen their knives...on my mistakes
What she done...you can't give it a name
You gotta just make it rain...make it rain, yeah!

Without her love...without your kiss
Hell can't burn me...more than this
I'm burning...with all this pain
Put out the fire...make it rain!

I'm born to trouble...I'm born to fate
Inside a promise...I can't escape
It's the same old world...but nothing looks the same
Make it rain!...Make it rain!

Got to make it rain
Make it rain
You got to make it rain
Got to make it rain
You got to...

I stand alone here!
I stand alone here!
Sing it:
Make it rain!
Make it rain!
Make it rain!

Defender chords – Kings Kaleidoscope

 Defender
by Kings Kaleidoscope
 Live in Color


Intro:  D !


Verse 1:
 D 
A torrent of destruction hid
my darkest soul from rescuing
I cry to God for help
He heard my voice
 D 
The tainted earth, it rocked and reeled
the heaven’s bow, the mountains kneel
the thunderous voice of God
my covering


Prechorus:
 G A Bm A 
  I will not be afraid
 G A Bm A  
  For my hope is in His name


Chorus:
 D G A Bm  
  Who is a rock but our God?
 D G A Bm 
  Whose blood has sealed our freedom?
 D Em   
  Jesus
 D/F# G 
  our Savior
 D Em 
  Defender
 D/F# G 
    Redeemer


Turn:  D D/F# G Bm A   x2


Verse 2:
     D 
You brought me to a safer place
  D 
equipped my hands and feet with strength
    Bm G D 
So I advance with confidence in Christ
     D 
His precious truth delivers me
      D 
from lies that wage war in me
      Bm G D 
Your victory is mine for all my days


Bridge:
 G Bm D 
You kneel down to raise me up
 D/F# G D/F# G 
You my Lord, You my God
     G Bm D 
You rescue me with reckless love
 D/F# G D/F# G 
Oh my Lord, Oh my God


Outro: 
 D 
Oh oh  oh oh
oh oh oh oh oh oh

North Carolina chords – Little Chief

 "North Carolina" by Little Chief
Play on Capo 2 or 3 

 F C 
How far?
 F C       
How much more?
 F C Am G 
Till I see your hand in mine
 F C 
I’ll be 
 F C 
loving you
 F C 
Staying true, 
 Am G 
If you give me time

 Am F C 
Take me to North Carolina
 Am F C 
Where my baby lives
 Am F C 
I won't be there by tomorrow
 Am F C 
But heaven knows I'm on my way


 Am F C            
Put some fire in those footsteps,
 Am F C 
Just a little bit more,
 Am F C 
Heaven knows I miss you 
 Am F C 
But I'm closer than before      

 Am F C 
So take me to North Carolina
 Am F C 
Where my baby lives
 Am F C 
I won't be there by tomorrow
 Am F C 
But heaven knows I'm on my way

Lookin Up In Heaven chords – Paul Westerberg

 Paul Westerberg
"Looking up in heaven"

Capo 4th

 G         
Someday morning i felt afraid
 Em7 
Someone leaving in the world today
 D 
I looked low, i looked high
 Am 
Only missed one friend
 D Am G 
Before i go, i look high again


           C9 G/B 
So i went lookin' up in heaven
         A7 /4       G/B C9 G/B D4 D D9 D 
But you wasn't anywhere in sight
       C9 G/B 
They asked me to stick around
         A7 /4            G/B C9 G/B D4 D D9 D 
But without you it just wasn't right
        C9 G/B 
I went lookin' up in heaven
         A7 /4                G/B G 
But you wasn't anywhere in sight


Sunday evening i get the blues
Someone sleeping' in their tennis shoes
I looked low and i looked high
Only missed one friend
Before i go, i look high again

So i went lookin' up in heaven
But you wasn't anywhere in sight
They asked me to stick around
But without you it just wasn't right
I went lookin' up in heaven
But you wasn't anywhere in sight


 Em7 G 
I met a little angel, she asked me if i could step outside
 A7 /4                       A7 
"i'll make you forget her, i'll make you forget her
 C9 
Baby, won't you watch me fly?"

 C9 G/B A7 /4   G/B C9 G/B D4 D D9 D 


Years go by now, now i have grown
Sunday night and i ain't alone
So you look low and i look high
And miss another friend
Before i go, i look high again
(i love you)

Lookin' up in heaven
But you wasn't anywhere in sight
They asked me to stick around
But without you it just wasn't right
So i went lookin' up in heaven
But you wasn't anywhere in sight
They invited me to stick around, you know
But i told 'em there was another place i had to check out tonight
I went lookin' up in heaven
But you wasn't anywhere in sight


João Vitor Alvarenga

Dare chords – Stan Bush V2

 G C D C C D G 
Sometimes when your hopes have all been shattered
 C 
And there's nowhere to turn
 G C 
You wonder how you keep going
 G 
Think of all the things that really mattered
 C 
And the chances you've earned
 G C 
The fire in your heart is growing
 Bb C 
You can fly, if you try leaving the past behind
 Dm C D 
Heaven only knows what you might find

 G C Em D 
Dare - dare to believe you can survive
 G C D 
You hold the future in your hand
 G C Em D 
Dare - dare to keep all of your dreams alive
 D C D C D C 
It's time to take a stand
 D G 
And you can win, if you dare

 G 
Everybody's trying to break your spirit
 C 
Keeping you down
 G C 
Seems like it's been forever
 G 
But there's another voice if you'll just hear it
 C 
Saying it's the last round
 G C 
Looks like it's now or never
 Bm C 
Out of the darkness you stumble into the light
 Dm D 
Fighting for the things you know are right


 G C Em D 
Dare - dare to believe you can survive
 G C D 
The power is there at your command
 G C Em D 
Dare - dare to keep all of your dreams alive
 D C D C D C 
It's time to take a stand
 D E D 
And you can win, if you dare

 Em D Em D Em C D C D G C Em D 
Dare - dare to believe you can survive
 G C D 
You hold the future in your hand
 G C Em D 
Dare - dare to keep all of your dreams alive
 G C D 
The power is there at your command

 G C Em D 
Dare - dare to keep all your love alive
 G C D 
Dare to be all you can be
 G C Em D 
Dare - 'cause there is a place where dreams survive
 G C D 
And it's calling you on to victory

Rend The Heavens chords – Iva Courvertier

 Verse:
 Em D/F# G G D C        
Hear our cry, You who dwell in heaven 
 Em D/F# G G D C    
Draw near to us, for you're our soul desire 
 Am Em C  
No one else could ever do in this life 
 Am Em C  
So make us blameless in the sight of your son 


Chorus:
        Em C Am D  
As we rend our hearts, may you rend the heavens 
       Em C Am D  
As we look to you, may you shine your glory.  


Bridge:
           Em C Am  
Rend the heavens!    Rend the heavens!   Rend the heavens! (echo) 3X 
            D  
And come down! 

Rockin Chair chords – Eric Clapton V2

 just a different way to play this song... capo 2

Artist: Eric Clapton
Song Title:  Rockin Chair 


Intro -  D - B7 - E7 - A7  ...  D - B7 - E7 - A7 D Am D7 Gmaj7 C7  
Old rockin' chair's got me, ... my cane by my side 

 D B7 E7 A7  
Fetch me my gin, son, 'fore I tan your hide 

 D Bm Bdim Db Gbm  
Can't get from this cabin, I aint goin' nowhere 

 E7 A7 D D7  
Just sittin here grabbin' at the flies round my rockin' chair 

 G Gdim D A7 D  
Remember old aunt Harriet, how long in Heaven she be 

 Bm Db Gbm E7 A7  
Please send me down that chariot, for the end of my trouble I see 

 D Am D7 Gmaj7 C7  
Old rockin' chair got me, Judgement Day is almost here 

 D B7 E7 A7 D - B7 - E7 - A7  
Im chained to my old rockin' chair 


Break -  D - Am - D7 - Gmaj - C7 - D - B7 - E7 - A7 D Bm Bdim Db Gbm  
Can't get from this cabin, I aint goin' nowhere 

 E7 A7 D D7  
Just sittin here grabbin' at the flies round my rockin' chair 

 G Gdim D A7 D  
Remember old aunt Harriet, how long in Heaven she be 

 Bm Db Gbm E7 A7  
Please send me down that chariot, for the end of my trouble I see 

 D Am D7 Gmaj7 C7  
Old rockin' chair got me, Judgement Day is almost here 

 D B7 E7 A7 D - B7 - E7 - A7  
Im chained to my old rockin' chair

Theres A New Star Up In Heaven Tonight chords – Chris De Burgh

 Chris de Burgh - There's a New Star up in Heaven Tonight
From the albums: Lady in Red - The Very Best of Chris de Burgh (2000) and Now and Then (2008)
Comment for any corrections and please rate

Chris de Burgh wrote this song a few days after his friend Princess Diana
got killed in august 1997.


Intro:  D D Em          
 Shadows darken and the day is done
 F#m G 
 And I cannot believe 
                                 D     
 It's really true and you have gone
 Em A        
 You were always here beside me

 D Em             
 You gave so much as the Queen of Hearts
 F#m G 
 To those without love
                                  D 
 You were their voice when they could not speak
 Em A 
 A touch for the dying

             D Bm            
 And as we say goodbye I can hardly see
 G D A 
 For the tears in my eyes
 D Bm 
 You are shining like a million suns
                 G A D 
 And there's a new star up in Heaven tonight

 D Em 
 I wonder if you ever knew
 F#m G 
 How much you were loved
                            D 
 And in the darkness of a lonely room
 Em A 
 Were you empty inside?

 D Em 
 And as you fade away, it's like a light
 F#m G 
 Has gone from the world
                              D 
 But I am sure that there is a place
 Em A 
 Where you will burn on forever

             D Bm 
 And as we say goodbye, I can hardly see
 G D A 
 For the tears in my eyes
 D Bm 
 You are shining like a million suns
                 G A D Bm   
 And there's a new star up in Heaven tonight
                 G A D 
 And there's a new star up in Heaven tonight