Tag: Hell

Hell Have To Stay chords – Skeeter Davis

 C F C 
I am glad you've finally called me on the phone 

                                        G7 
I've been waiting here tonight but not alone
 
               C C7 F 
You broke the date that we had made just yesterday 

             C G7 C G7 
Now there's someone else who's here he'll have to stay
 

        C F C 
I have found another love I know is true 

                                         G7 
And he holds me much more tenderly than you 

        C C7 F 
Loving you's not worth the price I have to pay 

         C G7 C 
Someone else is in your place he'll have to stay 


        F 
Once I loved you with all my heart 

     C 
But now I must say no 

     F 
You broke my heart too many times 

    C G7 
So now you'll have to go 


       C F C 
I can hear the jukebox playing soft and low 

                                          G7 
And you're out again with someone else I know
 
             C C7 F 
My love was blind I'm not your kind that's all I'll say 

            C G7 C 
So you can hang up I'm in his arms he'll have to stay 


        C F C 
I have found another love I know is true
 
                                         G7 
And he holds me much more tenderly than you 

        C C7 F 
Loving you's not worth the price I have to pay 

         C G7 C 
Someone else is in your place he'll have to stay

See Hell chords – Agent Fresco

 Am Am G D  (x2)
 Am Em D Am C Am Am G D 
I woke up with charcoal hands
                                     Am 
Clouds of grime crimes crown their hatred
          G D 
Fingers bound by iron bands
                                          Am 
In palms they stay clenched through the night

             Em D 
Wounds are green, neglected while I
                                        Am 
Visit never-ending scenes, where the frenzy speaks
            C Am 
Words of just repeated till bloodlust floods us

 F C Am 
We open up to see hell
 G F 
Keep my teeth so deep into the lips where fury cries;
      C Am C Am 
"I want to see hell"

            Em D 
Pour your oil into their lungs
         Am C 
Let it boil black, blistered tongues
           Am 
We both know nobody returns home from war


 F C Am 
We open up to see hell
 G F 
Keep my teeth so deep into the lips where fury cries;
      C Am C Am F 
"I want to see hell"

            Am G 
I know my hands still reach for hell
                          F 
Should I feed them the fire?
            Am G 
I know my hands still reach for hell

                   Am G 
To condemn or to crown
                    D 
To condemn or to crown
                    A G 
To condemn or to crown
                    D Am 
To condemn or to crown

            Em D 
Drops of bleach, discolor their eyes
                                    Am 
Leave them never-ending seas of uncertainty
            C Am 
Still we know nobody returns home from war

           
To condemn or to crown
                                      F 
When will metronome count alone?

 F C Am 
We open up to see hell
 G F 
Keep my teeth so deep into the lips where fury cries;
      C Am C Am F 
"I want to see hell"

           Am G 
I know my hands still reach for hell
                          F 
Should I feed them the fire?
           Am G 
I know my hands still reach for hell
                          F 
Should I feed them the fire?
           Am G 
I know my hands still reach for hell
                          F 
Should I feed them the fire?
           Am G 
I know my hands still reach for hell
            F 
See hell
           Am G 
I know my hands still reach for hell
                          F 
Should I feed them the fire?
           Am G 
I know my hands still reach for hell
                   Am G 
We'll leave you for now
                    D 
We'll leave you for now
                    A G 
We'll leave you for now
                    D          
We'll leave you for now

Jump chords – Two Steps From Hell

 Two Steps From Hell - Jump! (short version)

Tuning: Drop C

Intro (2x)

D|------------------------------------------------|
A|------------------------------------------------|
F|------------------------------------------------|
C|------------------------------------------------|
G|--2-2---2-2---2-2---2-2---2-2---2-2---5-5---9-9-|
C|--0-0---0-0---0-0---0-0---0-0---0-0---3-3---7-7-|


Solo

D|---------------------------------------------------------------------------------|
A|---------------------------------------------------------------------------------|
F|---------------------------------------------------------------------------------|
C|---------------------------------------------------------------------------------|
G|---------------------------------------------------------------------------------|
C|--0-0--3-0--0-0--3-0--0-0--3-0--0-0--3-0--0-0--3-0--0-0--3-0--0-0--3-0--3-0--3-0-| (3x)


D|---------------------------------------------------------------------------------|
A|---------------------------------------------------------------------------------|
F|---------------------------------------------------------------------------------|
C|---------------------------------------------------------------------------------|
G|--------------------------------0-------------------0-0--0-0-------0-0--0-0--0-0-|
C|--0-0--3-0--0-0--3-0--0-0--3-0--0-0--3-0--0-0--3-0--0-0--3-0--0-0--3-0--3-0--3-0-|


Main

D|-----------------|----------------|----------------|----------------|
A|-----------------|----------------|----------------|----------------|
F|-----------------|----------------|----------------|----------------|
C|-----------------|----------------|----------------|----------------|
G|--X-X-2--X-X-3-X-|-X-X-2--X-X-0-X-|-X-X-2--X-X-3-X-|-5-5--5--7-7--7-|
C|--0-0----0-0---0-|-0-0----0-0---0-|-0-0----0-0---0-|-3-3--3--5-5--5-| (2x)


D|-----------------|----------------|----------------|----------------|
A|-----------------|----------------|----------------|----------------|
F|-----------------|----------------|----------------|----------------|
C|-----------------|----------------|----------------|----------------|
G|--2-2-2--2-2-3-2-|-2-2-2--2-2-3-2-|-2-2-2--2-2-3-2-|-5-5--5--7-7--7-|
C|--0-0-0--0-0---0-|-0-0-0--0-0---0-|-0-0-0--0-0---0-|-3-3--3--5-5--5-|


D|-----------------|----------------|----------------|----------------|
A|-----------------|----------------|----------------|----------------|
F|-----------------|----------------|----------------|----------------|
C|-----------------|----------------|----------------|----------------|
G|--2-2-2--2-2-3-2-|-2-2-2--2-2-0-2-|-2-2-2--2-2-3-2-|-5-5--5--7-7--7-|
C|--0-0----0-0---0-|-0-0-0--0-0---0-|-0-0----0-0---0-|-3-3--3--5-5--5-|


D|-----------------|----------------|----------------|----------------|
A|-----------------|----------------|----------------|----------------|
F|-----------------|----------------|----------------|----------------|
C|-----------------|----------------|----------------|----------------|
G|--2-2-2--2-2-3-2-|-2-2-2--2-2-0-2-|-2-2-2--2-2-3-2-|-5-5--5--7-7--7-|
C|--0-0----0-0---0-|-0-0----0-0---0-|-0-0----0-0---0-|-3-3--3--5-5--5-|


D|-----------------|----------------|----------------|----------------|
A|-----------------|----------------|----------------|----------------|
F|-----------------|----------------|----------------|----------------|
C|-----------------|----------------|----------------|----------------|
G|--2-2-2--2-2-3-2-|-2-2-2--2-2-0-2-|-2-2-2--2-2-3-2-|-5-5--5--7-7--7-|
C|--0-0----0-0---0-|-0-0----0-0---0-|-0-0----0-0---0-|-3-3--3--5-5--5-|


End

D|---------|
A|---------|
F|---------|
C|---------|
G|---2-2---|
C|---0-0---|


Hope it's working =)
-dommk97

Sinful chords – Marina And The Diamonds

 Bb C Bb C C F Cm F 
I lost my spine inside the center of a star
 C F Cm F 
And every day I wonder where the bad bones are
 Dm Bb F C        
You die an ugly day if you hit and miss
 Dm Bb F C 
I know my own grand daddy worked so hard for this

 Bb C Bb C 
It seems so simple living like a porcupine
 Bb C Bb C 
I know you're dreaming of the time when you were mine
 Dm C F Gm Bb C Bb C 
It seems so sinful, It seems so sinful, ooooh...

You kick me out and hung my rope down from the roof
The Christians came out and watched me tie my noose
I spoke a silent prayer, they began crying
They knew that I'd applied to hell and they knew I got in

It seems so simple living like a porcupine
I know you're dreaming of the time when you were mine
It seems so sinful, It seems so sinful, ooooh...

 Gm C Gm C 
    It seems so simple now, uuuh
 Gm Am Bb A 
    It seems so sinful, uuuh

Lovers Or Liars chords – Lauren Aquilina

 NO CAPO

Intro:  G ,  D ,  A G D A 
Trying to put my finger on this feeling
 G D A 
Can't remember what we came here for
           G D A 
Everything we try to save has hidden meaning
           G D A 
When you're the kind of tired sleep can't cure

                              Bm A 
But time moves slow, waiting for this to evolve
                                               G 
When hearts have nothing to hold, they let go
                                                   A 
So what the hell are we waiting for?

                G D 
Are we lovers or liars?
  A Bm G 
     Are we burning up to keep this fire alive?
                       D A Bm 
God loves a tryer,     but there's nothing left to try
 G D 
Lying to ourselves, lying to each other
 A Bm 
Hiding from the truth, hiding under covers?
 G D A 
Are we lovers or liars?

Verse:  G ,  D ,  A  
Holding onto reasons I should keep you
When all the things you loved are now my flaws 
We took apart our heads when we were sleeping
But we are dreaming, will our dreaming be our downfall? 

Chorus:  G ,  D ,  A ,  Bm 
Are we lovers or liars?
Are we burning up to keep this fire alive?
God loves a tryer, but there's nothing left to try
Lying to ourselves, lying to each other
Hiding from the truth, hiding under covers?
Are we lovers or liars?

 G D A 
Shall we lose everything we've got,
              G D A 
Or to settle for something that we're not?
         G D A  
And all will be forgiven
 G D A 
If we go back, can we go back?

Chorus:  G ,  D ,  A ,  Bm 
Are we lovers or liars?
Are we burning up to keep this fire alive?
God loves a tryer, but there's nothing left to try
Lying to ourselves, lying to each other
Hiding from the truth, hiding under covers?
Are we lovers or liars?
 G D A 
Are we lovers or liars?

How Far Weve Come chords – Boyce Avenue

 Band/Artist: Boyce Avenue
Title: How Far Weve Come
Chords by: VALERA, CHARLIE EDSEL  AYUNON


Verse:
 C G 
I'm waking up at the start of the end of the world,
                                                 Am 
But its feeling just like every other morning before,
                                                    F 
Now I wonder what my life is going to mean if it's gone,

 C G 
The cars are moving like a half a mile an hour and I
                                                     Am 
Started staring at the passengers who're waving goodbye
                                               F 
Can you tell me what was ever really special about me all this time?


Chorus:
 Am F 
But I believe the world is burning to the ground
 F 
Oh well I guess we're gonna find out

 C 
Let's see how far we've come
 G 
Let's see how far we've come

 Am F 
Well I, believe, it all, is coming to an end
 F 
Oh well, I guess, we're gonna pretend,
 C 
Let's see how far we've come
 G 
Let's see how far we've come


Verse:
 C G 
I think it turned ten o'clock but I don't really know
                                             Am 
Then I can't remember caring for an hour or so
                                      F 
Started crying and I couldn't stop myself

I started running but there's no where to run to

 C G 
I sat down on the street and took a look at myself
                                                           Am 
Said where you going man you know the world is headed for hell

Say your goodbyes if you got someone you can
 F 
Say goodbye to


(Chorus)


Bridge:
 Am 
Gone, gone baby, it's all gone
There's no one in the corner
And there's nobody home
Well it was cool, cool
It was just all cool
Now it's over for me
And it's over for you
 G 

Chorus:
 Am F 
But I believe the world is burning to the ground
 F 
Oh well I guess we're gonna find out

 C 
Let's see how far we've come
 G 
Let's see how far we've come

 Am F 
Well I, believe, it all, is coming to an end
 F 
Oh well, I guess, we're gonna pretend,

 C 
Let's see how far we've come
 G 
Let's see how far we've come
 C 
Let's see how far we've come
 G 
Let's see how far we've come
 Am 
Let's see how far we've come
 F 
Let's see how far we've come
 C 
Let's see how far we've come
 G 
Let's see how far we've come
 Am 
Let's see how far we've come
 F 
Let's see how far we've come

Take It Out On Me chords – Florida Georgia Line

 Standard Tuning
Intro ( Bm , D , G , A )

                  Bm 
What'd he do this time?
                  D 
Did he break your heart?
                    G A 
I can tell you been crying... and baby here you are.
             Bm G D A 
And I always know any time you show up at my door past 11 o'clock that he really 
must've pissed you off.

(Chorus)
               Bm 
Take it out on me.
                     G 
And put your lips on mine.
                D A 
Let me take his wrong and make it right this time.
      Bm 
Yeah, you can just come over, you ain't gotta call.
    G D 
You always got a shoulder anytime it all goes bad, 
                                               A 
When you're 'bout to break, when you're mad as hell, you can always take it
        Bm 
 out on me.

                                G 
You can take it out on me baby.
                               D 
If you ever wanna leave, maybe.
 D A 
In the middle of the night, that's alright...

You can take, take...


              Bm G 
Take off your coat, and baby come on in.
             D A 
Girl, let me help to get back at him.
                 Bm G 
And I don't know why you never say goodbye...
 D 
Whatever hell he's puttin' you through,
 A                          
I can't wait for you to...

(Chorus)

Solo( G , D , A )

      G A Bm D 
Yeah, I'll lay you down and love you just the way you should be.
 G A Bm A Bm 
Baby, so now that you're ready, take it out on me


You can take it out on me baby.
                               D 
If you ever wanna leave, maybe.
 D A 
In the middle of the night, that's alright...

You can take, take...

(Chorus)

You can take it out on me baby.
                               D 
If you ever wanna leave, maybe.
 D A 
In the middle of the night, that's alright...

You can take, take, take it out on me

Outro( G , D , A )

Some Kind Of Monster chords – Neon Trees

 I'm some kind of monster since I lost her

 C#m | | A | | E  | | B | |
There's a trap door hidden in my heart
I fell into a lover's hell deeper then I thought
 C#m |  A |  E |  B 
I came crawling back to that motel
 F#m | | A | |
I don't recognize who I am tonight


 E | E | G#m |  G# (m)|
I'm some kind of monster since I lost her
| C#m | F#m |
Now I'm raging wild and starting fires
| A | B |
I'll burn this whole thing down
 E | E | G#m |  G# (m)|
Some kind of monster how bad do I want her
| C#m | F#m |
I don't sleep at night I'm terrorized
| A | B |
There's blackness in my eyes
| F#m | |
I'm some kind of monster
| A | B |
I'm some kind of monster

 C#m | | A | | E  | | B | |
Everybody wanted her as a friend for fun
The time we took the nights we shook should have been enough
 C#m |  A |  E |  B 
Now her face is carved into my head
 F#m | | A | |
She's a damsel I'm in such distress


 E | E | G#m |  G# (m)|
I'm some kind of monster since I lost her
| C#m | F#m |
Now I'm raging wild and starting fires
| A | B |
I'll burn this whole thing down
 E | E | G#m |  G# (m)|
Some kind of monster how bad do I want her
| C#m | F#m |
I don't sleep at night I'm terrorized
| A | B |
There's blackness in my eyes
| F#m | |
I'm some kind of monster
| A | B |
I'm some kind of monster



| F#m | | A | |
I used to whisper in her ear
| E | | F#m | B |
Now I am screaming out in fear
| F#m | | A | |
Secrets keep me sinister but I've told her every one
| B | | A | B |
So why can't she understand the creature I've become


 C#m | | A | | E  | | B | |
There's a trap door hidden in my heart
I fell into a lover's hell deeper then I thought


 E | E | G#m |  G# (m)|
I'm some kind of monster since I lost her
| C#m | F#m |
Now I'm raging wild and starting fires
| A | B |
I'll burn this whole thing down
 E | E | G#m |  G# (m)|
Some kind of monster how bad do I want her
| C#m | F#m |
I don't sleep at night I'm terrorized
| A | B |
There's blackness in my eyes
 E | E | G#m |  G# (m)| C#m | F#m | A | B |
I'm some kind of monster
I'm some kind of monster

One More Reggae For The Road chords – Bill Lovelady V2

 Transpose 5 steps up (or place capo on 5th fret) to play along with original song.

Please rate/comment/correct. =)


Intro: |  Em Bm C B  |  Em D C B  |

 Em Bm   
  She came from Madrid,  just a crazy kid.
 C B  
  Met her down in Cadiz.  I think you know where that is.
 Em D   
  I'd been travelling far,  playing my guitar.
 C B 
  Pulling senoritas,  they said I played like Manitas.
 Am Em   
  Looking for a few pesetas,  took a job as a singing waiter,
 B7 Em E   
  Drank tequila and danced the night away.
 Am Em 
  I was sprawled across the table,  making out to a Spanish Betty Grable.
 B7 Em G   
  I never did get to know the lady's name. 

 C Am Em Dm F G   
  One more reggae for the road.  Gonna sing it to you before I go. Everybody:
 C Am Em Dm F G   
  One more reggae for the road.  Gonna sing it to you before I go. Everybody:

|  Em Bm C B  |  Em D C B  |

 Em Bm   
  She asked me to take her hand,  to stay with her and to be her man.
 C B  
  To make promises impossible to keep.
 Em D C B 
  I'd be delighted,  even get excited. Valentina, I really need some sleep.
 Am Em   
"Si senor, I will lock the door". The next thing I knew I was crawling cross the floor.
 B7 Em E   
  trying to find a window to get the hell out of here.
 Am Em 
  Trying to keep my head above water, when in came a hotel porter. He said:
 B7 Em G   
  "Take your hands of my daughter and play that guitar". Sing it:

 C Am Em Dm F G   
  One more reggae for the road.  Gonna sing it to you before I go. Everybody:
 C Am Em Dm F G   
  One more reggae for the road.  Gonna sing it to you before I go. Everybody

 D Bm F#m Em G A   
  One more reggae for the road.  Gonna sing it to you before I go. Everybody:
 D Bm F#m Em G A   
  One more reggae for the road.  Gonna sing it to you before I go. Everybody:
 D Bm F#m Em G A   
              Everybody:       Everybody:        Everybody:
 D Bm F#m Em G A   
  One more reggae for the road.  Gonna sing it to you before I go. Everybody:
 D Bm F#m Em G A   
  One more reggae for the road.  Gonna sing it to you before I go. Everybody:

Fade out, END

Say Heaven Say Hell chords – Miss Montreal

  Artist- Miss Montreal
 Song- Say Heaven, Say Hell

 INTRO:

  E 
 Oh

 VERSE:

  E 
 Trading the last stuff for dimes,

 for cigarettes and alcohol.
                       A 
 She hands it all out to the guys,
                     E 
 wondering where to find a home.
               C#m B E 
 She's singing oh,   oh  (oh).

 Dance around and wasting time,
 too young for tomorrow.
 She said so loud the world on fire,
 drunk driving a limbo.
 She's singing oh, oh (oh).


 CHORUS:
  C#m A 
 Say heaven, heaven, heaven,
                       E B 
 when all you know is hell, hell, hell.
           C#m B 
 Wherever we are,
                        E                        
 let's make a story to tell (oh, oh).
 
  C#m A 
 Say heaven, heaven, heaven,
                       E B 
 when all you know is hell, hell, hell.
           C#m 
 Wherever we are,
  A 
 let's make a story to tell 

  E 
 (oh, oh)
 
 VERSE:
 
 She never wrote the book all night.
 But she's made it a couple times.
 So good out the sun is on.
 Never needed anyone.
 She's singing oh, oh (oh).
 
 CHORUS:
 Say heaven, heaven, heaven,
 when all you know is hell, hell, hell.
 Wherever we are,
 let's make a story to tell (oh, oh).
 Say heaven, heaven, heaven,
 when all you know is hell, hell, hell.
 Wherever we are,
 let's make a story,
 
 BRIDGE:
  A 
 When money won't buy you.
  C#m 
 Everything soaking you to the skin.
  A 
 When waters run dry well.
  G# 
 Say heaven,

 Or say hell.

 CHORUS:
 Oh
 Say heaven, heaven, heaven,
 when all you know is hell, hell, hell.
 Wherever we are,
 let's make a story to tell (oh, oh).
 Say heaven, heaven, heaven,
 when all you know is hell, hell, hell.
 Wherever we are,
 let's make a story to tell.

Hell On An Angel chords – Brantley Gilbert

 Capo 1

                 Em G   
They said I was baptized in dirty water
        D Em   
By the hands of the devil himself
             Em G 
Between the banks of a Whiskey River
            D C 
Beside the Highway to Hell
       Em G  
I got scars on my heart and knuckles
       D Em  
I got debts that I can't pay
          C 
Yeah but I got a blessing sent down from heaven
 D 
Baby you're my saving grace



Chorus:
                 D Em   
Girl you got an outlaw
          C 
Ready to lay down all my guns
             D Em 
A dirty old hound dog
          C  
Learning new tricks like cuddlin up
              Em G 
You've got a hellcat purrin like a kitten
              D Em   
You've got a sinner down on his knees
              C 
It had to be hell on an angel
 D Em G D Em 
Lovin the devil outta me


You'd tell me how did I get under
This leather skin I wear
Beneath the callouses and tattoos
Around the walls I've built down there
To this heart I've broke and guarded
All alone out on the street flyin
Yea it takes an angel to fly with a freebird
Baby we've got the sky

Chorus

Hell on an angel, on an angel

Chorus 

Raising Hell Tabs by Bullet For My Valentine V2

 : Connor Ford

  Bullet for My Valentine
Song:  Raising Hell
 ? (2013)


Tuning: D Tuning (D, G, C, F, A, D)
(Tune all string down one whole step)



Please rate, comment, correct, anything that will help :)


Hammer on:        h
Pull off:         p
Slide up:         /
Slide down:       \
Bend up:          BU(?)
Tapped note:      T
Vibrato:          ~~~
Pinch Harmonic:   PH
Natural Harmonic: NH
After Muting:     M
Pick slide:       X\\\ ('\' indicated duration)
Dive Bomb:        DB

‘/’ before DB indicates a raise into the dive bomb
‘\’ after DB indicates a lower of the Floyd rose bar

Guitar 1:        Matt Tuck
Guitar 2:        Michael Padge
Guitar 3:        Michael Padge (Additional harmonies)


________________________________________________________________________________



Intro
Guitar 1
|---------------------------------|---------------------------------|
|---------------------------------|---------------------------------|
|---------------------------------|---------------------------------|
|-2-------------------------------|-3-------------------------------|
|-2-------------------------------|-1-----------------------1-111-1-|
|-0-------------------------------|-------------------------1-111-1-|
|
|Guitar 2
|---------------------------------|---------------------------------|
|---------------------------------|---------------------------------|
|-4NH-DB\\\\\---------------------|---------------------------------|
|---------------------------------|---------------------------------|
|---------------------------------|-7NH-DB\\\\\---------------------|
|---------------------------------|---------------------------------|

Guitar 1
|---------------------------------|---------------------------------|
|---------------------------------|---------------------------------|
|---------------------------------|---------------------------------|
|-2-------------------------------|-3---------------5---------------|
|-2-------------------------------|-1---------------3---------------|
|-0-------------------------------|---------------------------------|
|
|Guitar 2
|---------------------------------|---------------------------------|
|---------------------------------|---------------------------------|
|-5NH-////DB------5\/5\/5\(5\\\---|-5NH-DB\\\\\---------------------|
|---------------------------------|---------------------------------|
|---------------------------------|---------------------------------|
|---------------------------------|---------------------------------|


________________________________________________________________________________


Pre-verse 1
Guitar 1
||-----------------------------------------------------------------||
|o-----------------------------------------------------------------o|
||-----------------------------------------------------------------||
||-----------------------------------------------------------------||
|o-----------------------------------------------------------------o|
||-6p0-0-0-0-0-0-0-6p0-0-0-0-0-0-0-6p0-0-0-0-0-0-0-6p0-5p0-3p0-5p0-||
|
|Guitar 2
||-----------------------------------------------------------------||
|o-----------------------------------------------------------------o|
||-----------------------------------------------------------------||
||-2---------------------------------------------------------------||
|o-2---------------------------------------------------------------o|
||-0---------------------------------------------------------------||

Both guitars
|-----------------------------------------------------------------|
|-----------------------------------------------------------------|
|-----------------------------------------------------------------|
|-----------------------------------------------------------------|
|-----------------------------------------------------------------|
|-6p0-0-0-0-0-0-0-6p0-0-0-0-0-0-0-6p0-0-

Psycho Bitch From Hell chords – Roger Alan Wade

 This has always been one of my favorite "novelty" songs by Roger Alan Wade.  I 
never quite understood all of the lyrics until I really dug in and did some heavy 
thinkin' and searchin'.  I'll have a tiny vocabulary section at the end of the 
song just in case anyone was as confuddled as I was.


Intro: E (Strum once)


Chorus 1:

         A 
She's a psycho bitch from Hell
          E 
Suckin' on a Pall Mall
          B7 
She gets drunk as a carload of white trash
               E 
Walks like a duck
       A 
She's hairy as the missin' link
       E 
Her 12D wide Pick 'n Pay stink
            B7 E 
The nicest thing she ever said to me was "you suck"


Verse 1:

        A E 
Oh the best mood she ever been in was a bad mood
 B7 E 
It just tends to go from bad to worse
             A E 
And all she ever gave a damn about was a shot of Early Times and a Quaalude
       B7 E 
But a good ass-whippin' is what her big ass deserves


Chorus 2:

         A 
She's a psycho bitch from Hell
          E 
Suckin' on a Pall Mall
          B7 
She gets drunk as a carload of white trash
               E 
Walks like a duck
       A 
She's hairy as the missin' link
       E 
Her 12D wide Pick 'n Pay stink
            B7 E 
The nicest thing she ever said to my momma was "your son sucks"


Verse 2: 

               A E 
Well her ole momma's still in jail, cause her daddy drank up the bail
     B7 E 
And her whole family thinks that Bob Saget is funny
                 A E 
And her little twin sister used to be a whore, but that little pig ain't no whore no more
          B7 E 
Cause nobody's desperate enough to give the little skank no money


Chorus 3:

         A 
She's a psycho bitch from Hell
          E 
Suckin' on a Pall Mall
          B7 
She gets drunk as a carload of white trash
               E 
Walks like a duck
       A 
She's hairy as the missin' link
       E 
Her 12D wide Pick 'n Pay stink
            B7  (Strum once)                                                                E 
The nicest thing she ever said to me was "you better come bail me out or I'll kill your family"
____________________________________

Early Times is a brand of whiskey

A quaalude is a sedative pill

In the line "Suckin' on a Pall Mall" (Pall Mall is a brand of cigarette), Roger 
pronounces it like "Pell Mell" to rhyme with the first line better.

And in the line "Her 12D wide Pick 'n Pay stink" (12D is a men's shoe size and 
"Pick n' Pay" is a the name of a store chain).

Go To Hell For Heavens Sake Tabs by Bring Me The Horizon V2

 Drop C

D||-------|------------------------|------------------------|
A||-------|------------------------|------------------------|
F||-------|------------------------|------------------------|
C||-------|--7---7---7--7---7---7--|--7---7---7--3---3---3--|
G||-------|--7---7---7--7---7---7--|--7---7---7--3---3---3--|
C||-------|--7---7---7--7---7---7--|--7---7---7--3---3---3--|


------------------------|------------------------|------------------------|
------------------------|------------------------|-------------3---3---3--|
------------------------|------------------------|-------------2---2---2--|
--5---5---5--5---5---5--|--5---5---5--5---5---5--|--0---0---0--0---0---0--|
--5---5---5--5---5---5--|--5---5---5--5---5---5--|--0---0---0--0---0---0--|
--5---5---5--5---5---5--|--5---5---5--5---5---5--|--0---0---0--0---0---0--|


------------------------|------------------------|------------------------|
-------------5---5---5--|------------------------|------------------------|
-------------4---4---4--|------------------------|------------------------|
--0---0---0--2---2---2--|--3---3---3--3---3---3--|--3---3---3--3---3---3--|
--0---0---0--2---2---2--|--3---3---3--3---3---3--|--3---3---3--3---3---3--|
--0---0---0--2---2---2--|--3---3---3--3---3---3--|--3---3---3--3---3---3--|


------------------------|------------------------|------------------------|
------------------------|------------------------|------------------------|
------------------------|------------------------|------------------------|
--7---7---7--7---7---7--|--7---7---7--3---3---3--|--5---5---5--5---5---5--|
--7---7---7--7---7---7--|--7---7---7--3---3---3--|--5---5---5--5---5---5--|
--7---7---7--7---7---7--|--7---7---7--3---3---3--|--5---5---5--5---5---5--|


------------------------|------------------------|------------------------|
------------------------|-------------3---3---3--|-------------5---5---5--|
------------------------|-------------2---2---2--|-------------4---4---4--|
--5---5---5--5---5---5--|--0---0---0--0---0---0--|--0---0---0--2---2---2--|
--5---5---5--5---5---5--|--0---0---0--0---0---0--|--0---0---0--2---2---2--|
--5---5---5--5---5---5--|--0---0---0--0---0---0--|--0---0---0--2---2---2--|


------------------------|------------------------|
------------------------|------------------------|
------------------------|------------------------|
--3---3---3--3---3---3--|--3---3---3--3---3---3--|
--3---3---3--3---3---3--|--3---3---3--3---3---3--|
--3---3---3--3---3---3--|--3---3---3--3---3---3--|


----------------------------------|----------------------------------|
----------------------------------|----------------------------------|
----------------------------------|----------------------------------|
----------------------------------|----------------------------------|
----------------------------------|----------------------------------|
--7-7-7-7-7-7-7-7-7-7-7-7-7-7-7-7-|--7-7-7-7-7-7-7-7-7-7-7-7-7-7-7-7-|



----------------------------------|----------------------------------|
----------------------------------|----------------------------------|
----------------------------------|----------------------------------|
----------------------------------|----------------------------------|
----------------------------------|----------------------------------|
--5-5-5-5-5-5-5-5-5-5-5-5-5-5-5-5-|--5-5-5-5-5-5-5-5-5-5-5-5-5-5-5-5-|

----------------------------------|
----------------------------------|
----------------------------------|
----------------------------------|
----------------------------------|
--3-3-3-3-3-3-3-3-3-3-3-3-3-3-3-3-|

---------------------------------------------|-------------------|
---------------------------------------------|-------------------|
---------------------------------------------|-------------------|
---------------------------------------------|-------------------|
----------------------------------------

Birth Of A Hero Tabs by Two Steps From Hell

 Birth of a Hero - Two Steps From Hell

: Kotonaruwind
 abandonedstrings

Tuning: standard


 (0:00 - 0:52)
e|---------------------------------------------------------------------------|
B|---------------------------------------------------------------------------|
G|--------12----15----14----10h12----12----10--------------------------------|
D|--10-------------------------------------------13----12----10--------------|
A|---------------------------------------------------------------------------|
E|---------------------------------------------------------------------------|

e|---------------------------------------------------------------------------|
B|---------------------------------------------------------------------------|
G|--------12----15----14----12-----------------------------------------------|
D|--10----------------------------10----13----12----8----10------------------|
A|---------------------------------------------------------------------------|
E|---------------------------------------------------------------------------|

 (0:52 - 1:06)
e|---------------------------------------------------------------------------|
B|------------------------------11-------------------------------------------|
G|--------12----8--10--12--8---------10--------------------------------------|
D|--10-----------------------------------8--13--12--8------------------------|
A|---------------------------------------------------------------------------|
E|---------------------------------------------------------------------------|

e|---------------------------------------------------------------------------|
B|-------------------------------11------------------------------------------|
G|--------12----8--10--12--8-----------8-------10----------------------------|
D|--10--------------------------------------8--------------------------------|
A|---------------------------------------------------------------------------|
E|---------------------------------------------------------------------------|

 (1:07 - 1:22)
e|---------------------------------------------------------------------------|
B|---------------------------------------------------------------11---13-----|
G|-------12--12-10---------15---------12--12-10--------12---10---------------|
D|--13----------------13--------13----------------13-------------------------|
A|---------------------------------------------------------------------------|
E|---------------------------------------------------------------------------|

 (1:23 - 1:37)
e|---------------------------------------------------------------------------|
B|---------------------------------------------------------------------------|
G|------------------------------------------------ 10-12--10-----------------|
D|--10--10-12-13-12-10--12-8--10-6----10--10-12-13------------12--10---------|
A|---------------------------------------------------------------------------|
E|---------------------------------------------------------------------------|

e|---------------------------------------------------------------------------|
B|---------------------------------------------------------------------------|
G|---------------------------------------------------------------------------|
D|--10--10-12-13-12-10--12-8--10-6----8--12--13-12--8--10--------------------|
A|---------------------------------------------------------------------------|
E|---------------------------------------------------------------------------|

 (1:37 - 1:52)
e|---------------------------------------------------------------------------|
B|---------------------------------------------------------------------------|
G|---------------------------------------------------------------------------|
D|--10-12-13--13-15-17-15-13--15-------15--15-17-18-17-15--17----------------|
A|-------------------------------13------------------------------------------|
E|----------

Heaven Is Hell chords – Saywecanfly

 http://www.saywecanfly.com/

SONG:   HEAVEN IS HELL
ARTIST: SAYWECANFLY
TAB BY: DON CZARSKI
EMAIL:  GUITARZAN7@HOTMAIL.COM

                   HEAVEN IS HELL
                    SAYWECANFLY

INTRO:   G D A Bm   - 4x's 

VERSE:
 G D A Bm 
 There's a wind blowing in my heart 
              G D A Bm 
And with my eyes I can not see my way out of the dark
         G D A Bm 
I am a wolf in my bare feet praying for a spark
            G D A                
And as I sleep, I feel the rain as it rips my throat apart


CHORUS:
         G D Bm 
And my paw prints are stained with blood
 A G D A 
I follow the moon knowing I can't trust the sun
 G Bm A 
I've been unfaithful, I've let these hands sink so low
 G Bm A 
If I'm an angel, why do these wings cut my throat?
 G Bm A G 
What beauty lies here, in this pile of broken bones?
 A Bm F#m G D Bm F#m G D 
 Without you I would never know


VERSE:
 G D A Bm 
There's an answer, somewhere in the sky
               G D A Bm 
But like the earth, I will accept that every flower grows and dies
             G D A Bm 
And if you just, look close enough you will see it in my eyes
        G D A               
That heaven's what I seek, but hell is what I find


CHORUS:
         G D Bm 
And my paw prints are stained with blood
 A G D A 
I follow the moon knowing I can't trust the sun
 G Bm A 
I've been unfaithful, I've let these hands sink so low
 G Bm A 
if I'm an angel, why do these wings cut my throat?
 G Bm A G 
What beauty lies here, in this pile of broken bones?
 A Bm A G F# 
 Without you I would never know


BREAK:
      Bm 
The cigarettes, the nicotine, the alcohol and crazy dreams
      A 
Are all the things that make me up to be so human
 G  
Never knowing what I want, just trying to love what I got
    A 
I don't know if I'm here or not, I might lose it


 Bm A G 
What the hell is it that you want from me? I'm losing everything
                      A Bm 
I'm just trying to breathe, I'm just trying to breathe
 Bm A G 
What is it that you want from me? I'm losing everything
                      A                            
I'm just trying to breathe, I'm just trying to breathe


CHORUS:
 G Bm A 
I've been unfaithful, I've let these hands sink so low
 G Bm A 
If I'm an angel, why do these wings cut my throat?
 G Bm A G 
What beauty lies here, in this pile of broken bones?
 A                            ( D )   
 Without you I would never know

Raising Hell Tabs by Bullet For My Valentine

 ----------------------------------------------------------------------------
                            Raising Hell
                        Bullet For My Valentine
----------------------------------------------------------------------------

I’ll be honest, I was a little scared that BFMV might have lost their mojo when 
Temper Temper came out. But “Raising Hell” puts my mind at ease (ok, not my best 
play-on-words). Enjoy!

Username: dkm817 (same on X box live)
Youtube Cover: https://www.youtube.com/watch?v=WeNqP04zfL0
Email: guitardrums@rockfan.com

Guitar 1 Rhythmic (D G C F A D)
Guitar 2 Lead     (D G C F A D)
Guitar 3 Lead     (D G C F A D)

NOTE: This was exported off of guitar pro.


Guitar 1

     W                   W                   W                 
D||-------------------|-------------------|-------------------|
A||-------------------|-------------------|-------------------|
F||-------------------|-------------------|--3----------------|
C||--2----------------|--L----------------|--2----------------|
G||--2----------------|--L----------------|--1----------------|
D||--0----------------|--L----------------|-------------------|


           PM PM PM PM PM                                          
  H        E  S  S  E  E     W                   W                 
--------------------------|-------------------|-------------------|
--------------------------|-------------------|-------------------|
--L-----------------------|-------------------|-------------------|
--L--------2--2--2--2--3--|--2----------------|--L----------------|
--L--------2--2--2--2--3--|--2----------------|--L----------------|
-----------0--0--0--2--3--|--0----------------|--L----------------|


  W                   W                 
-------------------|-------------------|
-------------------|-------------------|
--3----------------|--3----------------|
--2----------------|--2----------------|
--1----------------|--3----------------|
-------------------|-------------------|


      PM PM PM PM PM PM     PM PM PM PM PM PM  
  S S S  S  S  S  S  S  S S S  S  S  S  S  S   
----------------------------------------------|
----------------------------------------------|
----------------------------------------------|
----------------------------------------------|
----------------------------------------------|
--6-0-0--0--0--0--0--0--6-0-0--0--0--0--0--0--|


      PM PM PM PM PM PM                  
  S S S  S  S  S  S  S  S S S S S S S S  
----------------------------------------|
----------------------------------------|
----------------------------------------|
----------------------------------------|
----------------------------------------|
--6-0-0--0--0--0--0--0--6-0-5-0-3-0-5-0-|


      PM PM PM PM PM PM     PM PM PM PM PM PM  
  S S S  S  S  S  S  S  S S S  S  S  S  S  S   
----------------------------------------------|
----------------------------------------------|
----------------------------------------------|
----------------------------------------------|
----------------------------------------------|
--6-0-0--0--0--0--0--0--6-0-0--0--0--0--0--0--|


      PM PM PM PM PM PM                  
  S S S  S  S  S  S  S  S S S S S S S S  
----------------------------------------|
----------------------------------------|
----------------------------------------|
----------------------------------------|
----------------------------------------|
--6-0-0--0--0--0--0--0--6-0-5-0-3-0-5-0-|


      PM PM PM PM PM PM     PM PM PM PM PM PM  
  S S S  S  S  S  S  S  S S S  S  S  S  S  S   
----------------------------------------------|
----------------------------------------------|
----------------------------------------------|
----------------------------------------------|
----------------------------------------------|
--6-0-0--0--0--0--0--0--6-0-0--0--0--0--0--0--|


      PM PM PM PM PM PM                  
  S S S  S  S  S  

Hell On Earth chords – Big D And The Kids Table

 This is  so go easy on me
"Hell On Earth" by Big D and the Kids Table on the album Strictly Rude
Normal Chords are clean or on an aucustic, Power Chords are distorted
Standard Tuning

 D 
Let the damn cows moo
 G 
Let those stupid birds fly
 A 
Let the dog sit on the chair
 Em 
Let the cat she'd it's long hair
 D 
Let the goldfish swim outside
  
 D 
Let the smokers smoke
 G 
Let the politicians lie
 A 
Let grandma be a bitch
 Em 
Athletes be filthy rich
 D 
Let the stoners get high

 D 
Let's make life a living hell
 G 
Let's make life a living hell
 A 
Let's take everything we know
 Em 
Toss it right out the window
 D 
Let's make life a living hell

 D5 
Let the homophobes be scared
 G5 
Let the gays adopt with care
 A5 
Republicans steal the dough
 E5 
Democrats complain more
 D5 
Let the system let us down

 D5 
Let Charlton Heston have his gun
 G5 
Let somebody shoot him just for fun
 A5 
Pro-life be carnivores
 E5 
Pro-choice be whores
 D5 
Let's never help the bums

 D5 
Let's make life a living hell
 G5 
Let's make life a living hell
 A5 
Let's take everything we know
 E5 
Toss it right out the window
 D5 
Let's make life a living hell

 D5 
Let the acid rain fall
 G5 
Let's not recycle at all
 A5 
We know what we should do
 E5 
But I don't care and you don't too
 D5 
Let the earth decay and die

 D5 
Let religion kill more
 G5 
Let nonbelievers be tortured
 A5 
Let the tyrants kill
 E5 
Let the soldiers double kill
 D5 
Let's all kill kill kill kill kill

             G5 (10th fret)
Humanity
             F5 (9th fret)
Fueled my fear and greed
              E5 
Cultivate and kill
              D5 
Is our great legacy
             G5 (10th fret)
So much death to undo
             F5 (9th fret)
But here's a fucking clue
              E5 
If we can build a bomb
              D5 
Can't we build heaven too?

 D5 
Nah, let's make life a living hell
 G5 
Let's make life a living hell
 A5 
Let's take everything we know
 E5 
Toss it right out the window
 D5 
Let's make life a living hell

 D5 
Let's make life a living hell
 G5 
Let's make life a living hell
 A5 
Let's take everything we know
 E5 
Toss it right out the window
 D5 
Let's make life a living hell

 D 
So let the damn cows moo
 G 
Let the children get abused
 A 
Let the goldfish swim outside
 E5 
Steal from the old and watch 'em die
 D 
Lets make life a living hell, ah!

Misc Metal Riff intro Tabs

 -------------------------------------------------------------------------------
                             Misc. Metal Riff
-------------------------------------------------------------------------------
Tabbed by: Andrew

Email: Andrew26nol@gmail.com

Tuning: Drop C

Just some random metal riff I started playing. Sounded pretty cool.
It would be sick as hell if you guys out there want to just add on or somthing and as a 
metal guitarist we
create a collab of just a bunch of sweet tabs we put together, so if you got anything to 
add that you can come
up with email it to me and then post it on UG.

d|---------------------------------------------------------------------------|
A|---------------------------------------------------------------------------|
F|---------------------------------------------------------------------------|
C|---------------------------------------------------------------------------|
G|--8-7--10-8-(7)7h8p7---8-7--10-8-(7)7h8p7----------------------------------|
C|00-0-00--0-0---------00-0-00--0-0------------------------------------------|
  ** * **  * * *       ** * **  * * *
d|---------------------------------------------------------------------------|
A|---------------------------------------------------------------------------|
F|---------------------------------------------------------------------------|
C|-------------------------------------7h10p7--------------------------------|
G|--10-7--8-7-(7)7h8p7-----10--10------------7h10p7--------------------------|
C|88--8-88-8-8---------1010--10--101077--------------------------------------|
  **  * ** * * *       * *   *   * * **

***Those are 10's, not 1's and 0's***

************************************

| /   slide up
| \   slide down
| h   hammer-on
| p   pull-off
| ~   vibrato
| *   Palm Mute
|(n)  Optional Note

************************************

Photograph Chords – Nickelback V8

 First tab. Guitarist for 13 yrs. Album is 1/2 step down standard. All chords open strumming.

E5 on 2nd string, 7th fret, 
B5 on 1st string, 7th fret, 
D5 on 1st string, 10th fret,
A5 on 1st string, 5th fret

[Verse 1] 

 E5 B5 
Look at this photograph, every time I do it makes me laugh.
 D5 A5  
How did our eyes get so red, and what the hell is on Joey's head?
 E5 B5 
And this is where I grew up, I think the present owner fixed it up.
 D5 A5 
I never knew we ever went without, the second floor is hard for sneakin' out.
 E5 B5 
And this is where I went to school, most of the time, had better things to do.
 D5 A5  
Criminal record says I broke in twice, I must have done it half a dozen times.
 E5 B5 
I wonder if it's too late, should I go back and try to graduate?
 D5 A5 G5    
Life's better than it was back then, if I was them I wouldn't let me in
                    A5 
Oh, whoa whoa, oh god I, I... 

[Chorus]

  E5 B5 
Every memory of looking out the back door, I have a photo album spread out on my bedroom floor.
 D5 A5 
It's hard to say it, time to say it, good-bye, good-bye. 
          E5 B5 
Every memory of walking out the front door. I found the photo of a friend I was looking for. 
       D5 A5                   
It's hard to say it, time to say it. Good-bye, good-bye.
 E5 ,  B5 ,  G5 ,  A5 
                 Good-bye.

[Verse 2]

 E5 B5 
Remember the old arcade? Blew every dollar that we ever made.
 D5 A5  
The cops hated us hangin' out, they say somebody went and burned it down.
 E5 B5 
We used to listen to the radio, and sing along with every song we know.
 D5 A5 
We said someday we'd find out how it feels, to sing to more than just the steering wheel.
 E5 B5 
Kim's the first girl I kissed, I was so nervous that I nearly missed.
 D5 A5  
She had a couple of kids since then, I haven't seen her since god knows when.
 G5 A5 
Oh, whoa whoa, oh god I, I... 

[Chorus]

           E5 B5 
Every memory of looking out the back door, I have a photo album spread out on my bedroom floor.
 D5 A5 
It's hard to say it, time to say it, good-bye, good-bye. 
          E5 B5 
Every memory of walking out the front door. I found the photo of a friend I was looking for. 
       D5 A5 C ,    D 
It's hard to say it, time to say it. Good-bye, good-bye.

[Bridge]

 E5 B5 G 
I miss that town, I miss their faces. 
                     E5 
You can't erase, you can't replace it. 
 E5 B5 
I miss it now, I can't believe it
 G A 
So hard to stay, too hard to leave it
 E5 B5 
If I could relive those days, I know the one thing that will never change

[Chorus]

           E5 B5 
Every memory of looking out the back door, I have a photo album spread out on my bedroom floor.
 D5 A5 
It's hard to say it, time to say it, good-bye, good-bye. 
          E5 B5 
Every memory of walking out the front door. I found the photo of a friend I was looking for. 
       D5 A5                                     
It's hard to say it, time to say it. Good-by