Tag: help

Sgt Rock Is Going To Help Me Tabs – Xtc

 -------------------------------------------------------------------------------------------
                             SGT. ROCK (IS GOING TO HELP ME) - XTC 
                       (tab for the guitar part on the 2nd and 3rd chorus)
-------------------------------------------------------------------------------------------
: Jordan Yeates
 jordanyeates@hotmail.co.uk

Tuning: standard E

e|-----------------------------------------------------------------------------------------|
B|-13-15-17-15-13-------18-------13-15-16-15-16----13-15-16-15-16--------------------------|
G|----------------16-15--------------------------------------------------------------------|
D|----------------------------------------------------------------------X2-----------------|
A|-(sgt-rock-is-~-to help-me!)-(make-~-girl-mine)-(keep-her~in-line)---(X4 on last chorus)-|
E|-----------------------------------------------------------------------------------------|

e|-----------------------------------------------------------------------------------------|
B|--13-15-16-15-16----13-15-16-15-16-18-16-------------------------------------------------|
G|-----------------------------------------------------------------------------------------|
D|-----------------------------------------------------------------------------------------|
A|-(make~girl-mine)--(WAVE-THE-VICTORY-SIGN!)----------------------------------------------|
E|-----------------------------------------------------------------------------------------|

************************************

I Cant Help Falling In Love chords – Leatherface

 Chords are 
 A E F#maj D A E 
Wise man say only fools rush in
     D E F#maj D A E A 
But I can't help falling in love with you
 A E F#maj D A E 
Shall I stay would it be  a  sin
    D E F#maj D A E A 
If I can't help falling in love with you


Bridge:
 C#m F#m G#m C#m F#m G#m         
Like a river flows, surely to the sea
 C#m F#m G#m C#m                    B-E
Darling so it goes, some things are meant to be

long live SAMCRO.

Help Me Get Over chords – Jonalyn Viray V2

 Intro:   A    –   B    –   G#m    -   C#m A    –   E    -   D    -   F#m   

Verse 1:
  E    -   F#m G#m C#m   
I know that this wound will bleed again
              A B E A   -  B   
Now I’m here right beside the one I love
  E    -   F#m G#m C#m   
I see he’s in love with someone else
        A B E Esus   -  E   
Now I know I just got to let him go
                F#m A   -  B   
Because it’s over, Help me get over

Chorus:
            E F#m   
I don’t know what to do
                   G#m A   
There is no easy way of letting go
          E F#m   
But I know there’s no sense
             G#m A B   
In holding on too much to something fading
  C#m C#m/C B B/Bb   
Help me,    Help me
       A B E   
Help me get over you

Verse 2:
 E F#m G#m C#m 
Now I see, You’re so happy with her
 B A B E A - B 
Deep inside I just don’t know what to feel
 E F#m G#m C#m       
Oh, I’m sure, You don’t need me anymore
    B A B E 
So I’ll go on, Try my best to just move on
               F#m A - B 
Now that it’s over, I got to get over

(Repeat Chorus)

Bridge:
  C#m    -   B A E B   
I know I’ve got to leave it all behind
  C#m    -   B A E   
Somehow I’ll try to get you off my mind
      F#m      
So tell me what to do
  C D D           
Help me get over…

            G Am   
I don’t know what to do
                   Bm C D   
There is no easy way of letting go
            G Am   
But I know there’s no sense
             Bm C D   
In holding on too much to something fading
  Em Em/Eb D D/C#   
Help me,    Help me
  C D Em Em/Eb D D   / C# 
Help me get over you
  C D         
Help me get over you
 C  -  D  -  Bm  -  Em  -  C  -  G  -  F  -  D  -  G

Help Me Girl chords – Outsiders

 Help Me Girl:The Outsiders.
#37 on BB Hot 100 on CAPITOL Records 
in 1966.

INTRO:  Cm Ab G  (x2)

#1.
 Cm Ab 
Girl, have you ever been hungry, so hungry that 
     G       
you had no pride?
 Cm Ab 
Well, I got that feeling..that biting, gnawing 
 G 
deep inside.
 C F C F 
It's a funny pain..one I can't explain.
           Bb Ab Bb Ab 
You gotta help me, girl....oh, help me girl....cause 
 F7 C F7 
IIIII'm going insane..hey, hey!


INTERLUDE:  Cm7 G7 Gm7 Ab G 

#2.
 Cm Ab 
I know about all the good things and what that long 
       G 
green stuff can buy.
 Cm Ab 
Right or wrong it's a groove, girl, yet somehow I'm 
     G 
not satisfied.
 C F C F 
You gotta show me the way..turn my night into day.
     Bb Ab Bb Ab 
Oh, help me girl.....oh, help me, girl......cause 
 F7 C F7 
IIIIII'm going insane!

BRIDGE:
 F Fm Dm7 Cm 
Oh, I need someone..someone to comfort me..be my someone..
 Ab Gm7 
be my reality, girl.


INTERLUDE:  G Cm Ab G Cm Ab G 

#3.
 C F C F 
You gotta show me the way..and turn my night into day.
     Bb Ab Bb Ab F7 
Oh, help me, girl.....oh, help me, girl......cause IIIII'm 
 C F7 
going insane!..hey!


OUTRO:
 Cm Eb Ab 
Help me, baby..help me, girl..come on into my nights.
                         G Cm 
Come on..turn them into day..I said, help me, baby..
                Eb Ab 
Help me, girl, come on into my days..come on, turn 'em
  Dm7 
away.
         Cm Eb 
I said, help me, baby..help me, girl..come on turn away the 
 Ab G Cm 
nights..come on..help me, baby, hey, come on, help me girl..(Fade.)


A sixties smash from Kraziekhat.

Cant Help chords – Parachute V2

 Capo 3
Intro:  Am C G D G Am C 
(Whoa-oh-oah,
        G D G 
Whoa-oh-oah)

Verse 1:
 Am C 
Well I tried to fake it,
                 G 
Baby I tried to break it,
                          D                 
But that's some kind of spell you got over me.
 Am C 
You're a heavenly vision,
                   G 
Gonna make it my mission,
                D 
Do whatever it takes to get you with me.


Pre-Chorus:
 Am 
Everywhere I go,
 C 
Yeah, no one else I know,
 G D 
Shines as bright as you in my telescope.
 Am 
I tried to let it fade,
 C 
But I can't get away,
 G 
I really hope you're listening,
                 D 
'Cause I never thought I would say-ay-ay.


Chorus:
 Am C 
I can't help myself
                  G 
From falling in love,
                  D 
From falling in love
      G 
With you yeah-yea
 Am C 
I can't help myself,
                  G 
From taking the drug,
                  D 
From taking the drug
      G 
It's you, yeah-yea.
 Am 
It happens every time,
 C 
Can't get you off my mind,
 G D  (mute)
And anybody else,

Better wait in line.
 Am C 
I can't help myself,
                  G 
From falling in love,
                  D 
From falling in love
      G 
With you yeah-yea.


Verse 2:
 Am C 
Every time you come calling,
                      G 
Didn't think I'd be falling,
                       D 
Never thought It'd be you I would always need.
 Am C 
Love was something to run from,
                  G 
I was always the last one,
               D 
That everyone thought would be in this dream.



Pre-Chorus:
 Am 
Everywhere I go,
 C 
Yeah, no one else I know,
 G D 
Shines as bright as you in my telescope.
 Am 
I tried to let it fade,
 C 
But I can't get away,
 G 
I really hope you're listening,
                 D 
'Cause I never thought I would say-ay-ay.



Chorus:
 Am C 
I can't help myself
                  G 
From falling in love,
                  D 
From falling in love
      G 
With you yeah-yea
 Am C 
I can't help myself,
                  G 
From taking the drug,
                  D 
From taking the drug
      G 
It's you, yeah-yea.
 Am 
It happens every time,
 C 
Can't get you off my mind,
 G D 
And anybody else,
        G 
Better wait in line.
 Am C 
I can't help myself,
                  G 
From falling in love,
                  D 
From falling in love
      G 
With you yeah-yea.


Bridge:
 G Am 
They told me "Son, you'll be addicted."
 G Am 
You stole a kiss,

And now I see it.
 G 
You're in my veins,
 Am 
And I can feel it,
 D F E 
Taking over me- E - E .



Chorus:
 Am C 
I can't help myself
                  G 
From falli

Please Help Me Im Falling chords – Everly Brothers

 #-------------------------------PLEASE NOTE-------------------------------------#
# This file is the author's own work and represents their interpretation of the #
# song. You may only use this file for private study, scholarship, or research. #
#-------------------------------------------------------------------------------#
Please Help Me I m Falling chords
The Everly Brothers  (1960 Robertson / Blair first recorded by Hank Locklin)

 E A E E A E 
Please help me I'm falling
    A E 
In love with you
                       A E 
Close the door to temptation
 F# B7 
Don't let me walk through

 E A E 
Turn away from me darling
                 A 
I'm begging you to
                    E 
Please help me I'm falling
 B7 E 
In love with you

 E A E 
I belong to another
       A E 
Whose arms have grown cold
                   A E 
But I promised forever
 F# B7 
To have and to hold

 E A E 
I can never be free dear
               A 
But when I'm with you
                 E 
I know that I'm losing
 B7 E 
The strength to be true

 E A E 
Please help me I'm falling
     A E 
And that would be sin
                       A E 
Close the door to temptation
 F# B7 
Don't let me walk in

 E A E 
For I mustn't want you
               A 
But darling I do
                    E 
Please help me I'm falling
 B7 E 
In love with you


Set8

Help Me Out chords – Jacco Gardner

 Jacco Gardner - Help Me Out

INTRO

 D#m G#  2x
 C#m Bm F# F#7  

VERSE 1
 D#m G# 
I can see quite clearly
 C#m Bm F# 
But in my mind, time is catching up on me

 F#m B 
Time passes by quite quickly
 Em A# A 
Still I wait, in the highest tree

CHORUS
 D#m G# 
I need all the light that's hidden
 D#m G# 
Right behind the veil of winter
 C#m Bm F# 
Help me out and make it disappear

 F#7 

VERSE 2
 D#m G# 
I need another curtain
 C#m Bm F# 
Just to make me feel alright alone
 F#m B 
Let the sunlight find me
 Em A# A 
Just before I turn into stone

play chorus 2x, first time play A# instead of F#

BRIDGE

 D# E B A C#m F# 

play chorus 2x, first time play A# instead of F#

Cant Help Falling In Love chords – Elvis Presley

 
Cant Help Falling in Love
Elvis Presley


Capo on 2
FFF = strum down 3 times
Classic song, enjoy:)


   C Em Am F C G                    
Wise   men   say    only    fools     rush    in. 



         F G Am          FFF          C G C 
But     I      cant   help     falling in    love    with   you.



   C Em Am F C G 
Shall    I       stay      would   it    be    a   sin. 



      
         F G Am              FFF        C G C 
If      I        cant      help       falling in    love    with    you.



 Em B7 Em B7  
   Like   a   river   flows          surely   to    the   sea.


  Em B7 
     Darling     so    it    goes.


           A7 Dm G 
Some    things   are   meant   to   b    e.



  C Em Am F C G 
Take   my   hand.   Take   my    whole   life   too.



       F G Am        FFF          C G C 
For   I   cant    help     falling in   love   with   you.



 Em B7 Em B7  
   Like   a   river   flows           surely   to    the   sea.



  Em B7 
     Darling     so    it    goes.



           A7 Dm G 
Some    things   are   meant   to   b    e.



  C Em Am F C G 
Take   my   hand.   Take   my    whole   life   too.



       F G Am        FFF         C G C 
For   I   cant   help   falling in   love   with   you.

For   I   cant   help   falling in   love   with   you.

Heaven Help Us Tabs by My Chemical Romance V5

 Artist: My Chemical Romance 
Song: Heaven Help Us
 The Black Parade 

. Go easy on me!

Guitar 1
e|--------------------------------------------------------------------------|
B|------------------------------3---3---3---3-------------------------------|
G|--5---5---5---5---4---4---4--2-2-2-2-2-2-2-2--5---5---5---5---------------|
D|-7-7-7-7-7-7-7-7-6-6-6-6-6-60---0-------0----5-5-5-5-5-5-5-5--------------|
A|0---0---0---0-----------------------0-------3---3-------------------------|
E|----------------0---0---0---------------------------3---4-----------------|
PM............................................................
Guitar 1
e|--------------------------------------------------------------------------|
B|------------------------------3---3---3---3-------------------------------|
G|--5---5---5---5---4---4---4--2-2-2-2-2-2-2-2--5---5---5---5---------------|
D|-7-7-7-7-7-7-7-7-6-6-6-6-6-60---0-------0----5-5-5-5-5-5-5-5--------------|
A|0---0---0---0-----------------------0-------3---3-------------------------|
E|----------------0---0---0---------------------------3---4-----------------|
PM............................................................
Guitar 2
e|--------------------------------------------------------------------------|
B|--------------------------------------------------------------------------|
G|--------------------------------77777777777777775555555555555555----------|
D|7777777777777777222222222222222277777777777777775555555555555555----------|
A|77777777777777772222222222222222555555550000555533333333------------------|
E|55555555555555550000000000000000------------------------33334444----------|
PM................................................................

Guitar 1
e|--------------------------------------------------------------------------|
B|------------------------------3---3---3---3-------------------------------|
G|--5---5---5---5---4---4---4--2-2-2-2-2-2-2-2--5---5---5---5---------------|
D|-7-7-7-7-7-7-7-7-6-6-6-6-6-60---0-------0----5-5-5-5-5-5-5-5--------------|
A|0---0---0---0-----------------------0-------3---3-------------------------|
E|----------------0---0---0---------------------------3---4-----------------|
PM............................................................
Guitar 2
e|--------------------------------------------------------------------------|
B|--------------------------------------------------------------------------|
G|--------------------------------77777777777777775555555555555555----------|
D|7777777777777777222222222222222277777777777777775555555555555555----------|
A|77777777777777772222222222222222555555550000555533333333------------------|
E|55555555555555550000000000000000------------------------33334444----------|
PM................................................................
Guitar 1
e|--------------------------------------------------------------------------|
B|------------------------------3---3---3---3-------------------------------|
G|--5---5---5---5---4---4---4--2-2-2-2-2-2-2-2--5---5---5---5---------------|
D|-7-7-7-7-7-7-7-7-6-6-6-6-6-60---0-------0----5-5-5-5-5-5-5-5--------------|
A|0---0---0---0-----------------------0-------3---3-------------------------|
E|----------------0---0---0---------------------------3---4-----------------|
PM....................................................
Guitar 2
e|--------------------------------------------------------------------------|
B|--------------------------------------------------------------------------|
G|--------------------------------77777777777777775555555555555555----------|
D|7777777777777777222222222222222277777777777777775555555555555555----------|
A|77777777777777772222222222222222555555550000555533333333------------------|
E|55555555555555550000000000000000------------------------33334444----------|
PM........................................................


Both Guitars
e|------------------

Mister Would You Please Help My Pony chords – Ween

 [intro riff]
|----------------------------------------|
|-4-4-4-4--------------------------------|
|-4-4-4-4--------------------------------|
|-4-4-4-4--------7----7-9-7--------------|
|-2-2-2-2----7-9---9--------9-7-9-7------|
|-----------------------------------9-7--|

[verse one]
 E D#m 
Mister, would you please help my pony?
      D C#m 
He's over there behind the tree
      A G#m 
He's down in the dirt would you help him?
[w/intro riff]
I think it's his lung

[verse two]
 E D#m 
Mister, would you please help my pony?
      D C#m 
He's chewin' bar and not the leaves
      A G#m 
He's cryin' like a baby would you help him?
[w/intro riff]
I think it's his lung


[verse three]
 E D#m 
Mister, would you please help my pony?
      D C#m 
He's down - He ain't gettin' up
    A G#m 
He coughed up snot on the driveway
[w/intro riff]
And I think his lung's fucked up


[bridge]
 F#m E F#m E F#m  
Pon - y,  pon - y,  pony

 D C#m A C# D F#m B D C#m A C# D F#m B 

[solo]
 E D#m D C#m A G#m B E D#m D C#m A G#m B B B C C# 


[verse four]
 E D#m 
Mister, would you please help my pony?
      D C#m 
He's over there lookin' at me
    A G#m 
He can't talk because he's a pony
[w/intro riff]
I think it's his lung

[repeat verse one:end abruptly on lung]

I Cant Help Feeling chords – Brudadoug

 Artist: Brudadoug
Song: I Can't hapl Feeling ( A Little Like Job)

 : Norman Heinl Jr.

intro:  Bm A2  [2X]

CHORUS:
   Bm Bm 
i can't-help-felli'n a- little like Job, but
      A2 Bm 
i've still got my family, it's only affecti'n me [repeat]

verse 1
 Bm Bm 
my friends keep askin'- "what 'id you do?
   Bm Bm  
i tell 'em- "step in my shoe"
 Bm Bm 
-"if you only knew!"             {REPEAT VERSE} then:

pre-chorus:
           A2 A2 
i've got- sixteen staples in my he-ad, and
 D C#m 
unda the bridge,MAN, i lay in a dirt bed
 A2 A2 
eight fuckin-stitches in my ha-nds
         D C#m 
askin' 'what'id I do God, i dont understand

[chorus]

verse 2:
 Bm Bm 
the Lord show'd up in- the rear view mir'r
 Bm Bm 
he said- "man don't you fear
 Bm Bm A2 Bm 
'cause-I'm always here"              [REPEAT]

(prechorus)
(chorus) 
(bass solo)
ukulele solo???? I won't even try
chorus