Tag: here

Mamma Mia Here We Go Again – My Love My Life chords by Misc Soundtrack

ouldn't find the version from Mamma Mia 2: Here We Go Again with the changed words so thought I'd add it :)



[Intro]

Cb5 - C

[Verse 1: Lily James]

C                     G    G7
I’ve never felt this strong
C         F           C        D7   G
I’m invincible, how could this go wrong?
E7  Am  D7                 G    Em
No, here, here’s where we belong
 Am      D7     G    Em
I see a road ahead
 Am     Am7          Dsus4  D     G   G7   G6
I never thought I would dare to tread


[Chorus: Meryl Streep]

                      G       G7       C
Like an image passing by, my love, my life
        F      D7       G         G7       C
In the mirror  of  your eyes, my love, my life
       C              D7
I can see it all so clearly
              G      Em
All I love so dearly
Am     Am7   D7      G
Images passing by

        G7                G         G7      C
Like reflections of your mind, my love, my life
         F        D7       G        G7       C
Are the words I try to find, my love, my life
        C              F
But I know I don't possess you
   G              C
With all my heart, God bless you
                  F       E     Am
You will be my love and my life
  F              C
You’re my one and only


[Verse 2: Meryl Streep]

C                     G    G7
I held you close to me
C         F            C     D7           G
Felt your heart beat and I thought: I am free
E7  Am  D7                 G    Em
Oh yes, and as one are we
 Am      D7     G    Em
In the now and beyond
Am     Am7          Dsus4  D       G   G7   G6
Nothing and no one can break this bond


[Chorus: Meryl Streep & Amanda Seyfried]

                      G       G7       C
Like an image passing by, my love, my life
        F      D7       G         G7       C
In the mirror  of  your eyes, my love, my life
       C              D7
I can see it all so clearly
              G      Em
All I love so dearly
Am     Am7   D7      G
Images passing by

        G7                G         G7      C
Like reflections of your mind, my love, my life
         F        D7       G        G7       C
Are the words I try to find, my love, my life
        C              F
But I know I don't possess you
   G              C
With all my heart, God bless you
                  F       E     Am
You are still my love and my life

        C              F
Yes I know I don't possess you
   G              C
With all my heart, God bless you
                  F       E     Am
You are still my love and my life
  F              C
You’re my one and only

Wish You Were Here guitar chords by Pink Floyd

[Intro]
Em7  G  Em7  G  Em7  A7sus4  Em7  A7sus4  G       x2

[Verse 1]
C                         D/F#
So, so you think you can tell,
             Am/E                   G
Heaven from Hell, blue skies from pain.
                     D/F#                      C                    Am
Can you tell a green field from a cold steel rail, a smile from a veil,
                      G
Do you think you can tell?

[Verse 2]
                      C                   D/F#
Did they get you to trade your heroes for ghosts,
                Am/E                  G                             D/F#
Hot ashes for trees, hot air for a cool breeze, cold comfort for change,
                  C                        Am                         G
And did you exchange a walk on part in the war for a lead role in a cage?

[Instrumental]
Em7  G  Em7  G  Em7  A7sus4  Em7  A7sus4  G

[Verse 3]
C                               D/F#
How I wish, how I wish you were here.
           Am/E                                    G                D/F#
We're just two lost souls swimming in a fish bowl, year after year,
                                  C
Running over the same old ground. What have we found?
             Am                         G
The same old fears. Wish you were here!

[Instrumental]
Em7  G  Em7  G  Em7  A7sus4  Em7  A7sus4  G

Hearts Dont Break Around Here Piano Chords by Ed Sheeran

[Verse 1]
G                               D
  She is the sweetest thing that I know
Em                       C                             G
  Should see the way she holds me when the lights go low
                        D              Em      C
  Shakes my soul like a pothole every time
G                      D         Em
  Took my heart upon a one way trip
                 C                  G
  Guess she went wandering off with it
                        D
  None like most women I know
Em               C
  This one will bring it back whole


[Pre-Chorus]
C         G       D                 Em
Daisies, daisies perched upon your forehead
       C     G       D
Oh my baby, lately I know


[Chorus]
            G                           D         Em
That every night I’ll kiss you, you’ll say in my ear
             C            G
Oh we’re in love, aren’t we?
               D   Em
Hands in your hair
             C        G
Fingers and thumbs, baby
                        D          Em
I feel safe when you’re holding me near
          C                        G
Love the way that you conquer your fear
                        D           C
You know hearts don’t break around here
               G   D     Em
Oh yeah, yeah, yeah
C                  G  D    Em    C
Yeah-yeah, yeah-yeah


[Verse 2]
G                           D
  She is the river flowin’ Orwell
Em              C
  And tin wind chimes used for doorbells
G                      D    Em                 C
  Fields and trees and her smell fill my lungs
G                       D
  Spend my summertime beside her
Em                    C
  And the rest of the year the same
G                               D
  She is the flint that sparks the lighter
Em                        C
  And the fuel that will hold the flame, oh


[Pre-Chorus]
C       G     D             Em
Roses, roses laid upon your bed spread, oh my
C         G        D
All this, all this I know


[Chorus]
            G                           D         Em
That every night I’ll kiss you, you’ll say in my ear
             C            G
Oh we’re in love, aren’t we?
               D   Em
Hands in your hair
             C        G
Fingers and thumbs, baby
                        D          Em
I feel safe when you’re holding me near
          C                        G
Love the way that you conquer your fear
          Em            D           C
You know hearts don’t break around here

Oh yeah, yeah, yeah



[Bridge]
C                   G     D
  Well, I’ve found love inside
       Em         D        C       
  The arms of the woman I know
C             G                 D
  She is the lighthouse in the night
            Em      D        C
  That will safely guide me home
C              G                D
  And I’m not scared of passing over
         Em         D        C  
  Or the thought of growing old
                          D
  ‘Cause from now until I go


[Chorus]
            G                           D         Em
That every night I’ll kiss you, you’ll say in my ear
             C    D      G
Oh we’re in love, aren’t we?
               D   Em
Hands in your hair
             C      D G
Fingers and thumbs, baby
                        D          Em
I feel safe when you’re holding me near
          C                        G
Love the way that you conquer your fear
         Em             D           C
You know hearts don’t break around here, oh yeah, yeah

            G                           D         Em
That every night I’ll kiss you, you’ll say in my ear
             C    D       G
Oh we’re in love, aren’t we?
               D   Em
Hands in your hair
             C      D  G
Fingers and thumbs, baby
                        D          Em
I feel safe when you’re holding me near
          C                        G
Love the way that you conquer your fear
         Em             D           C                    Em
You know hearts don’t break around here, oh yeah, yeah, yeah
         Em             D           C                    G
You know hearts don’t break around here, oh yeah, yeah, yeah

Here We Go Again chords – George Strait

 G7 C F 
Here we go again she's back in town again

               G7 C 
I'll take her back again one more time

 G7 C F 
Here we go again the phone will ring again

             G7 C C7 
I'll be her fool again one more time


 F C 
I've been there before and I'll try it again

 D7 G7 
But any fool knows that there's no way to win

         C F 
Here we go again she'll break my heart again

               G7 C 
I'll play the part again one more time


 F C 
I've been there before and I'll try it again

 D7 G7 
But any fool knows that there's no way to win

         C F 
Here we go again she'll break my heart again

               G7 C 
I'll play the part again one more time

 
               G7 C 
I'll take her back again just one more time

Here For You chords – Firehouse Vsion 2

 Artist: Firehouse
Title: Here For You
 3 (1995)

Key: F# major
Tempo: 92 BPM
Tuning: Half step down
: Ras Loyola

 * * * * * * * * * * * * * * * * * * * *

Chords:

Am: x02210
Am7: x02010
Bm: x24432
Bm#5: x20003
D: xx0232
Dsus2: xx0230
Dsus4: xx0233
Em: 022000
G: 320003

Lick 1:
G:|- - - - - - - - 0 - - - - - - - - - -
D:|- - - 0h2 - - - - - - - 0 - - - - - -
A:|- - - - - - - - - - - - - - - - 0h2 -
E:|- - - - - - - - - - - - - - - - - - -
 
Lick 2:
e:|- - - - - - - - - - - - - - - -
B:|- - - 3 - - - - - - 1 - - - 0 -
G:|- - - - - - - - - - - - - - - -

Lick 3:
D:|- - - - - - - - - - - - - - - - - - - - - - - - - 0 - - - - - -
A:|- - - 0h2 - - - 0 - - - - - - - - - - - - - - - - - - - - - - -
E:|- - - - - - - - - - - - 3 - - - 2h3 - - - 0 - - - - - - - 0h2 -

(Alternately, for standard tuned guitars, transpose -1 then add a capo on 1st)
(You can also play an Am7 instead of an Am on the picking parts)

 * * * * * * * * * * * * * * * * * * * *

INTRODUCTION: (Picked)
[Lick 1]  G Am  Bm#5  G  -  C D G  (x2)


VERSE: (Picked)
        G Am      Bm#5  G 
So you think you've got it all figured out?
          C D G 
Well you know you can't make it alone
          G Am       Bm#5  G 
Everbody needs somebody to help them out
         C D G 
And you know I could be that someone


PRE-CHORUS: (Strummed)
                     Em 
And if you ever get lost on life's highway
            Bm 
Don't know where to go
 C Dsus4 D Dsus2 D 
There's just one thing that I want you to know


CHORUS:
 C D G  [L2]  C D G  [L2]
I am here for you,   always here for you
                 Em Bm 
When you need a shoulder to cry on
     C G C D 
Someone to rely on, I am here for you

(Short Instrumental)
 G Am  Bm#5  G  -  C D G 


VERSE:
        G Am       Bm#5  G 
So you think that love is long overdue
          C D G 
Tired of looking for someone to care
                 G Am        Bm#5  G 
Let me tell you now the choice is up to you
         C D G 
But you know I will always be there


CHORUS:
 C D G  [L2]     C D G  [L2]
I am here for you, woah always here for you
                 Em Bm 
When you needed someone to hold you
   C G C D Em 
Remember I told you, I am here for you
 C D G 
I am here for you


SOLO:
 Em Bm C  -  Dsus4 D Dsus2 D 
Em Bm C - [Sustain D then do L3]


VERSE: (Picked)
    G Am      Bm#5  G 
So now you've got it all figured out
         C D G 
And you know you've found someone that cares
                 G Am      Bm#5  G 
And if you ever need somebody to help you out
          C D G 
Well you know I will always be there


PRE-CHORUS: (Strummed)
                     Em 
And if you ever get lost on life's highway
            Bm 
Don't know where to go
 C Dsus4 D Dsus2 D 
There's 

She Was Here For A Rocknroll Tabs – Peer Günt

 notation legend:      

/   - slide up
\   - slide down
b   - bend
po  - pull off

Intro:
                                       8x
E |---||--------------------------------||
B |---||--------------------------------||
G#|---||.------------------------------.||
E |---||.-0----0-----0-------------3---.||
B |-5\||-------------------0--2/3-------||
E |-5\||-----3---0-3---0-3--------------||


Verse1:
                                   7X
E ||--------------------------------||-----------------|
B ||--------------------------------||-----------------|
G#||.------------------------------.||-----------------|
E ||.-0----0-----0-------------3---.||-0-----0-----0---|
B ||-------------------0--2/3-------||-----------------|
E ||-----3---0-3---0-3--------------||-----3---0-3-----|


Bridge1:

E |-------------------||--------------------------------||
B |---------5---------||--------------------------------||
G#|-/5---/5---5-------||.------------------------------.||
E |-/5--------5-------||.-0----0-----0-------------3---.||
B |-------------------||-------------------0--2/3-------||
E |-------------------||-----3---0-3---0-3--------------||

E |-------------------||--------------------------------||
B |---------5---------||--------------------------------||
G#|-/5---/5---5-------||.------------------------------.||
E |-/5--------5-------||.-0----0-----0-------------3---.||
B |-------------------||-------------------0--2/3-------||
E |-------------------||-----3---0-3---0-3--------------||

E |-------------|-----------------|------|-------------|
B |-/7-----7----|--/10------10----|--3---|--5-5---7-7--|
G#|-/7--/7------|--/10--/10-------|--3---|--5-5---7-7--|
E |-/7----------|--/10------------|--3---|--5-5---7-7--|
B |-------------|-----------------|------|-------------|
E |-------------|-----------------|------|-------------|


Break:

E |----------------------|
B |----------------------|
G#|----------------------|
E |-3-2-0----------------|
B |-------2--0-----------|
E |-------------3-2-0----|


Verse2: same as verse1

Bridge2: same as bridge2


Chorus1:

E ||--------------------|---------------||
B ||--/10-------10------|-/5------5-----||
G#||.-/10---/10---------|-/5---/5------.||
E ||.-/10----------10---|-/5--------5--.||
B ||--------------------|---------------||
E ||--------------------|---------------||

E |-----------------|------------|-------|
B |-/12---12--------|-10----8----|--5----|
G#|-/12-------12----|-10----8----|--5----|
E |-/12-------------|-10----8----|--5----|
B |-----------------|------------|-------|
E |-----------------|------------|-------|


Solo:

E ||------------------------|-----------------------|
B ||------------------------|-----------------------|
G#||.-----------------------|-----------------------|
E ||.----------------3b--0--|--------------------0--|
B ||------------------------|----------------3b-----|
E ||--0--0-0--3--0-0--------|-0--0-0--3--0-0--------|

E |-----------------------|-----------------------||
B |-----------------------|-----------------------||
G#|-----------------------|----------------------.||
E |----------------3b--0--|-5b--0--3b--0------0--.||
B |-----------------------|---------------3b------||
E |-0--0-0--3--0-0--------|-----------------------||

not sure about this
E ||----------------------------------------------|-------------------------------------------|
B ||----------------------------------------------|-------------------------------------------|
G#||.---------------------------------------------|-------------------------------------------|
E ||.-0--9po7po0-9po7po0-9po7po0--9po7po0-9po7po0-|-0-9po7po0-9po7po0-9po7po0-9po7po0-9po7po0-|
B ||----------------------------------------------|-------------------------------------------|
E ||----------------------------------------------|-------------------------------------------|

E |---------------------------------------|----------------------------------------||
B |---------------------------------------|-----------------

Round Here Buzz chords – Eric Church V2

 D 
Another Friday night
 D 
There's a line of cars leaving
 D 
Home team's got an out-of-towner
 D 
Me, I'm sitting on the hood of mine drinking
 D G 
I'm just a parking lot down-and-outer

 D 
Under that high school bleacher
 D 
I drove that preacher's daughter crazy
 D 
Her mama was my homeroom teacher
 D G 
And her dad was hell bent on saving me

            A 
Yeah, I'm sure there's higher highs
 A 
Where the high risers rise
     G 
But me, I'm gonna sit right here tonight, and

             D 
Catch me a 'round here buzz
                  G 
Cause you ain't 'round here none
                   D 
Keep putting 'em down here, 'nother round here
           G 
'Til my down goes up
                  D 
Lit up like that one stoplight
                  G Em 
Across from that welcome sign
                    A G 
Ever since you caught that out there bug
                D 
I catch me a 'round here buzz

 D 
I never had big-city eyes
 D 
Hell, I've never been east of Dallas
 D 
Got no idea where you are now
 D G 
Or if you ever got that penthouse palace

 A 
No, Scotty's ain't got no vibe
 A 
Got no gas in his neon light
    G 
But he's got two-for-one 'til 2:00 tonight

            D 
Catch me a 'round here buzz
                  G 
Cause you ain't 'round here none
                   D 
Keep putting 'em down here, 'nother round here
           G 
'Til my down goes up
                  D 
Lit up like that one stoplight
                  G Em 
Across from that welcome sign
                   A G 
Ever since you caught that out there bug
                D 
I catch me a 'round here buzz


SOLO

                D 
Catch me a 'round here buzz
                  G 
Cause you ain't 'round here none
                D 
Keep putting 'em down here, 'nother round here
          G 
'Til my down here
                     D 
Is lit up like that one stoplight
                  G Em 
Across from that welcome sign       
                   A G 
Ever since you caught that out there bug
                D 
I catch me a 'round here buzz
                 G 
I catch me a 'round here buzz
                 D 
'Round here buzz
                 G 
I catch me a 'round here buzz

 G D G

When The Girls Get Here chords – Young Fresh Fellows

 When the Girls Get Here 
by Young Fresh Fellows
 Duke

*Just a little ditty about the stupid things guys do to attract the opposite sex.*

(spoken)
Hey everybody...the girls are here!

Intro:  D D 
When the girls get here
                             G 
We'll talk about integrated circuits and things
                  D 
To show them how smart we are
 G A D 
We'll set our hair on fire (that should impress them)
 G A D 
Spill beer all over our t-shirts (accidentally)
 E A 
We'll show them what kind of guys we are


          D 
When the girls get here
                   G 
We'll do a little funky dance
                  D 
To show them how cool we are
 G A D 
We'll throw our socks in the closet (where it keeps them warm)
 G A D  
We'll wear berets with dark glasses (kinda like a beatnik)
 E A 
We'll show them what kind of guys we are


     E A D 
And all of the guys that we know
         B G E A D 
Will be so envious of our charm and our wit
     E 
But we don't need them
           F#m 
We've got lots of good friends
        G A 
And we know that the real fun begins
          D A G 
When the girls get here 
          D A G 
When the girls get here 
          D A G 
When the girls get here 


 A  
(key change) 
 B E 
When the girls get here...
            A 
We'll pull out our guitars
                         E 
And tell them how we're gonna be stars
 A B E 
We'll put decals on our suitcase (when the girls get here)
 A B E 
We'll twist with all of their friends (when the girls get here)
 A B E 
We'll follow old people home (when the girls get here)
 A B E 
We'll play dead in the drug store (when the girls get here)
 A B E 
Do figure eights in our four-bys (when the girls get here)
 A B E 
We'll put mirrors on the ceiling (when the girls get here)
 A B E 
And we'll spin discs by the Aztecs (when the girls get here)
 A B E 
We'll swallow fish in a phone booth
 F#m A B 
We'll show them what kind of guys we are...


(spoken)
One, two, three!


          E A B 
When the girls get here 
          E A B 
When the girls get here 
          E A B 
When the girls get here (when the girls get here)
          E A B 
When the girls get here 
          E A B 
When the girls get here (when the girls get here)
          E A B 
When the girls get here (when the girls get here)
          E A B 
When the girls get here (when the girls get here)
 A B E 
Girls get here
 A B E 
Girls get here
 A B 
The girls get...

(spoken)
I think they're here now 


*Hope you enjoy playing it!
---Duke

Why Am I Still Here chords – The Journeymen

 D C G G C 
I bought you some flowers, and you just looked at me
 D C G 
I bought you some earrings, you just went to sleep.
 G C 
I said let's go to vegas, but you don't gamble or drink.
 D C G 
With all this passion whirling around, it kinda made me think.

 G C 
You don't like to fuck me, so why am I still here?
 D C G 
Gettin you to give me some lovin, is like gettin me to give up beer.
 G C 
You don't like to fuck me, so I guess I'll just get on home.
 D C G 
I've told you once, I won't tell you again, being with you is like being alone.

 G C 
I've read books on making love, and books on the psyche of women.
 D C G 
We were wandering around in a desert of love, but we needed an oasis to swim in.
 G C 
I packed my bags, but your attention simply could not be bought.
 D C G 
So I thought I'd write you this here song, and let you know some of my thoughts.

 G C 
You don't like to fuck me, so why am I still here?
 D C G 
Gettin you to give me some lovin, is like gettin me to give up beer.
 G C 
You don't like to fuck me, so I guess I'll just get on home.
 D C G 
I've told you once, I won't tell you again, being with you is like being alone.

 G C Am Em 
Eatin smores and kissin' whores, and knockin' over discount liquor stores.
 Em C 
I talked to a preacher, and I talked to a nun.
 C D 
They said you son of a bitch, you're a son of a gun!

 G C 
You don't like to fuck me, so why am I still here?
 D C G 
Gettin you to give me some lovin, is like gettin me to give up beer.
 G C 
You don't like to fuck me, so I guess I'll just get on home.
 D C G 
I've told you once, I won't tell you again, being with you is like being alone.
 D C G 
I've told you once, I won't tell you again, being with you is like being alone.

Christmas Time Is Here chords – Daniela Andrade

 -------------------------------------------------------------------------------
     CHRISTMAS TIME IS HERE - Daniela Andrade ft. Cutest Dog in the Galaxy
-------------------------------------------------------------------------------

: Ndermawan
 ndermawan

Tuning:Standard

Capo 9

All chords relative to capo (so capo = 0)

Love this simple version, so intimate and candlelight-y :)


Chords used:

     C Am7 F Em Dm Cmaj7 A#maj7                       

e|----------0---0---1------------|
B|--1---1---1---0---3---5---3----|
G|--0---0---2---0---2---4---2----|
D|--2---2---3---2---0---5---3----|
A|--3---0---3---2-------3---1----|
E|----------1---0----------------|


Picking Pattern - 

e|-------------------------------------------|
B|----(1)-------(1)-------(1)--------(1)-----|
G|-----0---------0---------0----------0------|
D|---2-----2---2-----2---2-----2----2--------|
A|-3---------0---------3---------0-----------|
E|-------------------------------------------|


Intro:  C Am7 C Am7 C Am7  
Christmas time is here 
 C Am7   
Happiness and cheer 
 F Em  
Fun for all that children call   
       Dm G  
Their favorite time of year  

 
 C Am7  
Snowflakes in the air 
 C Am7  
Carols everywhere 
 F Em  
Olden times and  ancient rhymes  
    Dm G  
Of love and dreams to share 
 
 
 Cmaj7 A#maj7   
Sleigh bells in the air 
 Cmaj7 A#maj7   
Beauty everywhere 
 F Em  
Yuletide by the  fireside 
      Dm G    
And joyful memories there 

  
 C Am7  
Christmas time is here 
 C Am7  
We'll be drawing near 
 F Em   
Oh, that we could always see 
       Dm C  
Such spirit through the year 
   

(C)  Am7 C Am7 F Em Dm G Cmaj7 A#maj7   
Sleigh bells in the air 
 Cmaj7 A#maj7   
Beauty everywhere 
 F Em  
Yuletide by the  fireside 
      Dm G    
And joyful memories there 

  
 C Am7  
Christmas time is here 
 C Am7  
We'll be drawing near 
 F Em   
Oh, that we could always see 
       Dm G  
Such spirit through the year 
      F C 
Such spirit through the year 


(C)  Am7 C Am7 C Am7  end on  C  bass



End


Daniela's Links

iTunes    : https://itunes.apple.com/us/album/the-christmas-ep/id776135589
Webshop   : http://shop.danielaandrade.com/
Reference : https://www.youtube.com/watch?v=_iAaEH_dR_Y

************************************

| /   slide up
| \   slide down
| h   hammer-on
| p   pull-off
| ~   vibrato
| +   harmonic
| x   Mute note
| b   Bend
| pb  Pre-bend
| br  Bend release
| pbr Pre-bend release
| brb Bend release bend

************************************

Hate It Here chords – Wilco

 There's a fairly good tab on here, but a few of the chords are a little iffy, and they are onlyapplied
to the first verse. Anyway, this is one of my favourite Wilco songs, and I was so happyit was featured
in the recent film, Boyhood. Please add corrections if you feel it's necessary.

P.S. Adim can be replaced with D7 if required.

NO CAPO / STANDARD TUNING

 Adim 
2
1
2
1
0
0

Intro:

 A D C#m D A D 
 I try to stay busy
 C#m D 
 I do the dishes, I mow the lawn
 A Adim  
 I try to keep myself occupied
      Bm A 
Even though I know you're not coming home

 A D 
 I try to keep the house nice and neat
 C#m D  
 I make my bed I change the sheets
 A Adim 
 I even learned how to use the washing machine
     Bm A 
But keeping things clean doesn't change anything

 A D 
 What am I gonna do when I run out of shirts to fold?
 A D 
 What am I gonna do when I run out of lawn to mow?
 A Adim 
 What am I gonna do if you never come home?
          Bm A 
Tell me, what am I gonna do?

 E 
   I hate it
 D A 
    I hate it here
 E    
   When you're gone
 D A A D 
 I caught myself thinking
 C#m D 
 I caught myself thinking once again
 A Adim  
 Have to try to keep my mind out of this
 Bm A   
Try not to pretend

 A D 
 I'll check the phone
 C#m D 
 I'll check the mail
 A Adim 
 I'll check the phone again and I call your mom
 Bm A 
  She says you're not there and I should take care

 E 
   I hate it here
 D A 
 When you're gone...
 E 
     I hate it
 D A 
     I hate it here
 E D A E 
    When you're gone
 D A A D 
 I try to stay busy
 C#m D 
 I take out the trash, I sweep the floor
 A Adim 
 Try to keep myself occupied
 Bm A 
Cause I know you don't live here anymore

Here Comes Santa Claus chords – Elvis Presley

 Here Comes Santa Claus
By Gene Autry written by O. Haldeman 

Capo 2
 
 C 
Here comes Santa Claus
 
Here comes Santa Claus
 G7 
Right down Santa Claus lane
 
Vixen and Blitzen and all his reindeer
 C 
Are pulling on the rein
 
 F Em 
Bells are ringing children singing
 F G7 C 
All is merry and bright
 F C 
Hang your stockings and say your prayers
 F G7 C 
'Cause Santa Claus comes tonight
 
 C 
Here comes Santa Claus
 
Here comes Santa Claus
 G7 
Right down Santa Claus lane
 
He's got a bag that is filled with toys
         C 
For the boys and girls again
 
 F Em 
Hear those sleigh bells jingle jangle
 F G7 C 
What a beautiful sight 
 F C 
Jump in bed cover up your head
 F G7 C 
'Cause Santa Claus comes tonight 

Gonna Know We Were Here chords – Jason Aldean V2

 -sdurr45
Capo II

Intro:
 Em C G D 


Verse 1:

 Em C 
You got the gas I got the matches We gonna turn this town to ashes.

 G D 
Cause they aint never seen nothing like us Ain't heard loud till we turn it up.

 Em C 
I got the wild you got the crazy You know that's why I love you baby.

 G 
Cause your motor runs just as fast as mine.

 D 
Pedal to the metal keep the throttle down all night

 C 
And we only get one life.

Chorus:

 Em C                  
Ain't scared to ride this train Make a few marks, leave a few stains

 G D 
Might slam just a little too hard, might take it just a little too far

 Em C 
Might burn out like a firework, like a shooting star across the sky

 G D 
Yeah we may not be around in 20 years, but they're sure gonna know we were here. 


Verse 2:

 Em C 
People talk girl you know damn well When they got a good tale to tell

 G D 
Lets give them something they ain't never seen, a little rated R redneck dream.

 Em C 
Let's blaze a trail through the dirty south, or give them something they can talk about

 G D C 
A little story that they won't forget, long after we ride of into the sunset,

                 C 
Baby, cause we ain't dead yet, baby. 


Chorus: 

 Em C                  
Ain't scared to ride this train Make a few marks, leave a few stains

 G D 
Might slam just a little too hard, might take it just a little too far

 Em C 
Might burn out like a firework, like a shooting star across the sky

 G D Em C G D 
Yeah we may not be around in 20 years, but they're sure gonna know we were here. 


Bridge:
   
 C D 
We only get one chance around this runway roller coaster train 

 C D 
And it ain't slowing down So baby they gonna remember our name.

Solo:

Em C G D 


Chorus:

 Em C                  
Ain't scared to ride this train Make a few marks, leave a few stains

 G D 
Might slam just a little too hard, might take it just a little too far

 Em C 
Might burn out like a firework, like a shooting star across the sky

 G D                                 
Yeah we may not be around in 20 years,

 C D 
No we may not be around in 20 years,  

                                      Em 
But they're sure gonna know we were here.

 C G D 
Yeah, they're sure gonna know we were here.


 Em C G D

Here I Go Again chords – Laleh

 Lalehs tolkning av E-types "Here I Go Again"
Lyssna på låten för att få det rätt! ^^

Verse 1:

        Cm Eb Bb 
Here I go again, it`s time for me to fade away.
     Bb Ab      
I`m out of here I go again, I`ve lost the game
     Ab G 
And no one is to blame.
        Cm Eb Bb 
Here I go again, it`s time for me to face the world.
     Bb Ab   
I`m out of here I go again, I`ve lost the game.
     Ab G 
And no one is to blame. 
      Cm Eb 
Move on, believe it. 
            Bb Ab G 
And you`ll find out this is the time of your life.
      Cm Eb Bb Ab G 
Move on, believe it, You can be sure this is the ride of your life


Chorus:
        Fm Cm Fm 
Here I go again, Here I go again, Here I go again
     Ab G 
And no one is to blame, but me.


Verse 2:

      Cm Eb Bb 
It`s time again to let the storm rise 
                          Ab 
and be waiting here with great expectations,
     G 
You call it what you want 
         Cm Eb Bb 
but for now be standing tall and I`m here
                  Ab 
to get it all so give me your best
 G  
shot or let me go.

Chorus:
        Fm Cm Fm 
Here I go again, Here I go again, Here I go again 
     Ab G 
And no one is to blame, but you.






Here I Lay chords – Brandon Heyen

 here is a song that i wrote, please provide feedback on it!


Capo on third fret:

   A G D E 
Here, here I lay, here I lay crying, I'm crying away.
   A G D E 
Here, here I lay, here I lay dying I'm dying today.
   A G D E 
Here, here I lay, here I lay wasting, I'm wasting away.
   A G D E 
Here, here I lay, here I lay hoping, hoping I pray.
             A G D E    
I pray for joy, I pray for peace, I pray for everything, everything that brings me life.


              A G D E 
I pray for truth, I pray for love, I pray for anything, anything that works.
  
             A G D E 
I pray for joy, I pray for peace, I pray for truth, and i pray for love.

              A G D E           
I pray for love, I pray for life, I pray for life, and I pray for you.
           A G D E 
Because you, you're all I want, you're all I have, and you're all I need.
 A G D E 
You, you're killing me, you're killing me, from the inside out.

             A G D E 
Because of you, here I lay, here I lay crying, I'm crying for you.
             A G D E 
Because of you, here I lay, here I lay dying, I'm dying for you.
             A G D E 
Because of you, here I lay, here I lay wasting, wasting my time
             A G D E 
Because of you, here I lay, here I lay hoping, hoping I live.
         A G D E 
Because I, I want to live, I want to live, live for you.

   A G D E 
Here, here I lay, here I lay crying, I'm crying away.
   A G D E 
Here, here I lay, here I lay dying I'm dying today.
   A G D E 
Here, here I lay, here I lay wasting, I'm wasting away.
   A G D E 
Here, here I lay, here I lay hoping, hoping I pray.

   A G D E 
Here, here I lay, here I lay crying, I'm crying for you.
   A G D E 
Here, here I lay, here I lay dying, I'm dying for you.
   A G D E 
Here, here I lay, here I lay wasting, wasting my time.
   A G D E 
Here, here I lay, here I lay hoping, hoping for you.
         A G D E 
Because I, I want to live, I want to live, live for you.
      A G D E 
So here, here I lay, here I lay writing, writing this song.
   A G D E 
Here, here I lay, here I lay crying, I'm crying away.
   A G D E 
Here, here I lay, here I lay dying, I'm dying today.
   A G D E 
Here, here I lay, here I lay wasting, I'm wasting away.
   A G D E 
Here, here I lay, here I lay hoping, hoping I pray.

Out Here In My Head Tabs by Radkey

 Out Here In My Head:
First tab I've ever made. Second tab for Radkey. Was inspired to make this after I saw that
Rick_Diculous had made one for Cat & Mouse. This song is tasty.

Intro/Chorus:

E|------------------------|------------------------|
B|------------------------|------------------------|
G|--2--2--2--2--5--5--5--5|------------------------|
D|--2--2--2--2--5--5--5--5|--3--3--3--3--5--5--5--5|
A|--0--0--0--0--3--3--3--3|--3--3--3--3--5--5--5--5|
E|------------------------|--1--1--1--1--3--3--3--3|

Verse:

E|------------------------|------------------|
B|------------------------|------------------|
G|--2--2--2--2--2--2--2--2|--2--2--2--2--2--4|
D|--2--2--2--2--2--2--2--2|--2--2--2--2--2--4|
A|--0--0--0--0--0--0--0--0|--0--0--0--0--0--2|
E|------------------------|------------------|

E|------------------------|------------------|
B|------------------------|------------------|
G|--5--5--5--5--5--5--5--4|--5--5--5--5--5---|
D|--5--5--5--5--5--5--5--4|--5--5--5--5--5--5|
A|--3--3--3--3--3--3--3--2|--3--3--3--3--3--5|
E|------------------------|-----------------3|

(Not going to try to do the solo, sorry)

Intro x4
Verse x4
Chorus x10
Verse x4
Chorus x10
Solo (Can play 2nd guitar, chorus x6 with solo)
Chorus x8
End on:
E|-----
B|-----
G|--2--
D|--2--
A|--0--
E|-----

Just as Rick_Diculous did on the Cat & Mouse tab, I'm also going to promote this great 
young band. Spread the word.
Website: http://radkey.net/

2014. SkaBoy13

Im Here For A Good Time chords – George Strait

 George Strait-Here for a good time

Intro:  G G 
I’m not gonna lay around and whine and moan
                                         D 
cause somebody done    done me wrong
  D7                                                                     
And don’t think for a minute that I am gonna sit around and sing some 
 G 
Old  sad song
 C D  
I believe it’s half full not a half empty glass
 C D 
every day I wake up knowing  it could be my last

Chorus
                         C 
I aint here for a long time
 D G 
I’m here for a good time
                               C D 
so bring on the sunshine to hell the red wine
                      G 
pour me some moon shine
 C D G D/F# Em 
when I’m gone put it in stone he left nothin' be-hind
                           C    
I aint here for a long time
 D G 
I’m here for a good time
VERSE 2
 G 
Folks are always dreaming bout what they like to do
                                      D 
but I like to do just what I like

 D7 
I’ll take the chance dance the dance
                                                         G 
it might be wrong but then again it might be right
 C D 
there's no way of knowing what tomorrow brings
 C D 
life is too short to waste it I say bring on anything

Chorus
                         C 
I aint here for a long time
 D G 
I’m here for a good time
                                 C D 
so bring on the sunshine to hell the red wine
                      G 
pour me some moon shine
 C D G D/F# Em 
when I’m gone put it in stone he left nothin' be-hind
                           C    
I aint here for a long time
 D G D/F# Em 
I’m here for a good time
                           C D G 
I aint here for a long time    I’m here for a good time

For Tonight Youre Only Here To Know Tabs by Distillers

 Song:For Tonight You're Only Here To Know
Coral Fang
Artist:The Distillers
Genre:Punk Rock
Year:2003
Tuning:Standard (E,A,D,G,B,E)

Intro x1
E---------------------------|
B-------------(    x4    )--|
G(    x4    )----------66---|
D-888-666------888-666------|
A---------66----------------|
E---------------------------|

E---------------------------|
B-------------(    x2    )--|
G(    x3    )----------66---|
D-888-666------888-666------|
A---------66----------------|
E---------------------------|

E----------------------------------|
B------------------------11111111--|
G------1010101010101010--10101010--|
D-8888--8-8-8-8-8-8-8-8---8-8-8-8--|
A----------------------------------|
E----------------------------------|

Verse 1 Pt.1 x2
E----------------|
B----------------|
G-4---------3----|
D-4x8--4----3x8--|
A-2----4x8--1----|
E------2---------|

Verse 1 Pt.2 x1
E----------------|
B----------------|
G-3----4----6----|
D-3x8--4x8--6x8--|
A-1----2----4----|
E----------------|

Chorus 1 Pt.1 x3
E---------------------|
B---------------------|
G-8--------------3----|
D-8x8--9----4----3x8--|
A-6----9x8--4x8--1----|
E------7----2---------|

Chorus 1 Pt.2 x1
E----------------------|
B----------------------|
G-8--------------3-----|
D-8x8--9----4----3x16--|
A-6----9x8--4x8--1-----|
E------7----2----------|

Chorus 1 Pt.3 x1
E---------------------(         x4       )--|
B(        x4        )----------------1414---|
G-151515-131313--------151515-131313--------|
D---------------1313------------------------|
A-------------------------------------------|
E-------------------------------------------|

Chorus 1 Pt.4 x1
E----------------|
B----------------|
G-3----4----6----|
D-3x8--4x8--6x8--|
A-1----2----4----|
E----------------|

Guitar Solo x2
E------------------------------------------------------|
B-/4--4--4-2-4/6~~--4-4--2-4-2/7~~--7-7-6-4-3-3333333--|
G------------------------------------------------------|
D------------------------------------------------------|
A------------------------------------------------------|
E------------------------------------------------------|

Breakdown Pt.1 x1
E----------------------|
B(    Palm Mute     )--|
G-8--------------3-----|
D-8x8--9----4----3x8---|
A-6----9x8--4x8--1-----|
E------7----2----------|

Breakdown Pt.2 x1
E-----------------------------|
B(    Palm Mute      )-(P.O)--|
G-8--------------3------3-----|
D-8x8--9----4----3x24---3x8---|
A-6----9x8--4x8--1------1-----|
E------7----2-----------------|

Chorus 2 Pt.1 x4
E---------------------|
B---------------------|
G-8--------------3----|
D-8x8--9----4----3x8--|
A-6----9x8--4x8--1----|
E------7----2---------|

Chorus 2 Pt.2 x1
E------------|
B------------|
G-------3----|
D-------3x8--|
A-------1----|
E------------|

Outro Pt.2 x1
E---------------------(        x4        )--|
B(        x4        )----------------1414---|
G-151515-131313--------151515-131313--------|
D---------------1313------------------------|
A-------------------------------------------|
E-------------------------------------------|

Outro Pt.2 x1
E-------------------------------|
B-------------------------------|
G-33333333--44444444--66666666--|
D-33333333--44444444--66666666--|
A-11111111--22222222--44444444--|
E-------------------------------|

Song Order:
*Intro x1
*Verse 1 Pt.1 x2
*Verse 1 Pt.2 x1
*Chorus 1 Pt.1 x3
*Chorus 1 Pt.2 x1
*Chorus 1 Pt.3 x1
*Chorus 1 Pt.4 x1
*Guitar Solo x2
*Breakdown Pt.1 x3
*Breakdown Pt.2 x1
*Chorus 2 Pt.1 x4
*Chorus 2 Pt.2 x1
*Outro Pt.1 x1
*Outro Pt.2 x1

Key:
/=Slide Up
~=Let Ring
P.O= Play Open

*Here Is A Link If You Wanna Play Along:


*Don't Forget To Rate And Comment If You
Liked The Tab, And Comment Any Corrections,
I Welcome Corrections.

From Here To Utopia Song For The Desperate chords – Ramshackle Glory V2

 This is a revised version of the other "From here to utopia" tab. 
This one is correct, chords are from his zine. 
If you can't figure out how to play it listening to the acoustic version from Die 
The Nightmare might help.


Intro:

 Am E Am G E Am E Am G E Am E 
well, i’m afraid that the circles i’ve been drinking myself
                                       Am G E 
aren’t big enough for the vowels that i try to fit inside of them.
 Am 
when i was young, i drank too much,
             E Am 
and i’d be lying if i said i didn’t feel so goddamn young tonight;
           G E 
maybe too young to ask what’s on my mind.
 F Am 
like: if freedom means doing what you want (well),
 E Am 
don’t you gotta want something?
 F Am E 
and won’t you tell me that we want something more than just more beer?

and my friends, if that ain’t true, won’t you lie to me tonight? Oh yeah!

(Fast part) Am G E F x3, strum Am once then muted strumming

 Am E 
well, i’ve been listening to minor threat records all day,

and shit if i do not know every word.
 Am G E 
i sing along as i tie off.
 Am E 
and ian screams he’s “out of step” as i throw the cotton into the spoon, draw up into 
the syringe.
 Am G E 
i’ll know just what he means until i hit a vein.
 F Am E Am 
but after that i won’t have to bother with knowing who i am, for a while at least.
 F Am 
in a moment the whole world is gonna melt around me,
 E 
and i’ll swear i don’t miss it as a i lie to you tonight.
 C E Am F 
because i’m afraid to look the world in the eye.
 C E Am F 
if nothing’s gonna change, well, then i’d rather die.
 C E 
and i’m too unemployed to organize a union;
     Am F 
i’m too intoxicated to tear down a building.
 C E 
i’m too hopeless to look for a solution;
     Am 
i’m afraid that if i found one,
     F C 
i’d be out of excuses for the way i waste away
        E Am F 
in the gutters that i chose like fashion accessories to go with my dirty clothes.
   C E Am 
i haven’t bathed in months, but you know it’s not because i’ve been fighting bourgeois morals:
           F 
i’m just lazy and i’m young.

 Am E 
i’ve seen the best minds of my generation dying drunk or high from the rooftops to the 
parking lots,
 Am G E 
stomped to death in west philadelphian squats.
 Am E 
they’ve got me waiting on a day when we can say “fuck the police!” with a little bit of integrity,
 Am G E 
when it will mean: “i’ve got your back if you’ve got mine!”
 F Am E Am 
give me a scene where i believe in more than bad hair cuts, guilt, and misery.
 F Am 
i don’t know where i fit between the vegans and the nihilists.
 E 
that might be the first thing i’ve said that wasn’t a lie tonight.
 C E Am F 
because there’s gotta be something more than lying in the front yard, naked, screami

Standing Here Helpless Tabs by Douwe Bob

 Standing here helpless - Douwe Bob

This tab probaply isn't 100% correct, but it should give you a good indication on how to 
play the song. Good Luck!

Also it's not the complete tab, I'm working on it and the complete tab should be out soon!

Open E tuning

Low to High : E-B-E-G#-B-E

Intro:

E  --------12^--------------------0--0--0--0--0--0--0-----0--2s4p0--------|
B  --------12^-----------------0--0--0--0--0--0--0--0--0------------0-----|
G# --------12^--------------0-----5--5--5--7--7--7--0------------------0--|
E  -------------0--2s5s4p0--------0--0--0--0--0--0--0---------------------|
B  -------------------------------0--0--0--0--0--0--0---------------------|
E  ----0--------------------------5--5--5--7--7--7--0---------------------|

E  ----0--5--4--0--0--0--0--0------------------------0--0--0--0--0--0--|
B  ----0-----------0--0--0--0---------------------0--0--0--0--0--0--0--|
G# ----5-----------7--7--8--0--0-----0h1p0-----0-----5--5--5--7--7--7--|
E  ----0-----------0--0--0--0-----2---------0--------0--0--0--0--0--0--|
B  ----0-----------0--0--0--0------------------------0--0--0--0--0--0--|
E  ----5-----------7--7--7--0------------------------5--5--5--7--7--7--|

E  ----0-----0--2s4p0--------0--5--4--0--0--0--0--0--0--0--0--0--0--0--12^--/
B  ----0--0------------0-----0-----------0--0--0--0--0--0--0--0--0--0--12^--/
G# ----0------------------0--5-----------7--7--7--7--7--7--7--7--7--8--12^--/
E  ----0---------------------0-----------0--0--0--0--0--0--0--0--0--0--0----/
B  ----0---------------------0-----------0--0--0--0--0--0--0--0--0--0--0----/
E  ----0---------------------5-----------7--7--7--7--7--7--7--7--7--7--0----/

Use the video for the next part of the song.
I've cut the song in parts part 1 (showing below) is the part until:
"I'm not your savior, because I'm not free.

Part 1 [I'm sorry I'm not the one]:

E  ----------------------------0--------0-------0-------|
B  -------0-----0--------------0--------0-------0-------|
G# ----------------------------5--------7-------0-------|
E  ----0-----2-----s4p0--------0-[x13]--0-[5x]--0-[4x]--|
B  ----------------------0-----0--------0-------0-------|
E  -------------------------5--5--------7-------0-------|

E  ----------------------------------------/
B  -------------0-----------------0--------/
G# ----------1-----1-----------0-----0-----/
E  -------0-----------0-----0-----------0--/ [Repeat 2x]
B  ----2-----------------0-----------------/
E  ----------------------------------------/

E  ----------------------------0--------|
B  -------0-----0--------------0--------|
G# ----------------------------5--------|
E  ----0-----2-----s4p0--------0-[13x]--|
B  ----------------------0-----0--------|
E  -------------------------5--5--------|

E  ----0-------0--------0--0--------0-------0--/
B  ----0-------0--------0--0--------0-------0--/
G# ----7-------7--------0--5--------7-------0--/
E  ----0-[5x]--0-[14x]--0--0-[13x]--0-[5x]--0--/
B  ----0-------0--------0--0--------0-------0--/
E  ----7-------9--------0--5--------7-------0--/


Part 2 [You had the time to flee]:

!!Listen to the music to hear the pattern!!

E  ----0--0--0--------0--0--------|
B  ----9--9--9--4--4--0--0--0--0--|
G# ----8--7--6--0--0--5--5--1--3--|
E  ----0--0--0--0--0--0--0--0--0--|
B  -------------2--x--0--0--2--4--|
E  ----------------4--5--4--------|

Part 2 soon to be finished!