Tag: Hero

Gene Autry My Hero chords – Glen Campbell

 Gene Autry My Hero
Glen Campbell
written by Marty Robbins
1985 album It's Just A Matter Of Time
1987 preformed on HeHaw 
with Glen's brother Shorty Campbell


Intro  A Em A D A D 

Verse 1

     D D7 G Em 
The childhood memories I treasure the most I suppose
          A A7 A D     
were the Saturday afternoons spent at the town's picture show
 A D A D G Em 
I'd work all day long in the fields but at night I would dream
 A Em A D A D A 
That I'd see Gene Autry go riding across the big screen
 D A D A G Em 
Saturday mornings I'd walk five miles or more
      A Em A D A D 
and twelve O'clock noon found me first one in line at the door
 A D A D A G Em 
I worked all week long but today I fulfilled my dream
                           A D D7 
and I'd see Gene Autry go riding across the big screen

Chorus 1

     G D A D 
The man in the white cowboy hat is a hero to me
 A D A D Em A 
He was and he is now and I guess he always will be
 D A D A G Em 
Time takes away many things but it can't take a dream
 A D 
And I see Gene Autry go riding across the big screen

 A Em A D A D A 

Verse 2

 D G Em 
Oft as a child from our home in the country I'd roam
                    A Em D A D 
And my Daddy would scold me cause I'd never be around home
 A D A D G Em 
Ah but Mom understood me cause she'd always smile when I use to say
       A Em A D A D 
Gene Autry and I have been rounding up outlaws all day

Chorus 2

 G D A D 
The man in the white cowboy hat is a hero to me
 A D A D Em A 
He was and he is now and I guess he always will be
 D A D A G Em 
Time takes away many things but it can't take a dream
 A D 
And I see Gene Autry go riding across the big screen
 A D A D 
And I see Gene Autry go riding across the big screen

flyinglibra51
God Bless Glen Travis Campbell

Dairybeat – Hero – Enrique Iglesias – Cover chords

 DAIRYBEAT: HERO (E. Iglesias/P. Barry/M. Taylor) 4/4 – 76

Intro: | D     | Bm     | G     | A 

Verse 1:

         | D                        | Bm                  | G 
WOULD YOU DANCE  IF I ASKED YOU TO DANCE, OR WOULD YOU RUN

              | A 
AND NEVER LOOK BACK.

         | D                  | Bm                    | G A       | D 
WOULD YOU CRY  IF YOU SAW ME CRYING, AND WOULD YOU SAVE MY SOUL TO-NIGHT.

Verse 2:

         | D                        | Bm                 | G 
WOULD YOU TREMBLE  IF I TOUCH YOUR LIPS, OR WOULD YOU LAUGH

                 | A 
OH PLEASE TELL ME THIS.

             | D                    | Bm               | G A       | D     |
NOW WOULD YOU DIE  FOR THE ONE YOU LOVE, OH HOLD ME IN YOUR ARMS TO-NIGHT.

Chorus:

 D G            | Em A G | D G             | Em A G |
  I CAN BE YOUR HERO BABY.      I CAN KISS AWAY THE PAIN.

 D G                | Em A G | D A       | G 
  I WILL STAND BY YOU FOR-EVER.    YOU CAN TAKE MY BREATHE AWAY.

Verse 3:

         | D                            | Bm                 | G 
WOULD YOU SWEAR  THAT YOU’LL ALWAYS BE MINE, OR WOULD YOU LIE

                 | A                 | D                    | Bm 
WOULD YOU RUN AND HIDE. AM I IN TOO DEEP, HAVE I LOST MY MIND,

       | G A       | D     |
I DON’T CARE YOU’RE HERE TO-NIGHT.

Chorus:

 D G            | Em A G | D G             | Em A G |
  I CAN BE YOUR HERO BABY.      I CAN KISS AWAY THE PAIN.

 D G                | Em A G | D A       | G 
  I WILL STAND BY YOU FOR-EVER.    YOU CAN TAKE MY BREATHE AWAY.

Solo:

         | D         | Bm        | G         | A         | D 
e┌──────────────────────────────────────────────5──┐
b├────5─7─7───7─5─────────5─7─8───8─7───5─────────7┤
g└7─7─────────────7─7───7─────────────7─────7─7────┘

       | Bm        | G A    | D 
e┌────5──────────────────────┐
b├──────7─────5─7─8──7─5─────┤
g└7─7───────7─────────────7─7┘

Verse 4:

           | D                    | Bm            | G A       | D     |
AM I IN TOO DEEP, HAVE I LOST MY MIND, I DON’T CARE YOU’RE HERE TO-NIGHT.  

Chorus 2x:

 D G            | Em A G | D G             | Em A G |
  I CAN BE YOUR HERO BABY.      I CAN KISS AWAY THE PAIN.

 D G                | Em A G | D A       | G            |
  I WILL STAND BY YOU FOR-EVER.    YOU CAN TAKE MY BREATHE AWAY.


 D G            | Em A G | D G             | Em A G |
  I CAN BE YOUR HERO BABY.      I CAN KISS AWAY THE PAIN.

 D G                | Em A G | D A       | G</sp

Hero chords – Finding Favour

 NO CAPO

INTRO
 Am F C G 
VERSE 1
            Am F 
She is a soldier and a fighter
          C G 
On the front lines of a war
                   Am F 
Caught in the shrapnel and the battle
            C G 
Kneeling down on her bedroom floor
                  Am F 
Standing between you and the fallout
           C G 
She will not give up this ground
  F G 
Oh no, you know she will never back down

CHORUS
          Am F  
Cause somewhere right now
   C G 
Someone is fighting for you
 Am F 
They're crying out
         C G 
Won't stop until they breakthrough
 Am F C G 
You see an unassuming ordinary simple soul
                   F 
And you'd never know
 F Am F C G   (x2)
Somewhere right now you've got a hero

VERSE 2
               Am F C G 
Have you ever been there when the darkness almost closes in?
                  Am F 
Then all of the sudden there's a moment
            C G 
When the light comes breaking in
                  Am F 
And out of the shadows comes a warrior
             C G 
With the faith to overcome
 F         
And you lift your eyes
                           G 
To where your help comes from

CHORUS
 Am F 
Somewhere right now
 C G 
Someone is fighting for you
 Am F 
They're crying out
 C G 
Won't stop until they breakthrough
 Am F C G 
You see an unassuming ordinary simple soul
                    Am 
And you'd never know
          F Am F C G   (x2)
That somewhere right now you've got a hero

BRIDGE
        F Am 
When you feel alone and think nobody cares
        F G 
Just know that you are always in my prayers

CHORUS
 Am F 
Somewhere right now
 C G 
Someone is fighting for you
 Am F 
They're crying out
 C G 
Won't stop until they breakthrough
 Am F C G 
You see an unassuming ordinary simple soul
                    Am 
And you'd never know
          F Am F C G   (x2)
That somewhere right now you've got a hero

The Blowers Daughter chords – Megan Hilty

 The Blower's Daughter by Megan Hilty (originally by Damien Rice)
 It Happens All The Time
Track 5
2013


Standard Tuning
No Capo


Chords:

 D :        xx0232
 G :        320003 or 320033
 A :        x02220
 Bm :       x24432
 F#m :      244222
 Em :       x22000
 E :        022100
 B :        x24442
 C#m :      x46654
 G#m :      466444


            D G 
 And so it is, just like you said it would be
                  A 
 Life goes easy on me
   G D 
 Most of the time

            D G 
 And so it is, the shorter story
                  A 
 No love, no glory
                  Bm 
 No hero in her sky


                  G 
 I can't take my eyes off you
                  F#m 
 I can't take my eyes off you
                  Em 
 I can't take my eyes off you
                  D 
 I can't take my eyes off you
                  G A 
 I can't take my eyes off you
                  G 
 I can't take my eyes


            D G 
 And so it is, just like you said it should be
                          A 
 We'll both forget the breeze
   G D 
 Most of the time

            D G 
 And so it is, the colder water
                        A 
 The blower's daughter
                 Bm 
 The pupil in denial


                  G 
 I can't take my eyes off you
                  F#m 
 I can't take my eyes off you
                  Em 
 I can't take my eyes off you
                  D 
 I can't take my eyes off you
                  G A 
 I can't take my eyes off you
                  G 
 I can't take my eyes


 E A 
 Did I say that I loathe you ? 
                   F#m B C#m 
 Did I say that I want to leave it all behind ?


                   A 
 I can't take my mind off you
                  G#m 
 I can't take my mind off you
                  F#m 
 I can't take my mind off you
                   E 
 I can't take my mind off you
                   A B 
 I can't take my mind off you
                   A 
 I can't take my mind, my mind

 To find somebody new

Mist Tabs by Protest The Hero

 -------------------------------------------------------------------------------
                             MIST OUTRO - Protest the Hero
-------------------------------------------------------------------------------
: wheretheressmoke
 kyclarke

I saw that no one had tabbed this little outro yet so here's how I play it.

Tuning: Standard (Note: PTH plays this a half-step down on the record, but I have tabbed 
it here for standard tuning to make your life easier. If you want to play it the legit 
way just tune down and raise everything a half-step.)

Fades in strumming an EMaj2
e|-/6-------------------------------------------------------------------------|
B|-/6-------------------------------------------------------------------------|
G|-/6-------------------------------------------------------------------------|
D|-/8-------------------------------------------------------------------------|
A|-/8-------------------------------------------------------------------------|
E|-/6-------------------------------------------------------------------------|

Main chord progression:
   Bbmin            DbMaj2           EbMaj2           Ebmin7
e|-1-11-1-1-11-1-11-4-44-4-4-44-4-44-6-66-6-6-66-6-66-6-66-6-6-66-6-66-------|
B|-2-22-2-2-22-2-22-4-44-4-4-44-4-44-6-66-6-6-66-6-66-6-66-6-6-66-6-66-------|
G|-3-33-3-3-33-3-33-6-66-6-6-66-6-66-8-88-8-8-88-8-88-6-66-6-6-66-6-66-------|
D|-3-33-3-3-33-3-33-6-66-6-6-66-6-66-8-88-8-8-88-8-88-8-88-8-8-88-8-88-------|
A|-1-11-1-1-11-1-11-4-44-4-4-44-4-44-6-66-6-6-66-6-66-6-66-6-6-66-6-66-------|
E|---------------------------------------------------------------------------|

Melody riff:
e|------------------------13-----------------------4~------------------------|
B|13h14-11-13-14-11----11----11--------------------4~------------------------|
G|------------------13----------13-15----15-13-15--6~------------------------|
D|------------------------------------15-----------6~------------------------|
A|-------------------------------------------------4~------------------------|
E|---------------------------------------------------------------------------|

e|------------------------13-----------------------6~---6~-------------------|
B|13h14-11-13-14-11----11----11--------------------6~---6~-------------------|
G|------------------13----------13-15----15-13-15--8~---6~-------------------|
D|------------------------------------15-----------8~---8~-------------------|
A|-------------------------------------------------6~---6~-------------------|
E|---------------------------------------------------------------------------|

Same riff one octave down:
e|---------------------------------------------------------------------------|
B|---------------------------------------------------------------------------|
G|5h6---5-6-------10---------------------------------------------------------|
D|----8-----8-6/8---8-6h8---8-6-8-------*cute little fill*-------------------|
A|------------------------8--------------------------------------------------|
E|---------------------------------------------------------------------------|

Ending:
e|---------------------------------------------------------------------------|
B|---------------------------------------------------------------------------|
G|5h6---5-6-------10---------------------------------------------------------|
D|----8-----8-6/8---8-6h8---8---8---8---8---8---6~---------------------------|
A|------------------------8---6---4------------------------------------------|
E|------------------------------------8---6---4~-----------------------------|

And there you have it. Pretty simple and lots of fun to play. Enjoy!


************************************

| /   slide up
| \   slide down
| h   hammer-on
| p   pull-off
| ~   vibrato
| +   harmonic
| x   Mute note
| b   Bend
| pb  Pre-bend
| br  Bend release
| pbr Pre-bend release
| brb Bend release bend

**

Hero chords – Regina Spektor V3

 Verse 1:

 Am C Em G 
He never ever saw it coming at all

 Am C Em G 
He never ever saw it coming at all

 Am C Em G 
He never ever saw it coming at all

Chorus:

           F Am Em F 
It's al-right, it's al-right, it's al-right, it's al-right

           Am C C/B Am 
It's al-right, it's al-right, it's alright

 F C C/B Am F C C/B 

Verse 2:

 Am C Em G 
Hey, open wide here comes original sin

 Am C Em G 
Hey, open wide here comes original sin

 Am C Em G 
Hey, open wide here comes original sin

Chorus:

           F Am Em F 
It's al-right, it's al-right, it's al-right, it's al-right

           Am Em F 
It's al-right, it's al-right, it's al-right

           Am C C/B Am F 
It's al-right, it's al-right, it's alright

 C C/B Am F 
No one's got it all

 C C/B Am F 
No one's got it all

 C C/B Am F C C/B 
No one's got it all

Bridge:

 Am B5 
Power to the people
                Am 
We don't want it 
                G 
We want pleasure
              G Am 
And the T.V.s try to rape us
           B5 Am 
And I guess that they're succeeding
                 F G 
Now we're going to these meetings
                      Am G 
But we're not doin' any meetin'
                  G Am B5  (strum once)
And we're trying to be faithful but we're cheatin', cheatin', cheatin'

Verse 3:

 Am C Em G 
Hey, open wide here comes original sin

 Am C Em G 
Hey, open wide here comes original sin

 Am C Em G 
Hey, open wide here comes original sin

Chorus:

           F Am Em F 
It's al-right, it's al-right, it's al-right, it's al-right

           Am Em F 
It's al-right, it's al-right, it's al-right

           Am C C/B Am F 
It's al-right, it's al-right, it's alright

 C C/B Am F 
No one's got it all

 C C/B Am F 
No one's got it all

 C C/B Am F C C/B 
No one's got it all

Bridge:

 Am B5 
Power to the people
                Am 
We don't want it 
                G 
We want pleasure
              G Am 
And the T.V.s try to rape us
           B5 Am 
And I guess that they're succeeding
                 F G 
Now we're going to these meetings
                      Am G 
But we're not doin' any meetin'
                  G Am B5  (strum once

Grave Of The Hero chords – Harris Fletcher

 D G 
In the trenches and out on the field,
 D A 
Unrelenting you never yield,
 D G 
To the fear and to the pain,
           D A D 
You’re a soldier who knows no shame.


Refrain:
 D 
Yours is the grave of the hero,
                               G 
Yours was the fight of the bold,
         D A G 
You died for the ones that you didn't know,
           D A D 
And you gave your life for them all.


Across the blue oceans   in faraway lands,
You spilt your blood on foreign sands,
To fight for the ones that you left behind,
So freedom they could find.

We treasure the stories you left us of old,
The thoughts and the memories forever we'll hold,
You put yourself last and you never regret,
How your face to the challenge you set.

There's many who left us and never came back,
The missing in action, while under attack.
We’ll never lose site of their sacrifice,
They willingly paid with their lives.

Cape Of Our Hero Tabs by Volbeat V3

 Artist: Volbeat
Song: Cape Of Our Hero

Hi im Christian from "Christians How To Plays"
These Chords/Tabs are 100% correct. 
To learn the Song with my Video Lesson, please follow the link :) 

Now, have fun with the Song and the Tabs: 


Intro:

Am F G Em
Am F G Em
C G Am F C

2x:
      Am                       F                           
      Q     E  Q    Q.         Q     E  E  E  E  S  S  E   
E||-------------------------|-----------------------------|
B||-------------------------|-----------------------------|
G||---------9--7----9~------|--L----10--9--7--7--7h-9p-7--|
D||--10~--------------------|-----------------------------|
A||-------------------------|-----------------------------|
E||-------------------------|-----------------------------|


  G                             Em                        
  Q     E   E  E  E.  S  E      Q    Q    E   E.  S   E   
----------------------------|----------------------------|
----------------------------|----------------------------|
--L~----7-------------------|----------------------------|
-----------10--9--9---9-10--|--14----9----9--10---9h-10--|
----------------------------|----------------------------|
----------------------------|----------------------------|


1x:

                         G                      
  H         E  Q      E     H          Q     Q     
-------------------------|------------------------|
-------------------------|------------------------|
--9~--------L--7~--------|--7~--------------------|
---------------------10--|------------10~----9----|
-------------------------|------------------------|
-------------------------|------------------------|


Am                            F                            C                 
                                                              3                 
   Q     E  E    E  Q    S  S    Q    E.  S S  S Q    S  S    W.                
------------------------------|----------------------------|-------------------|
------------------------------|----------------------------|-------------------|
------------7--7g9--7---------|--5----5---5-5h-7-5----5h-7-|--5----------------|
--10----10---------------5h-7-|----------------------------|-------------------|
------------------------------|----------------------------|-------------------|
------------------------------|----------------------------|-------------------|

Verse: 

C                              F
All of the perfection nothing will and can be made
     Dm                              G
the old skin has to shed before the new one sees the day
C                                  F
opportunities to find the deeper powers in ourselves
                      Dm              G
come when life is breathing and seem more than what it is
F               G
Go blindly completely!


Chorus:

C            F         Dm
You tell me how I can fly away
       G
and believe that all the angels are coming
C              F               Dm
you bring me down then I will fly again
       G                               Am
and believe that all the angels are coming!

Clean Chorus Guitar

{e| |----------------|----------------|----------------|-------------------|
{B| |------5-6-5-----|------5-6-5-----|-----6-8-6------|-----5-6-5---------|
{G| |---5------------|----5-----------|---5------------|---7---------------|
{D| |----------------|----------------|----------------|-------------------|    x2
{A| |----------------|----------------|----------------|-------------------|
{E| |----------------|----------------|----------------|-------------------|


Intro Bridge:

Am F G Em

Play First Part of Melodie Guitar


Verse: 

       C                              F
The kingdom of the fathers and the heroes where are you
       Dm                       G
I'm talking to you every night more than I should do
       C       

Birth Of A Hero Tabs by Two Steps From Hell

 Birth of a Hero - Two Steps From Hell

: Kotonaruwind
 abandonedstrings

Tuning: standard


 (0:00 - 0:52)
e|---------------------------------------------------------------------------|
B|---------------------------------------------------------------------------|
G|--------12----15----14----10h12----12----10--------------------------------|
D|--10-------------------------------------------13----12----10--------------|
A|---------------------------------------------------------------------------|
E|---------------------------------------------------------------------------|

e|---------------------------------------------------------------------------|
B|---------------------------------------------------------------------------|
G|--------12----15----14----12-----------------------------------------------|
D|--10----------------------------10----13----12----8----10------------------|
A|---------------------------------------------------------------------------|
E|---------------------------------------------------------------------------|

 (0:52 - 1:06)
e|---------------------------------------------------------------------------|
B|------------------------------11-------------------------------------------|
G|--------12----8--10--12--8---------10--------------------------------------|
D|--10-----------------------------------8--13--12--8------------------------|
A|---------------------------------------------------------------------------|
E|---------------------------------------------------------------------------|

e|---------------------------------------------------------------------------|
B|-------------------------------11------------------------------------------|
G|--------12----8--10--12--8-----------8-------10----------------------------|
D|--10--------------------------------------8--------------------------------|
A|---------------------------------------------------------------------------|
E|---------------------------------------------------------------------------|

 (1:07 - 1:22)
e|---------------------------------------------------------------------------|
B|---------------------------------------------------------------11---13-----|
G|-------12--12-10---------15---------12--12-10--------12---10---------------|
D|--13----------------13--------13----------------13-------------------------|
A|---------------------------------------------------------------------------|
E|---------------------------------------------------------------------------|

 (1:23 - 1:37)
e|---------------------------------------------------------------------------|
B|---------------------------------------------------------------------------|
G|------------------------------------------------ 10-12--10-----------------|
D|--10--10-12-13-12-10--12-8--10-6----10--10-12-13------------12--10---------|
A|---------------------------------------------------------------------------|
E|---------------------------------------------------------------------------|

e|---------------------------------------------------------------------------|
B|---------------------------------------------------------------------------|
G|---------------------------------------------------------------------------|
D|--10--10-12-13-12-10--12-8--10-6----8--12--13-12--8--10--------------------|
A|---------------------------------------------------------------------------|
E|---------------------------------------------------------------------------|

 (1:37 - 1:52)
e|---------------------------------------------------------------------------|
B|---------------------------------------------------------------------------|
G|---------------------------------------------------------------------------|
D|--10-12-13--13-15-17-15-13--15-------15--15-17-18-17-15--17----------------|
A|-------------------------------13------------------------------------------|
E|----------

I Catch Fire chords – For Our Hero

 Song: I Catch Fire (2012)
Artist: For Our Hero ft. Forever Ends Here
Written by: Luke McChesney and Beau Taplin
Mixed and produce by: Dave Tran
Chords: Me


[Intro]

|---------0----------------1---------------0------------------------------------|
|-[Am]------1---1----[F]------1---1---[C]------1-----1--[Gx8]-------------------|
|-------2-----2----------2-----2----------0-------0-----------------------------| x2
|-------------------------------------------------------------------------------|
|-------------------------------------------------------------------------------|
|-------------------------------------------------------------------------------|

[Verse 1]

 Am F 
all my bad dreams, they all star you

 C G 
n' now you're standing, all stunning, in the same room 

 Am F 
I despise you, I think you hate me 

 C G 
but whenever has that been in the way baby?

[Prechorus]

 F G 
you got a mouth I miss 

 Am C 
I still got heart to break

 F G                           [Let  G  ring]
we're unfinished business, no

[Chorus]

 C 
every time your eyes catch mine I,

 G 
I'm afraid that I'll catch fire 

 Am 
you think that we could make things right?

 F G 
I wanna make a mess tonight

 C 
don't give a damn, let them talk shit

 G 
n' maybe we are misbehaving 

 Am 
I think that we could make things right

 F G 
I wanna make a mess tonight

[Verse 2] 

 Am F 
now the ceiling above me's raining 

 C G 
candlelight and it's dancing like you baby

 Am F 
all my friends say they think I'm crazy 

 C G 
if that is loving you then lock me up and chain me

[Prechorus]

 F G 
you got a mouth I miss 

 Am C 
I still got heart to break

 F G                           [Let  G  ring]
we're unfinished business, no

[Chorus]

 C 
every time your eyes catch mine I,

 G 
I'm afraid that I'll catch fire 

 Am 
you think that we could make things right?

 F G 
I wanna make a mess tonight

 C 
don't give a damn, let them talk shit

 G 
n' maybe we are misbehaving 

 Am 
I think that we could make things right

 F G 
I wanna make a mess tonight

[Bridge]

 Dm 
don't get up and go 

 Am 
I'm coming home

 G 
I think of your smile

 G 
once in a while

 Dm 
don't get up and go

 Am 
I'm coming home

 G 
I think of your smile

 G 
once in a while

[Single strum]

 Am 
every time your eyes catch mine I,

 G 
I'm afraid that I'll catch fire 

 F 
you think that we could make things right?

 C G 
I wanna make a mess tonight

 Am 
don't give a damn, let them talk shit

 G 
n' maybe we are misbehaving 

 F 
I think that we could make things right

 C G 
I wanna make a mess tonight

[Different rhythm]

 C 
every time your eyes catch mine I,

 G 
I'm afraid that I'll catch fire 

 Am 
you think that we could make things right

 F G 
I wanna make a mess tonight

 C 
don't give a damn, let them talk shit

 G 
n

Hero chords – Family Of The Year V3

 When I was learning this song I realized that it wasn't in straight 4/4 time, but 
included occasional 
2/4 measures. This chart breaks the song down into measures, and clarifies the time signature 
changes. The chords are easy, but the structure is a little more complicated.

Hero
Family of the Year
Capo: 5
Tempo: 88
Count as slow 4

|  C  |  C  | 

| C          | C                       | Am Em  |
 Let me go  . I don't wanna be your . hero
| Em                   | F                      |
 . I don't wanna be a big man, I just wanna
|2/4  C                   |4/4  G               | C           |
     fight with everyone     else . . . Your masquerade;
| C                    | Am Em   |
 . I don't wanna be a part of your parade
| Em                    | F           |
 . Everyone deserves a chance to
|2/4  C                  |4/4  G                |
     walk with everyone     else . . . while 
| C            | C                  | Am Em     |
 holding down . a job to keep my . girl around
| Em                      | F                     |       
 . And maybe buy me some new strings and her a 
|2/4  C                |4/4  G         |    
     night out on the     weekends
| G                | C               |
 . . . And we can whisper things, 
| C                   | Am Em      |
 . Secrets from our American dreams
| Em         |2/4  Em            |4/4  F                  |
 . . . Baby    needs some pro-----tection, but I'm a 
|2/4  C                  |4/4  G     |  G  |
     kid like everyone      else

  | C          | C                       | Am Em  |
So let me go  . I don't wanna be your . hero
| Em                   | F                      |
 . I don't wanna be a big man, I just wanna
|2/4  C                   |4/4  G               |
     fight like everyone     else

|  C  |  C  |  Am Em  |  Em  |  F  |  C G/B  |  Am G  |  F  |  G  |
  Oooohs

  | C          | C                       | Am Em  |
So let me go  . I don't wanna be your . hero
| Em                   | F                      |
 . I don't wanna be a big man, I just wanna
|2/4  C                   |4/4  G               | C           |
     fight with everyone     else . . . Your masquerade;
| C                    | Am Em   |
 . I don't wanna be a part of your parade
| Em                    | F           |
 . Everyone deserves a chance to
|2/4  C                  |4/4  G           |  G  |
     walk with everyone     else . . .

|  C  |  C  |  Am Em  |  Em  |  F  |2/4  C  |2/4  G  |2/4  C  |2/4  G  |  C  |



Charted by Dexex 

So Shine On Me Chords – Ryan Hudak

 -------------------------------------------------------------------------------
                             SONG NAME -  So shine on me - Artist Name - Ryan Hudak
-------------------------------------------------------------------------------
Chords by: Ryan Hudak
 guitarhudak

Music and lyrics by Ryan Hudak


Verse : 1

( Intro ) >  A  .  E  .  D  .  A A E D A 
Oh . Oh . Oh . Oh .            Oh . Oh . Oh . Oh .            Oh . Oh . Oh . Oh . Oh . Oh

 A E 
Jesus your my hero just like my superhero
 D A 
Jesus you came to me
 A E 
Every time i see you i kneel and adore you
 D A 
Jesus your all i need


Pre Chorus :
 E D 
And every time i hear your name

It makes me wanna say


Chorus : 1


 C G Am D 
You shine brighter brighter then any other
 C 
You shine
                G 
Until the sun stars to rise
 Am D 
On me on me
                    C 
So shine on me


( Instrumental )  >  C  .  G  .  Am  .  D 


Verse : 2
 A E 
Jesus your my fighter when Im in a battle
 D A 
Jesus you protect me
 A 
When i need to see you
 E D 
All i need is to pray to you
                    A 
you answer me


Pre Chorus :
 E D 
And Every time i hear your name

It makes me wanna say


Chorus : 2
 C G Am D 
You shine brighter brighter then any other
 C 
You shine
                G 
Until the sun stars to rise
 Am D 
On me on me
                    C 
So shine on me


( Instrumental ) >  C  .  G  .  Am  .  D D C G  .  Am  .  D 
So shine away


Bright :     ( 3 # )
 Am 
You are brighter then the sun
 E 
You are brighter then the moon
 D 
You are brighter then a star shooting throw the sky


Chorus : 3
 C G Am D 
You shine brighter brighter then any other
 C 
You shine
                G 
Until the sun stars ti rise
 Am D 
On me On me

 C G Am D 
You shine brighter brighter then any other
 C 
You shine
                G 
Until the sun stars to rise
 Am D 
On me on me
                    C 
So shine on me

( Instrumental ) >  C  .  G  .  Am  .  D \

Nightingale Chords – Demi Lovato V4

 Nightingale- Demi Lovato
No Capo
Standard Tuning

This isn’t perfect because it’s my first one and done by ear, but it sounds much 
better than the other tabs up right now.



Verse 1
         A E 
I can't sleep tonight, wide awake and so confused
         F#m D 
Everything's in line, but I am bruised
         A E 
I need a voice to echo, I need a light to take me home
         F#m D 
I kinda need a hero, is it you?


Refrain
                 F#m A 
I never see the forest for the trees, I could really use your melody
            D E 
Baby I'm a little blind, I think it's time for you to find me


Chorus
 D E F#m E D E F#m E 
Can you be my Nightingale, sing to me I know you're there.
 D E F#m A 
You could be my sanity, bring me peace, sing me to sleep.
 D E F#m E 
Say you'll be my Nightingale


Verse 2
          A E 
Somebody speak to me, cause I’m feeling like hell
             F#m D 
Need you to answer me, I'm overwhelmed
          A E 
I need a voice to echo, I need a light to take me home
          F#m D 
I need a star to follow, I don’t know


Refrain
                 F#m A 
I never see the forest for the trees, I could really use your melody
            D E 
Baby I'm a little blind, I think it's time for you to find me


Chorus
 D E F#m E D E F#m E 
Can you be my Nightingale, sing to me I know you're there.
 D E F#m A 
You could be my sanity, bring me peace, sing me to sleep.
 D E F#m E 
Say you'll be my Nightingale


Bridge
                       D E F#m 
I don't know what I'd do without you
                       D E A 
Your words are like a whisper, come through
                   D E F#m E 
As long as you're with me here tonight, I'm good


Chorus
 D E F#m E D E F#m E           
Can you be my Nightingale, feel so close I know you're there
  
 D E F#m D D E F#m E 
Ohhhhhhh Nightingale, sing to me, I know you're there.
       D E F#m E 
Cause baby you're my sanity, you bring me peace, sing me to sleep
 D E F#m E 
Say you'll be my Nightingale

 A E F#m D 
Ohhh,   mhmmm, mhhmmmm

Oh Brother Chords – Ben Taylor

 -=-=-=-=-=-=-=-=-=-=-=-=-=-=-=-=-=-=-=-=-=-
Ben Taylor - Oh Brother 3:31
-=-=-=-=-=-=-=-=-=-=-=-=-=-=-=-=-=-=-=-=-=-
Track 2 From 'Listening' 2012
Transcription By Tudor Toomey-Lewis

-=-=-=-=-=-=-=-=-=-=-=-=-=-=-=-=-=-=-=-=-=-

Verse1:
 Bm 
No man is a hero every day
 G 
and even a champion loses the day before the race
 Em 
try not to be sleeping in your wide awake
 Bm A6 
and when your chance comes have fun don't be afraid

Chorus:
 D 
Oh brother all you got to know is who you are and it will be
 Bm 
all right, all right
 D 
oh brother, once you realize that you're a star you're gonna
 Bm 
shine so bright

Verse2:
 Bm 
And you don't always have to want to play
 G 
and you won't always have to be willing to pay
 Em 
try to make sure to make more love than hate
 Bm A6 
and when your chance comes stand up do what you say



Verse3: This one's different.  It can be played like any other verse and it'll sound
fine.  If anyone wants to tab this bit for me, do so.  In the mean time, I've provided a
very playable version here based off live performances.  The first chord seems to differ 
depending on the mood of the song so I've provided a few suggestions for you to play around
with for your cover.

( Bm7  or  Bm  or  D )       G 
It won't always be easy along the way
 D G Bm D 
and you won't always believe me when I say
 G Em 
you don't need anything but life and faith
             Bm Bm7 
and you can always call out my name

Chorus:
            D 
Just got to shine on, shine on, shine on, shine on, shine on
 Bm 
little brother,
            D 
Just got to shine on, shine on, shine on, shine on
 Bm 
my little brother

Bridge:
 E G D 
Can we just get some of that good old time JT right here now baby well
 Em E A7 
you know some old time JT old time you know, you know, you know


One last thing, when playing the intro/verses the bass line is something like this for
the first change.
E ---2--------------3----------|   ETC ETC
B ---3--------------3----------|
G ---4--------------0----------|
D ---4-------------------------|
A -2----4-5-4-2-0--------------|
E ----------------3------------|


Leave any improvements down below and I'll amend it.

My Hero intro Tabs by Dropkick Murphys

 If you wanna play that intro from My Hero here is the tab for you ;) 

So in the beginning you play this:

e|----------------------------|
b|------3-0-0-----------------|
g|------------2-0-0-----------|
D|-----------------0h3-5-0-3-0|
A|----------------------------|
E|----------------------------|

And then more faster:
e|---------------------------------------------|
b|--3-0-0-----------------3-0-0----------------|
g|-------2-0-0-----------------2-0-0-----------|
D|------------0h3-5-0h3-5-----------0h3-5-0h3-5|
A|---------------------------------------------|
E|---------------------------------------------|

In this part i don't know if this is exactly what he plays but this sounds good also ;)
e|-------------3-2-0----------------------------|
b|--3-0-0-5-0-0------3~--3-0-0------------------|
g|----------------------------2-0-0-------------|
D|---------------------------------0h3-5-0h3-5--|
A|----------------------------------------------|
E|----------------------------------------------|

Katy Perry – Roar lyrics

[Verse 1]
I used to bite my tongue and hold my breath
Scared to rock the boat and make a mess
So I sat quietly, agreed politely
I guess that I forgot I had a choice
I let you push me past the breaking point
I stood for nothing, so I fell for everything

[Pre-Chorus]
You held me down, but I got up
Already brushing off the dust
You hear my voice, your hear that sound
Like thunder, gonna shake your ground
You held me down, but I got up
Get ready cause I’ve had enough
I see it all, I see it now

[Chorus]
I got the eye of the tiger, the fighter, dancing through the fire
Cause I am a champion and you’re gonna hear me ROAR
Louder, louder than a lion
Cause I am a champion and you’re gonna hear me ROAR
Oh oh oh oh oh oh
You’re gonna hear me roar

Now I’m floating like a butterfly
Stinging like a bee I earned my stripes
I went from zero, to my own hero

You held me down, but I got up
Already brushing off the dust
You hear my voice, your hear that sound
Like thunder, gonna shake your ground
You held me down, but I got up
Get ready ’cause I’ve had enough
I see it all, I see it now

[Chorus]
I got the eye of the tiger, the fighter, dancing through the fire
‘Cause I am a champion and you’re gonna hear me ROAR
Louder, louder than a lion
‘Cause I am a champion and you’re gonna hear me ROAR
Oh oh oh oh oh oh
You’re gonna hear me roar

Roar-or, roar-or, roar-or

I got the eye of the tiger, the fighter, dancing through the fire
‘Cause I am a champion and you’re gonna hear me ROAR
Louder, louder than a lion
‘Cause I am a champion and you’re gonna hear me ROAR
Oh oh oh oh oh oh
You’re gonna hear me roar

The Spirit Of The Hawk Chords – Rednex

 Chords through whole song:  G#m  -  D#m  -  F#  -  C# 
Or with capodaster 4th fret:  Em  -  Bm  -  D  -  A 

That's it! Chords follow through the whole song.

Hey-ama-heya-mama 
Heya-mama 
Ya-heya-maya 
Hoa-hey 
The Spirit Of The Hawk

He am my hero 
He am my love 
High on a hillside 
Heaven Above 
Drifting through high and low 
We fly away 
Me and my hero 
Me and my love

The Spirit Of The Hawk ( x 2) 
Hey-ama-heya-mama 
Heya-mama 
Ya-heya-maya 
Hoa-hey

He am my warrior 
He am my brave 
He gonna fight a war 
Freedom to save 
He gonna fight for love 
Far away 
Me and my warrior 
Me and my brave

The Spirit Of The Hawk ( x 2 ) 
Hey-ama-heya-mama 
Heya-mama 
Ya-heya-maya 
Hoa-hey

Clarity solo Tabs by Protest The Hero

                        Clarity (Chorus and End Sweeps)                          


                                                                Protest The Hero
Track 1 - 1:26 - 1:40 and 2:52 - 3:06
       S  S  S  S  S  S  S  S  S  S  S  S  S  S  S  S  
D#||--15-12-------------------------------------14-15-|
A#||--------12-------------12-15-------------17-------|
F#||-----------12----12-14----------12-14-16----------|
C#||--------------14-------------14-------------------|
G#||--------------------------------------------------|
D#||--------------------------------------------------|
 
 
   S  S  S  S  S  S  S  S  S  S  S  S  S  S  S  S  
--17-14-------------------------------------14-17-|
--------15-------------------14-15----14-15-------|
-----------14----------14-16-------16-------------|
--------------16-14-16----------------------------|
--------------------------------------------------|
--------------------------------------------------|
 
 
   S  S  S  S  S  S  S  S  S  S  S  S  S  S  S  S  
--19-15----------------------------------15-17-19-|
--------15-------------15-------------15----------|
-----------16----16-17----------16-17-------------|
--------------17----------16-17-------------------|
--------------------------------------------------|
--------------------------------------------------|
 
 
  S S S  S  S  S S S S S S S  S  S  S  S  
-----------------------------------------|
-----------------------------------------|
-----------------------------------------|
-----------------------------------------|
--------10-10-10---------7-7-10-10-12-10-|
--7-7-7----------6-6-9-9-----------------|
 
 
   S  S  S  S  S  S  S  S  S  S  S  S  S  S  S  S  
--15-12-------------------------------------14-15-|
--------12-------------12-15-------------17-------|
-----------12----12-14----------12-14-16----------|
--------------14-------------14-------------------|
--------------------------------------------------|
--------------------------------------------------|
 
 
   S  S  S  S  S  S  S  S  S  S  S  S  S  S  S  S  
--17-14-------------------------------------14-17-|
--------15-------------------14-15----14-15-------|
-----------14----------14-16-------16-------------|
--------------16-14-16----------------------------|
--------------------------------------------------|
--------------------------------------------------|
 
 
   S  S  S  S  S  S  S  S  S  S  S  S  S  S  S  S  
--19-15----------------------------------15-17-19-|
--------15-------------15-------------15----------|
-----------16----16-17----------16-17-------------|
--------------17----------16-17-------------------|
--------------------------------------------------|
--------------------------------------------------|
 
 
  S S S  S  S  S S S S S S S  S  S  S  S       
-----------------------------------------|----|
-----------------------------------------|----|
-----------------------------------------|----|
-----------------------------------------|----|
--------10-10-10---------7-7-10-10-12-10-|----|
--7-7-7----------6-6-9-9-----------------|----|
 
 4:38 - 5:12
   S  S  S  S  S  S  S  S  S  S  S  S  S  S  S  S  
--------------------------------------19----------|
-----------------------------------17-------------|
--------------------------------16----------------|
-----------14----16-17-14-16-17----------17-16-14-|
-----14-------14----------------------------------|
--12----15----------------------------------------|
 
 
   S  S  S  S  S  S  S  S  S  S  S  S  S  S  S  S  
--------------------------14----------------------|
-----------------------------15-------------------|
-----------------16-------------16----------------|
--16-------16-------16-------------16----16-------|
-----17-14----17-------17-------------17----17-14-|
--------------------------------------------------|
 
 
   S  S  S  S  S  S  S  S  S  S  S  S  S  S  S  S  
--------------

Work Chords – The Bewitched Hands

 -------------------------------------------------------------------------------
                             WORK - The Bewitched Hands
-------------------------------------------------------------------------------

UG folks don't seem to know this excellent French pop-rock band, here's my favourite song of them:

http://thebewitchedhands.com/

Tabbed by: Zirroko
E-mail: Li44@free.fr

Tuning: EADGBe

Verse:

e|---------------------------------------------------------------------|
B|-8---8-7-8--7-8-10-8-7-5----5-3-5------------------------------------|
G|---------------------------------------------------------------------| Played during the verses
D|---------------------------------------------------------------------|
A|---------------------------------------------------------------------|
E|---------------------------------------------------------------------|

G                                 Em
Life is so cruel, my broken ..is out of my head

G                                 Em
Bis like a fool, my broken ..is out of my head.


Chorus:

Em
C       G       G       Em
I’m ..like a hero
C       G       G       Em
I’m walking with my balls
C       G       G       Em
I give the best of myself
C       G       G       
so trick me like a fool

Verse X 1
Chorus X 1

Break: 
(listen to the music to figure out the strumming. the tab part is played at the same time)

G       G G     G G     G G G/B 
Em      Em Em   Em Em   Em Em D 

e|-7-7-7-7-8--7-7-5----------------------------------------------------------|
B|-8-8-8-8-8--8-8-8----------------------------------------------------------|
G|-7-7-7-7-7--7-7-7----------------------------------------------------------|
D|---------------------------------------------------------------------------|
A|---------------------------------------------------------------------------|
E|---------------------------------------------------------------------------|

e|-3-3-3-3-5--3-2-3----------------------------------------------------------|
B|-5-5-5-5-5--5-5-5----------------------------------------------------------|
G|-4-4-4-4-4--4-4-4----------------------------------------------------------|
D|---------------------------------------------------------------------------|
A|---------------------------------------------------------------------------|
E|---------------------------------------------------------------------------|

(Whole break is twice this part)

Chorus X 4

Katy Perry – Roar lyrics

[Verse 1]
I used to bite my tongue and hold my breath
Scared to rock the boat and make a mess
So I sat quietly, agreed politely
I guess that I forgot I had a choice
I let you push me past the breaking point
I stood for nothing, so I fell for everything

[Pre-Chorus]
You held me down, but I got up
Already brushing off the dust
You hear my voice, your hear that sound
Like thunder, gonna shake your ground
You held me down, but I got up
Get ready cause I’ve had enough
I see it all, I see it now

[Chorus]
I got the eye of the tiger, the fighter, dancing through the fire
Cause I am a champion and you’re gonna hear me ROAR
Louder, louder than a lion
Cause I am a champion and you’re gonna hear me ROAR
Oh oh oh oh oh oh
You’re gonna hear me roar

Now I’m floating like a butterfly
Stinging like a bee I earned my stripes
I went from zero, to my own hero

You held me down, but I got up
Already brushing off the dust
You hear my voice, your hear that sound
Like thunder, gonna shake your ground
You held me down, but I got up
Get ready ’cause I’ve had enough
I see it all, I see it now

[Chorus]
I got the eye of the tiger, the fighter, dancing through the fire
‘Cause I am a champion and you’re gonna hear me ROAR
Louder, louder than a lion
‘Cause I am a champion and you’re gonna hear me ROAR
Oh oh oh oh oh oh
You’re gonna hear me roar

Roar-or, roar-or, roar-or

I got the eye of the tiger, the fighter, dancing through the fire
‘Cause I am a champion and you’re gonna hear me ROAR
Louder, louder than a lion
‘Cause I am a champion and you’re gonna hear me ROAR
Oh oh oh oh oh oh
You’re gonna hear me roar