Tag: Hey

Odd chords by Hey Violet ver 2

Capo 4th Fret

[Intro]
Em G D A
Em G D A
Em G D A

[Verse]
Em          G        D
 I was raised by a mom
            A                          Em         G
Who told me I should never listen to another voice
       D    A
But my own
Em             G           D
Now I've grown up, now I know
              A                        Em       G
That when I'm tryna be myself it isn't so simple
   D    A
Anymore

[Prechorus]
     Em             G            D              A
Some days I wake up I just wanna hide under the covers
          Em            G             D               A
'Cause no matter what I do I'll never be like all the others

[Chorus]
Em           G
I'm a little O.D.D
D                  A
Most people really don't get me
Em                  G
I'm the girl in the back of the class
D                  A
Blank stare, don't care, don't ask

Em           G
I'm a little O.D.D
D                      A
And I see the way they look at me
Em                      G
I can hear it when they talk that trash
D                  A
Saying "Any minute she gon' crack"

[Instrumental]
Em G D A
Em G D A

[Verse]
Em       G              D
My sister, bless her heart
           A                              Em       G
She was the only one who had my back when everyone
         D     A
Else did not
Em         G          D
Looking back, it's crazy
         A                           Em       G
I almost turn into the person people told me I
        D    A
I should be

[Prechorus]
     Em             G            D              A
Some days I wake up I just wanna hide under the covers
          Em            G             D               A
'Cause no matter what I do I'll never be like all the others
          Em
Because...

[Chorus]
Em           G
I'm a little O.D.D
D                  A
Most people really don't get me
Em                  G
I'm the girl in the back of the class
D                 A
Pink hair but I'm wearing all black

Em           G
I'm a little O.D.D
D                      A
And I see the way they look at me
Em                      G
I can hear it when they talk that trash
D                  A
Saying "Any minute she gon' crack"

[Instrumental]
Em G D A
Em G D A

[Chorus]
Em           G
I'm a little O.D.D
D                      A
And I see the way they look at me
Em                      G
I can hear it when they talk that trash
D                  A
Saying "Any minute she gon' crack"

Em           G
I'm a little O.D.D
D                  A
Most people really don't get me
Em                  G
I'm the girl in the back of the class
D                 A
Fuck bitches, get money, blow cash

[Instrumental]
Em G D A
Em G D A

[Outro]
Em           G
I'm a little O.D.D
D                  A
Most people really don't get me

Em G D A
       Oh
Suggest correction

Hey Scenesters Tabs – The Cribs V3

 -------------------------------------------------------------------------------
                         Hey Scenesters - The Cribs
-------------------------------------------------------------------------------
: Rory H
 rdeh10@googlemail.com

Tuning: EADGBe

So there are tabs already up for this song, but I didn't find that any of them were accurate enough
for me, so I am posting this as a hopefully more accurate alternative :) As always, please leave any 
improvements or corrections in the comments, or send them to me by email! Enjoy :)

INTRO:
e|-0-5-7----------0-5-7----------|-0-5-7------------------5-7-----|
B|-------0-5-7-0--------0-5-7-0--|-------0-5-7-0--0-5-7-0-----5-7-|
G|-------------------------------|--------------------------------|
D|-------------------------------|--------------------------------|
A|-------------------------------|--------------------------------|
E|-------------------------------|--------------------------------|

HEY SCENESTERS:
e|-x-x--5--5-5--5-5--5--5-5--|-5-7--7--7-7--7-7--7--7-7-|-5-5--5--5-5--7-7--7--7-7--7-|
B|-x-x--7--7-7--7-7--7--7-7--|-7-5--5--5-5--5-5--5--5-5-|-7-7--7--7-7--5-5--5--5-5--5-|
G|-x-x--7--7-7--7-7--7--7-7--|-7-7--7--7-7--7-7--7--7-7-|-7-7--7--7-7--7-7--7--7-7--7-|
D|------0-(0-0--0-0--0--0-0)-|(0-0--0--0-0--0-0--0--0-0)|(0-0--0--0-0--0-0--0--0-0--0)|
A|------0--------------------|--------------------------|-----------------------------|
E|---------------------------|--------------------------|-----------------------------|

YOU LOT:
e|-0-5-7----------0-5-7----------|-0-5-7------------------5-7-----|
B|-------0-5-7-0--------0-5-7-0--|-------0-5-7-0--0-5-7-0-----5-7-|
G|-------------------------------|--------------------------------|
D|-------------------------------|--------------------------------|
A|-------------------------------|--------------------------------|
E|-------------------------------|--------------------------------|

HEY DARLIN:
e|-x-x--5--5-5--5-5--5--5-5--|-5-7--7--7-7--7-7--7--7-7-|-5-5--5--5-5--7-7--7--7-7--7-|
B|-x-x--7--7-7--7-7--7--7-7--|-7-5--5--5-5--5-5--5--5-5-|-7-7--7--7-7--5-5--5--5-5--5-|
G|-x-x--7--7-7--7-7--7--7-7--|-7-7--7--7-7--7-7--7--7-7-|-7-7--7--7-7--7-7--7--7-7--7-|
D|------0-(0-0--0-0--0--0-0)-|(0-0--0--0-0--0-0--0--0-0)|(0-0--0--0-0--0-0--0--0-0--0)|
A|------0--------------------|--------------------------|-----------------------------|
E|---------------------------|--------------------------|-----------------------------|

EVERYBODY'S HAPPY:
e|-0-5-7----------0-5-7----------|-0-5-7------------------5-7-----|
B|-------0-5-7-0--------0-5-7-0--|-------0-5-7-0--0-5-7-0-----5-7-|
G|-------------------------------|--------------------------------|
D|-------------------------------|--------------------------------|
A|-------------------------------|--------------------------------|
E|-------------------------------|--------------------------------|

SHE WAS:
e|-7--7--7-7-7--7--7--7-77777-|-7--7--7-7-7--7--7--7-77777-|-7--7--7-7-7--7--7--7-77777-|
B|-7--7--7-7-7--7--7--7-77777-|-7--7--7-7-7--7--7--7-77777-|-7--7--7-7-7--7--7--7-77777-|
G|-7--7--7-7-7--7--7--7-77777-|-7--7--7-7-7--7--7--7-77777-|-7--7--7-7-7--7--7--7-77777-|
D|----------------------------|----------------------------|----------------------------|
A|----------------------------|----------------------------|----------------------------|
E|----------------------------|----------------------------|----------------------------|

e|-7--7--7-7-7--7--7--7-7-7-x-|
B|-7--7--7-7-7--7--7--7-7-7-x-|
G|-7--7--7-7-7--7--7--7-7-7-x-|
D|----------------------------|
A|----------------------------|
E|----------------------------|

OKAY ALRIGHT (Feel free to just randomly add to this with opens and mutes):
e|-7-7---------------7-5-5-5----7-----------------7-5-5-5---7-7-----------------7-5-5-5-x-7-7-------------|
B|-----7-----------7-x--------0---0-7-----------7---------0-----x7------------7---------x-----7-----------|
G|-------6-x-x-x-7---0----------------6-x-x---

Hey Dude Tabs – Kula Shaker V2

 Kula Shaker - Hey Dude  

Intro

e|--------|--------|--------|
B|--------|--------|--------|
G|--------|--------|--------|
D|--------|--------|--------|
A|--------|--------|--------|
E|--------|--------|--------|
  ^ ^ ^ ^  ^ ^ ^ ^  ^ ^ ^ ^  

e|--------------------------------|--------------------------------|
B|--------------------------------|--------------------------------|
G|----------------------------x-x-|x-x-x-x-x-x-x-x-x-x-x-x-x-x-x-x-|
D|----------------------------x-x-|x-x-x-x-x-x-x-x-x-x-x-x-x-x-x-x-|
A|----------------------------x-x-|x-x-x-x-x-x-x-x-x-x-x-x-x-x-x-x-|
E|----------------------------x-x-|x-x-x-x-x-x-x-x-x-x-x-x-x-x-x-x-| 
  ^       ^       ^       ^        ^       ^       ^       ^      

e|--------------------------------|--------------------------------|
B|--------------------------------|--------------------------------|
G|x-x-x-x-x-x-x-x-x-x---------x-x-|x-x-x-x-x-x-x-x-x-x-x-x-x-x-x-x-|
D|x-x-x-x-x-x-x-x-x-x---------x-x-|x-x-x-x-x-x-x-x-x-x-x-x-x-x-x-x-|
A|x-x-x-x-x-x-x-x-x-x-12/18\5-x-x-|x-x-x-x-x-x-x-x-x-x-x-x-x-x-x-x-|
E|x-x-x-x-x-x-x-x-x-x-12/18\5-x-x-|x-x-x-x-x-x-x-x-x-x-x-x-x-x-x-x-|  
  ^       ^       ^       ^        ^       ^       ^       ^      

e|------------------------|--------------------------------|
B|------------------------|--------------------------------|
G|x-x-x-x-----------------|12\\7---------------------------|
D|x-x-x-x-----------------|12\\7---------------------------|
A|x-x-x-x-7/////15-15-0---|--------------------------------|
E|x-x-x-x-7/////15-15-0---|--------------------------------|  
  ^       ^       ^        ^       ^       ^       ^      

e|--------------------------------|
B|--------------------------------|
G|--------------------------------|
D|--------------------------------|
A|4-4-4-5---5-6/8-10///---18\\6---|
E|4-4-4-5---5-6/8-10///---18\\6---|
  ^       ^       ^       ^   

e[|x-x-x-x----------x-x-x----------|x-x-x-x-------------------------|]
B[|x-x-x-x-8--------x-x-x-8--------|x-x-x-x-8-------8----8--8-------|] 
G[|x-x-x-x-10b12----x-x-x-10-------|x-x-x-x-9-------10---10-10--9---|] ==
D[|x-x-x-x----------x-x-x-10-------|x-x-x-x-10------10---10-10--10--|] x2
A[|--------------------------------|--------------------------------|] ==
E[|--------------------------------|--------------------------------|]
   ^       ^       ^       ^        ^       ^       ^       ^      

e[|x-x-x-x-11-------x-x-x----------|x-x-x-x-11----------------------|]
B[|x-x-x-x-8--------x-x-x--8-------|x-x-x-x-8-------8----8--8-------|]
G[|x-x-x-x-10b12----x-x-x-10-------|x-x-x-x-9-------10---10-10---9--|] ==
D[|x-x-x-x----------x-x-x-10-------|x-x-x-x-10------10---10-10--10--|] x2
A[|--------------------------------|--------------------------------|] ==
E[|--------------------------------|--------------------------------|]
   ^       ^       ^       ^        ^       ^       ^       ^      
Verse 1
 'All I have...'
e|--------------------------------|--------------------------------|
B|--------------------------------|------------------------3---0---|
G|--------------------------------|------------------------3---0---|
D|--------------------------------|------------------------3---0---|
A|--------------------------------|3-------------------------------|
E|3---------------1---------------|--------------------------------|
  ^       ^       ^       ^        ^       ^       ^       ^      
 
e|--------------------------------|--------------------------------|
B|--------------------------------|--------------------------------|
G|--------------------------------|--------------------------------|
D|--------------------------------|--------------------------------|
A|--------------------------------|--------------------------------|
E|--------------------------------|-----------------------15\----3-|
  ^       ^       ^       ^        ^       ^       ^       ^      
 
e|--------------------------------|--------------------------------|
B|--------------------------------|--

Hey Little One chords – Glen Campbell

 Hey Little One (2013)
Glen Campbell
2013 See You There Album
Video with Glen's wife

In key of E unlike original in G
and a little slower and arranged
slightly different.

Intro   E D E D E D E D E D E D E D E 
Heyyyyy  Little one   so far from home   and so alone
 E D E D E D E 
Heyyyyy  Little one   I'm just like you   I'm lonely too
 B E A E 
The road of life is a long long road   when you walk alone
 B E                   
Then I found you and I found a love 
 A E A E D E 
  A love I've never known     a love I've never known
 F# E F# E F# E F# 
Heyyyy Heyyyy Hey Hey Little one   don't go away   tell me you'll stay
 F# E F# E F# E F# E F# 
Heyyy Heyyy Heyy Hey Little one   I'm just like you    I'm so Lonely too

flyinglibra51
God Bless Glen Travis Campbell

Gingerten – Hey There Rose Tyler chords

 Hey There Rose Tyler By GingerTen


Capo on 2
Intro:  C , Em , C , Em 


VERSE 1:
 C Em 
Hey there Rose Tyler, what’s it like in your dimension?
             C Em 
I’m a thousand worlds away, but I’m still seeing your reflection,
        Am F G Am 
In the blue, my hearts are broken without you,
              G 
I swear it’s true. 
 C Em 
Hey there Rose Tyler,  don’t you worry ‘bout my safety 
      C 
If I ever get in trouble, i’ll just run and shout ALLONS-Y, 
         Am F G Am 
Nothing new, still got some running left to do, 
            G 
I’ll run to you… 


CHORUS:
 C Am C Am 
Oh!it’s what you’ve done to me, oh, across the galaxies. 
 C Am F Am 
Oh,it’s what you’ve done to me, oh, you and your BAD WOLF tendencies, 
                     C 
What you’ve done to me…


VERSE 2:                    
 C Em 
Hey there Rose Tyler, when I’d first regenerated,
        C Em              
I knew something now was different, and simply fascinating,
        Am F G Am 
It was you, I found love inside that box of blue,
            G 
And so did you. 
 C Em 
Hey there Rose Tyler, I’ve got so much left to say 
         C Em Am  
If it’s my last chance now to tell you true,that I’ve wanted to say this for some time 
      F G Am 
Please don’t forget me now, don’t cry… 
            G*
Rose Tyler, I… 


CHORUS:
 C Am C Am 
Oh! It’s what you’ve done to me! Oh, across the galaxies…
 C Am C Am                         
Oh, it’s what you’ve done to me! Oh, you and your BAD WOLF tendencies… 


BRIDGE:
 F G      
I’d walk 500 miles for you, 500 more, and when I’m through 
 C Am 
I’d fall down at your door and then I’d say…
 F G Am 
Rose Tyler there’s not time enough , to tell you all the ways I think you’re brilliant
          G 
And I’ve missed you since that day… 
 F G 
Rose Tyler I can promise you, that I’d break time and space for you, 
     Am G 
The universe will remember your name! I’m on my way! 


VERSE 3:
 C Em 
Hey there Rose Tyler, you be good and don’t you miss me
            C Em 
You’ve got TenToo now to help you through, but I can’t re-write hist’ry, 
 Am G Am 
Not this time, there’s nothing I would rather do… 
 F G Am 
But I’ll stand at Bad Wolf Bay with you… 
 F G Am 
Hey there Rose Tyler Don’t be blue… 
           G *
Just kiss TenToo…


FINAL CHORUS:
 C Am C Am 
Oh! It’s what you’ve done to me! Oh, across the galaxies. 
 C Am C Am            
Oh! It’s what you’ve done to me! Oh, you and your BAD WOLF tendencies, 
                     C 
What you’ve done to me… 
 Am 
Oh-OH 
 C 
O-OH
 Am 
Whoa-o-o-oa! 
 C 
Oh-oh, whoa-o-o-oo,
 Am 
Whoa-o-o-o-o, 
 C 
Oh-OH 
 C 
Oh-OH

Hey Hey My My chords – Neil Young V2

 hey hey my my (into the black) (rhythm guitar)
tabbed my Andy Tate

intro

     Am D5 Fmaj9 Am D5 Fmaj9 
e---0-------------------0-0-0-0-0-0-0-----0-------------------0-0-0-0-0-0-0
B---1---------3---------1-1-1-1-1-1-1-----1---------3---------1-1-1-1-1-1-1
G---2---------2---------0-0-0-0-0-0-0-----2---------2---------0-0-0-0-0-0-0
D---2-------0-0---------3-3-3-3-3-3-3-----2-------0-0---------3-3-3-3-3-3-3
A-0-0-0-2-3-----2-0---0-3-3-3-3-3-3-3---0-0-0-2-3-----2-0---0-3-3-3-3-3-3-3
E-------------------3---1-1-1-1-1-1-1---------------------3---1-1-1-1-1-1-1

      C G Am Fmaj9 
e----0---------3-3-3---0-0-0-0--0-0-0-0-0-0
B----1---------3-3-3---1-1-1-1--1-1-1-1-1-1
G----0-------0-0-0-0---2-2-2-2--0-0-0-0-0-0
D----2---0-2---0-0-0---2-2-2-2--3-3-3-3-3-3
A--3-3-3-------2-2-2-0-0-0-0-0--3-3-3-3-3-3
E--------------3-3-3------------1-1-1-1-1-1

Verse 1 
 Am D5 Fmaj9 Am D5 Fmaj9 
 My my, hey hey    Rock and roll is here to stay
 C G Am Fmaj9 
 It's better to burn out  Than to fade away
 Am D5 Fmaj9 
 My my, hey hey.


instrumental break 

     Am D5 Fmaj9 Am D5 Fmaj9 
e---0-------------------0-0-0-0-0-0-0-----0-------------------0-0-0-0-0-0-0
B---1---------3---------1-1-1-1-1-1-1-----1---------3---------1-1-1-1-1-1-1
G---2---------2---------0-0-0-0-0-0-0-----2---------2---------0-0-0-0-0-0-0
D---2-------0-0---------3-3-3-3-3-3-3-----2-------0-0---------3-3-3-3-3-3-3
A-0-0-0-2-3-----2-0---0-3-3-3-3-3-3-3---0-0-0-2-3-----2-0---0-3-3-3-3-3-3-3
E-------------------3---1-1-1-1-1-1-1---------------------3---1-1-1-1-1-1-1

      C G Am Fmaj9 
e----0---------3-3-3---0-0-0-0--0-0-0-0-0-0
B----1---------3-3-3---1-1-1-1--1-1-1-1-1-1
G----0-------0-0-0-0---2-2-2-2--0-0-0-0-0-0
D----2---0-2---0-0-0---2-2-2-2--3-3-3-3-3-3
A--3-3-3-------2-2-2-0-0-0-0-0--3-3-3-3-3-3
E--------------3-3-3------------1-1-1-1-1-1

Verse 2

 Am D5 Fmaj9 Am D5 Fmaj9 
 Out of the blue and into the black    You pay for this, but they give you that
 C G Am Fmaj9 
 And once you're gone, you can't come back
 Am D5 Fmaj9 
 When you're out of the blue and into the black.

instrumental break 

     Am D5 Fmaj9 Am D5 Fmaj9 
e---0-------------------0-0-0-0-0-0-0-----0-------------------0-0-0-0-0-0-0
B---1---------3---------1-1-1-1-1-1-1-----1---------3---------1-1-1-1-1-1-1
G---2---------2---------0-0-0-0-0-0-0-----2---------2---------0-0-0-0-0-0-0
D---2-------0-0---------3-3-3-3-3-3-3-----2-------0-0---------3-3-3-3-3-3-3
A-0-0-0-2-3-----2-0---0-3-3-3-3-3-3-3---0-0-0-2-3-----2-0---0-3-3-3-3-3-3-3
E-------------------3---1-1-1-1-1-1-1---------------------3---1-1-1-1-1-1-1

      C G Am Fmaj9 
e----0---------3-3-3---0-0-0-0--0-0-0-0-0-0
B----1---------3-3-3---1-1-1-1--1-1-1-1-1-1
G----0-------0-0-0-0---2-2-2-2--0-0-0-0-0-0
D----2---0-2---0-0-0---2-2-2-2--3-3-3-3-3-3
A--3-3-3-------2-2-2-0-0-0-0-0--3-3-3-3-3-3
E--------------3-3-3------------1-1-1-1-1-1

Verse 3

 Am D5 Fmaj9 Am D5 Fmaj9 
 The king is gone but he's not forgotten  This is the story of a Johnny Rotten
 C G Am Fmaj9 
 It's better to burn out   than it is to rust
 Am D5 Fmaj9 
 The king is gone  but he's not forgotten.

instrumental bre

Hey Mama chords – David Guetta

 David Guetta  "Hey Mama"
(feat. Nicki Minaj & Afrojack)

You can also use the chorus chords for the verse
 Em                             
Yes I be your woman

Yes I be your baby
 Em 
Yes I be whatever that you tell me when you ready

Yes I be your girl, forever your lady

You ain't never gotta worry, I'm down for you baby

 Em 
Be my woman girl, and I'll be your man
 Em 
Be my woman girl, and I'll be your man

Verse 1
 Em 
Best believe that when you need that
Ill provide that you will always have it
 Em 
I be on deck keep it in check
When you need that I'mma let you have it

Chorus
 Em C 
Beating my drum like dum di di dey
 Am D 
I love the dirty rhythm you play

I wanna hear you calling my name
      Am D 
Like hey mama mama mama hey mama mama
 Em C 
Beating the drum like dum di di dey
 Am D 
I know you want it in the worst way
 Em C 
I wanna hear you calling my name
 Am D 
Like hey mama mama mama hey mama mama

 Em 
Be my woman girl, and I'll be your man
 Em 
Be my woman girl, and I'll be your man

Verse 2
 Em 
Yes I do the cooking
Yes I do the cleaning
 Em 
Yes I keep the nana real sweet for your eating
Yes you be the (boss) yes I be respecting
 Em 
Whatever that you tell me cause its game you be spitting

 Em 
Best believe that when you need that
Ill provide that you will always have it

I be on deck keep it in check
When you need that I'mma let you have it


Chorus
 Em C 
Beating my drum like dum di di dey
 Am D 
I love the dirty rhythm you play

I wanna hear you calling my name
      Am D 
Like hey mama mama mama hey mama mama
 Em C 
Beating the drum like dum di di dey
 Am D 
I know you want it in the worst way
 Em C 
I wanna hear you calling my name
 Am D 
Like hey mama mama mama hey mama mama

 Em 
Be my woman girl, and I'll be your man
 Em 
Be my woman girl, and I'll be your man

Verse
 Em 
Whole crew got the juice
Your dick came the truth
My screams is the proof
Them other dudes get the deuce

 Em 
When I speed in the coupe
Leavin' this interview
It ain't nothing new
I been fucking with you

 Em 
None of them bitches ain't taking you
Just tell 'em to make a U
That's how it be
I come first like debut

 Em 
So baby when you need that
Gimme the word, I'm no good
I'll be bad for my baby

 Em C 
Make sure that he's getting his share
 Am D 
Make sure that his baby take care
 Em C 
Make sure I'm on my toes, on my knees
 Am D 
Keep him pleased, rub him down
Be a lady and a freak

Chorus
 Em C 
Beating my drum like dum di di dey
 Am D 
I love the dirty rhythm you play

I wanna hear you calling my name
      Am D 
Like hey mama mama mama hey mama mama
 Em C 
Beating the drum like dum di di dey
 Am D 
I know you want it in the worst way
 Em C 
I wanna hear you calling my name
 Am D 
Like hey mama mama mama hey mama mama

 Em 
Be my woman girl, and I'll be your man
 Em 
Be my woman girl, and I'll be your man

Hey chords – Andreas Bourani V2

 Vers 1:
            Bm 
Wenn das Leben grad zu allem schweigt
           A/F# 
dir noch eine Antwort schuldig bleibt
            Bm 
dir nichts and'res zuzurufen scheint
      A/F# 
als Nein
           Bm/G 
Es geht vorbei

         Bm 
Wenn der Sinn von allem sich nicht zeigt
       A/F# 
sich tarnt bis zur Unkenntlichkeit
        Bm 
wenn etwas hilft, mit Sicherheit,
       A/F# 
dann Zeit
           Bm/G A 
Es geht vorbei, es geht vorbei


Refrain:
 Bm A/F# 
Hey, sei nicht so hart zu dir selbst
                     Bm/G 
es ist ok wenn du fällst
                     D 
auch wenn alles zerbricht
          A/F# 
geht es weiter für dich

 Bm A/F# 
Hey, sei nicht so hart zu dir selbst
                                Bm/G 
auch wenn dich gar nichts mehr hält
                             D 
du brauchst nur weiter zu geh'n
                 A/F# 
komm nicht auf Scherben zum Steh'n


Interlude:
 Bm A Bm A 


Vers 2:
           Bm 
Wenn die Angst dich in die Enge treibt
         A/F# 
es fürs Gegenhalten nicht mehr reicht
        Bm 
du es einfach grad nicht besser weißt
      A/F# 
dann sei
          Bm/G A 
es geht vorbei, es geht vorbei

       Bm 
Wenn jeder Tag dem andern gleicht
          A/F# 
und ein Feuer der Gewohnheit weicht
        Bm 
wenn Lieben grade kämpfen heißt
     A/F# 
dann bleib
           Bm/G A 
es geht vorbei, es geht vorbei


Refrain:

 Bm A/F# 
Hey, sei nicht so hart zu dir selbst
                    Bm/G 
es ist ok wenn du fällst
                     D 
auch wenn alles zerbricht
            A 
geht es weiter für dich

 Bm A/F# 
Hey, sei nicht so hart zu dir selbst
                           Bm/G 
auch wenn dich gar nichts mehr hält
                             D 
du brauchst nur weiter zu geh'n
                 A 
komm nicht auf Scherben zum Steh'n


 Bm A/F# 
Hey, sei nicht so hart zu dir selbst
                    Bm/G 
es ist ok wenn du fällst
                     D 
auch wenn alles zerbricht
            A Bm 
geht es weiter für dich

 Bm A/F# 
   Sei nicht so hart zu dir selbst
                            Bm/G 
auch wenn dich gar nichts mehr hält
                             D 
du brauchst nur weiter zu geh'n
                                 Bm 
du brauchst nur weiter zu geh'n

New Sum Nous Sommes chords – Hey Rosetta V2

 The change in the chorus between the Dm Em and F has to be fast, as in one strum for Dm and Em

Interlude:  Am C Em G  x2

 C 

Intro:
 C Em G  x 2

 C Em G C 
Oh   see the great citizens
 C Em G C    
with all their white sticks tapping brick
 C Em G C 
They can't see the wire strung in between them
 C Em G 
And all that young scum reeling


 C Em G C 
But oh you do your blinded best
 C Em G C 
With all these arrows through your chest
 C Em G C 
Feel em forcing through and they're forcing you
 C Em G G 
To follow through to where they want you


 Am G C Dm Em F G Em 
Was it a trick of light? shook my head from side to side,
 Am G C Dm Em F G Em 
I seen a million lines, the finest thread strung spine to spine
 Am G C 
   Oh oohh oh oooooh
 Am G C 
   Oh oohh oh oooooh


 C Em G C 
Animals run on the sidewalks
 C Em G C 
Animals run in the national parks
 C Em G C   
And all the bankers and all the beggars 
 C Em G G 
and all the bears are brothers.

 Am G C Dm Em F G Em 
Is it a trick of light? I shake my head from side to side
 Am G C Dm Em F G Em 
We rub our eyes and shake our fists at the passersby
 Am G C Dm Em F G Em 
We scare the kids but mama it's all for the best

Interlude:  Am C Em G Am G C Dm Em F G Em 
What is the new sum, us tied up? with no thumbs?
 Am G C Dm Em F G Em 
Is it a noose hung? and us tied up? with no thumbs?
 Am G C Dm Em F G Em 
Yeah but in the new sum you gotta count us, we see the lines run
 Am G C Dm Em F G Em 
We see the lines run, can you see them? can you see them?
Can you see them? x5

Hey Jealousy chords by Gin Blossoms V4

 This is based on aussiedizzygirl's excellent chords, 
with the formatting changed to put the chords above the lyrics

Intro (0:00)
 D E F#m E D E F#m E 

Verse 1 (0:13)
                D E F#m E 
Tell me do you think it’d be all right, If I could just crash here tonight
             D E F#m E 
You can see I’m in no shape for driving, And anyway I've got no place to go
                 D E F#m E 
And you know it might not be that bad, You were the best I’d ever had
             D E F#m E 
If I hadn't blown the whole thing years ago, I might not be alone

Chorus (0:37)
                 A D A D 
Tomorrow we can drive around this town, And let the cops chase us around
                      F#m E D 
The past is gone but something might be found, To take its place
 D D E F#m E 
Hey jealousy,   Hey jealousy
           D E F#m E 
Hey jealousy,   Hey jealousy

Verse 2 (1:03)
             D E F#m E                
And you can trust me not to think, And not to sleep around
        D E F#m E 
If you don’t expect too much from me, You might not be let down
                    D E F#m E  
Cause all I really want is to be with you, Feeling like I matter too
             D E F#m E 
If I hadn't blown the whole thing years ago, I might be here with you

Chorus (1:27)
                 A D A D 
Tomorrow we can drive around this town, And let the cops chase us around
                      F#m E D  
The past is gone but something might be found, To take its place
 D D    
Hey jealousy,    

Guitar Solo (1:41)
 D E F#m E D E F#m E D E F#m E D E F#m E 

Chorus (2:05)            
                 A D A D 
Tomorrow we can drive around this town, And let the cops chase us around
                      F#m E                
The past is gone but something might be found, To take its
 D 
Place. 
 D D E F#m E 
Hey jealousy,   Hey jealousy
           D E F#m E 
Hey jealousy,   Hey jealousy

Verse 3 (2:30)
                D E F#m E 
Tell me do you think it’d be all right, If I could just crash here tonight
             D E F#m E 
You can see I’m in no shape for driving, And anyway I’ve got no place to go
                 D E F#m E 
And you know it might not be that bad, You were the best I’d ever had
             D E F#m E 
If I hadn’t blown the whole thing years ago, I might not be alone

Out Chorus (2:55)
                 A D A D 
Tomorrow we can drive around this town, And let the cops chase us around
                      F#m 

Hey Jude Acoustic Tabs – Beatles

 Artist: The Beatles
Song: Hey Jude
Provided By Ben Brown

This is a fingerpicking tab for the song hey jude.  There have been others throughout
the web, but this is how I play it and it sounds accurate.  The legend is in the 
bottom.  Enjoy!


 Q    Q   S E   S +E  E E E   Q   S E   S +E  S S +E  E
|-0--|-------------------0-2-|---------------------------|
|----|-2---------2-(2)-2-----|-0---------0-(0)---0-(0)---|
|----|-------2---------2-----|-------1---------1-------2-|
|----|---2-----2-------2---2-|---2-----2-------2-------2-|
|----|-0------------0--------|-----2----------------2----|
|----|-----0-------------0---|-0------------0------------|
       E E E   E    E  E E E   E E E   E    E  E    E  E


  E.   S +Q    E E E E   E S S Q   +E  S S +E  E   E Q   E S  E   S +S   S E
|------5-(5)-----5-4-0-|-2---------------------0-|-2-2---5-7-----------------|
|-3--------------3---3-|-2-5-3-2---(2)---2-(2)---|-3-3-------10---9-(9)-10-7-|
|-4--------------4-----|-2-------------2---------|-2-2--------7------------7-|
|----2-------2---2---2-|---2-----2-----2-------2-|---4---4------7----------7-|
|---------2--------2---|-0----------0-------0----|-0---0---0---------0-------|
|-0------------0-------|-------0-----------------|---------------------------|
  E  E    E  E E E E E   E E   E E  E  E    E  E   E E E E E    E    E     E


  E S S +Q    E E E S S   +E  S S +E  E E Q   S S
|-0-----------------2-0-|-(0)---------0-----------|
|-2-------------0-2-----|---------------3-2-------|
|-2---2-(2)---2---------|-------1-(1)---------1h2-|
|---2-------2---2---2---|-----2-------2---2---2---|
|-0-----------0---0-----|----------2--------2-----|
|--------0--------------|--0------------0---------|
  E E    E  E E E E E      E  E    E  E E E E E


  +Q    S E   S +Q    S E   S
|---------------------5-4---3-|
|-----------------------------|
|-(2)---2-1---0-(0)-----------|
|-----2-----2-------2-----2---|
|--0-------------0------------|
|-------0-------------0-------|
   E  E E   E    E  E E   E


  +E  E E E S +S  E E E   Q   E E +Q    E E   +Q    E E +E  E Q
|-(3)---5---------------|-2---5-2-(2)---5---|-------5-2-(2)-------|
|---------8-7-(7)-5-5---|-3-----3-(3)-----3-|-(3)-----3-(3)-5-3---|
|-----2-----6-(6)---6-7-|---2---2-----2---2-|---------2-(2)-------|
|-----2---5-------5---5-|-0---0-------------|-----4---4-----4---4-|
|--0----0---0-------0---|----------4----4---|--2----2----0----0---|
|-----------------------|-------------------|---------------------|
   E  E E E E     E E E   E E E E  E  E E E    E  E E E  E  E E E


  Q   E E +Q    Q     S S Q   E Q   S E   S   +E  E S E   S +E  E E E
|-0---2-0-(0)-------|---------------5-4---3-|-(3)---5-3---2-(2)-0-0---|
|-------3-(3)---3---|-2p0-------------------|-------------------2---3-|
|-------4-(4)---4---|-----2---1-0-----------|-----2-------------0---0-|
|---2---2-----2---2-|-----2---2---2-----2---|-----2-----2-------2---2-|
|---------------2---|-0---------0-----------|--0-------------0----0---|
|-4---4----0--------|-------0-------0-------|-------0-----------------|
  E E E E  E  E E E   E   E E E E E E   E      E  E E   E    E  E E E


  Q   E E +Q    E E   +Q    E E +E  E E E   +Q    E E +Q    Q
|-2---5-2-(2)---5---|-------5-2-(2)-----0-|-(0)---2-0-(0)-------|
|-3-----3-(3)-----3-|-(3)-----3-(3)-5-3---|---------3-(3)---3---|
|---2---2-----2---2-|---------2-(2)-------|---------4-(4)---4---|
|-0---0-------------|-----4---------4---4-|-----2---2-----2---2-|
|----------4----4---|--2----2-4--0----0---|---------------------|
|-------------------|---------------------|--4----4----0----0---|
  E E E E  E  E E E    E  E E E  E  E E E    E  E E E  E  E E E


  S S Q   E +E  E E E   Q   S E.   E E Q     Q   E E Q   S S E
|-----------------0-2-|-3---2h3----4-5-7---|-7-------------0---|
|-2p0-------------2-3-|-5---5--------------|-5---0-----------7-|
|-----2---2-(2)-2-----|------------4-6-7---|-7-----6-7---------|
|-----2---2-----2-----|---2------2-------6-|---6---6---6-----6-|
|-0-----0----0--------|-

I Got The Blues chords – Dion And The Belmonts

 I Got The Blues:Dion And The Belmonts.
Album - Presenting Dion And The Belmonts on
LAURIE Records in 1958.

INTRO:  E A E 
Well, let me tell you a story, all about those 

blues.
         A 
About a girl I was goin' with who broke my heart 
    E 
in two.
                       B A 
She made me get those blues, baby..boy, oh, boy, 
            E 
what those blues can do to you..(yeh, wah!)

#1.
 E B 
Well, you took my money, honey, and you left me all 
                E 
alone with the blues..yeah, yeah, yeah.
 E B A B A 
Now, it seems I can't forget you, the day that I met 
               E 
you I got the blues..(whoa, oh, oh!)
             B A E 
You left me cryin', there's no denyin', I got the blues.

(ooooohhh, wah, wah!)

BRIDGE:
 E A E A 
Whhhhhhhhyyy, must I cry..(oooo-wah-wah) whhhhyyy did you 
         E 
say goodbye? (oooo-wah-wah!)
     B A 
Oh, why, oh, why, oh, why, did ya?..oh, why, oh, why, oh, why,
     E 
oh, why? (oooo-wah-wah!)

#2.
    B E A 
My friends all heard the news..I'm sufferin' from the blues,
 E 
since we been apart.
         A B A 
I don't know, I don't know, honey, I guess you'll always remain
       E 
in my heart.
 E B A E 
I got the blues, I got the blues, over you..(ooo-wah-wah!)

#3.
 E B A E 
When night time starts til the day time breaks, I get the blues,
                                  E7 
honey, and I'll tell you what it takes.
          B A B A E 
When the one you love ain't with you no more, I go to pieces,
                      E7 B 
baby, and it's just, just for cure, from the blues, oh, yeah,
     A E 
the blues, I got the blues..(oooo-wah-wah!)

#4.
 B E B A E 
Well, one more time, baby, oh, just the poke, one more time.
                        B A B 
And I won't have 'em anymore..one more kiss, honey, oh, just to 
 A E 
kiss those tender lips of yours, one more time.
          B A E 
And I'll lose all the blues, I'll lose all of those blues, yeah.
                              B A E 
Hey! you're gone! hey, baby, not so fast!..(Fade.)



A fifties smash from Kraziekhat.

Harbor Drive Hookup – Hey Pretty Mama chords

 Hey Pretty Mama, Written by Harbor Drive Hookup

INTRO
 G Am C D G 

VERSE 01
 G  
Hey Pretty Mama lookin' back at me
 Am 
When you look back do you like what you see?
 C D G 
Maybe you should stick around a while

Hey Pretty Mama took a like to me
Do you wanna try to make something to keep?
Hey Hey Hey you should stick around

CHORUS
         Em Bm 
But you don't need me, like I need you
    C G 
To keep me from drinkin' and gettin' the blues
 Em Bm 
Hey pretty mama would you stay with me
    C D D7 
To keep me from sinking through

 G Am C D G 

VERSE 02
Hey Pretty Mama do you still love me
Is it still something, that you wanna keep?
I pray every night you'll stick around  

CHORUS

 G Am C D G 

VERSE 03
Hey Pretty Mama now you married me
When you look back do you like what you see?
Do you wanna stick around a while?

CHORUS

 G Am C D G

Hey Darlin Do You Gamble chords – Lucero V2

 C G 
Hey Darlin', do you gamble
           Am F 
Cause I'm running the inside track
 C G 
I'm taking all that I can
         Am F 
And I'm never looking back
 G F C 
I believe you should run with me for a while


          F C 
Hell now I believe you should run with me
            G Am 
Until this Texas sun falls into the sea
                F C 
If I shed this skin of iron and this breath of kerosene
     Am G C 
Now darling would you take a chance on me


 C G 
There's no map shows where I'm going
       Am F 
And I can't say just where I've been
 C G 
But with you, girl, by my side, lord
         Am F 
There's no game that I can't win
 G F C 
I believe you should run with me for a while


          F C 
Hell now I believe you should run with me
            G Am 
Until this Texas sun falls into the sea
                F C 
If I shed this skin of iron and this breath of kerosene
     Am G F 
Now darling would you take a chance on me

 G C 
And I know you don't know what odds I've got
 G C 
But intuition sure counts for a lot
 Am G C F 
And you looked me square in the eyes more than once tonight
 G F 
I figure you and me, we'll make it just fine


 C G 
Hey Darlin', do you gamble
      Am F 
I'll be your gambling man
 C G 
We'll take all that we can
           Am F 
And we'll never look back again
 G F 
I believe you should run with me
 G F C 
I believe you should run with me for a while


          F C 
Hell now I believe you should run with me
            G Am 
Until this Texas sun falls into the sea
                F C 
If I shed this skin of iron and this breath of kerosene
     Am G F 
Now darling would you take a chance on me

          F C 
Hell now I believe you should run with me
            G Am 
Until this Texas sun falls into the sea
                F C 
If I shed this skin of iron and this breath of kerosene
     Am G F 
Now darling would you take a chance on me
     Am G C 
Now darling would you take a chance on me

Hey Mister chords – Crayon Pop

 Crayon Pop - Hey Mister (OST Trot Lovers)


Intro:  Dm Dm Dm Dm  -  A Dm Bb C  (4x)

       
::VERSE::
 Dm Bb Am Dm Bb Am 
beolleongbeolleong beolleongdaeneun naui gaseumi kongdagkongdag kongkongdag kongdag
 Dm Bb Am Dm Bb Am 
sogonsogon sogondaeneun naui ibsuri ssillugssillug ssilssillug ssillug


::PRE-CHORUS::
 C               
bigaona nuniona barambuna nagyeobjina
 F Dm 
saranghaneun nimeulchaja hemaego
 C                             
gidarineun nauinimi eodiseonga bulleojulkka
 A 
nae gaseum beolleonggeorine


::CHORUS::
                          Dm 
geudaeneun naui miseuteo ri ri
                          F 
geudaeneun naui miseuteo gang gang
                          Bb 
geudaeneun naui miseuteo gim gim
                              A 
nae sarang heundeul heundeul heundeulgeorine
                    Dm 
dodohan nae ibsuri sorry sorry
                          F 
naemami heundeulheundeul worry worry
                    Bb 
hey Mr neujjianhge hurry hurry hurry
            A 
geudaeneun naui sarang miseuteo oh!


Interlude:  Dm Bb C  (4x)


::VERSE::
 Dm Bb Am Dm Bb Am 
ulleongulleong ulleongdaeneun naui gaseumi kongdagkongdag kongkongdag kongdag
 Dm Bb Am Dm Bb Am 
peolleogpeolleog peolleogdaeneun neoui osgisi segsisegsi segsegsi segsi


::PRE-CHORUS::
 C               
bigaona nuniona barambuna nagyeobjina
 F Dm 
saranghaneun nimeulchaja hemaego
 C                             
gidarineun nauinimi eodiseonga bulleojulkka
 A 
nae gaseum beolleonggeorine


::CHORUS::
                          Dm 
geudaeneun naui miseuteo ri ri
                          F 
geudaeneun naui miseuteo gang gang
                          Bb 
geudaeneun naui miseuteo gim gim
                              A 
nae sarang heundeul heundeul heundeulgeorine
                    Dm 
dodohan nae ibsuri sorry sorry
                          F 
naemami heundeulheundeul worry worry
                    Bb 
hey Mr neujjianhge hurry hurry hurry
            A 
geudaeneun naui sarang miseuteo oh!


::BRIDGE::
 Bb Gm Dm                        
  eonjejjeum nae nimi olyeona barami neomu chagaun bam 
   Bb Gm 
  mideul su eobseo bameul hemaeneun
   A 
  nal arabosilkka


::CHORUS::
                          Dm 
geudaeneun naui miseuteo ri ri
                          F 
geudaeneun naui miseuteo gang gang
                          Bb 
geudaeneun naui miseuteo gim gim
                              A 
nae sarang heundeul heundeul heundeulgeorine
                    Dm 
dodohan nae ibsuri sorry sorry
                          F 
naemami heundeulheundeul worry worry
                    Bb 
hey Mr neujjianhge hurry hurry hurry
            A 
geudaeneun naui sarang miseuteo oh!


Outro: Dm

I Believe Get Over Yourself chords – Nico Vega

 Hey!  ever, so I have no clue if it's helpful at all, but I 
tried my best to make this as accurate as possible.

Intro:
 C G C G C G G C     
I was standing, in the corner
 G 
 and you opted to come over.
           C 
 You said "c'mon girl, join the party.
          G 
 You look lonely"
 and then suddenly I replied
 I said,

 C 
I'm afraid of almost everything I'm not sure what kinds of songs to sing and 
        G 
when I met you, you made me think
 C   
 that I could be almost anything
 that I could rise above it all endlessly
    G 
 and you brought me back to life


 C 
I believe, I believe, I believe that this is your life and it can move you
 G  
You believe that things are better when left unsaid but you're a fool cause 
 F 
you don't believe in anything good
 it happened to the people it should
 G 
But I believe in you, so get over yourself.

 C G D C 
Well no one, had ever spoken
        G 
 to me like that
 and yeah it kinda turned me on
 C 
 but I was foolin', actin' cool and
       G 
 I was hopeless
 well I'm better off on my own

 C 
but I'm afraid of almost everything I'm not sure what kinds of songs to sing 
 G 
and when I met you, you made me think
 C 
 that I could be almost anything
 that I could rise above it all endlessly
 B B G 
 and you brought me back to life

 C 
I believe, I believe, I believe that this is your life and it can move you
 G  
You believe that things are better when left unsaid but you're a fool cause 
 F 
you don't believe in anything good
 it happened to the people it should
 G 
But I believe in you, so get over yourself.
 C 
I believe, I believe, I believe that this is your life and it can move you
 G  
You believe that things are better when left unsaid but you're a fool cause 
 F 
you don't believe in anything good
 it happened to the people it should
 G 
But I believe in you, so get over yourself.


 Am 
And I'm so excited,
 B 
 and I cant deny it,
 C G 
 now I wont hide it
 ooooo
 A 
 Now I just cant fight it,
 B 
 and I cant describe it.
 C 
 Oh I'm so excited
 oooooo

 C 
I believe, I believe, I believe that this is your life and it can move you
 G  
You believe that things are better when left unsaid but you're a fool cause 
 F 
you don't believe in anything good
 it happened to the people it should
 G 
But I believe in you, so get over yourself.
 C 
I believe, I believe, I believe that this is your life and it can move you
 G  
You believe that things are better when left unsaid but you're a fool cause 
 F 
you don't believe in anything good
 it happened to the people it should
 G 
But I believe in you, so get over yourself.

Outro:

 C G F G C G F Gm G

Liar Liar Tabs by Cris Cab

 Cris Cab (feat. Pharrell) - Liar Liar
Hey, this is my first try to write a melody, I hope you like it!
You can watch it here:

My channel:
http://www.youtube.com/user/DreamToYourMusic


VERSE
E|---------------------------------------------------------------------------|
H|--5-8-5---------5-8-5------------------------------------------------------|
G|--------5-5-5-8-------5-5-5-8------7-5----------7-5------------------------|
D|-------------------------------5-8-----5-7---5-8-----5-7-------------------|
A|---------------------------------------------------------------------------|
E|---------------------------------------------------------------------------|
 -> repeat

CHORUS
E|---------------------------------------------------------------------------|
H|--5-8-5(hold)---5-8-5(hold)------8-8-6--6-6-8----------8-8-6--6-6-8--------|
G|---------5-5-----------5-5-----5----------------5-8--5--------------5-8----|
D|---------------------------------------------------------------------------|
A|---------------------------------------------------------------------------|
E|---------------------------------------------------------------------------|

VERSE (2x)
CHORUS

BRIDGE
E|----------------play|------------------------------------------------------|
H|----------------this|------------------------------------------------------|
G|--5--5----------part|--7-5-5------------7-5-5------------------------------|
D|---7--7--5-8\7--3x! |--------8-8-7-7--7-------5-7/8\7/8-7------------------|
A|--------------------|------------------------------------------------------|
E|--------------------|------------------------------------------------------|

Bye guys!

Hey Brother solo Tabs by Avicii

 Trumpet Solo
e|-------|--------------------------------------------------------|
B|-------|-----------6-8-8-6---------------6—8h10p8---------------|
G|-------|---------7---------------------7---------10—7p5---------|
D|-8-7---|-5-5-5-8-----------------8---8------------------8-5-5-5-|
A|-------|---------------------8h10-------------------------------|
E|-------|--------------------------------------------------------|

e|-----------------------------------------------------|
B|---------8-8-6--------------6--8-h10p8---------------|
G|-------7------------------7-----------10—7p5---------|
D|---5-8--------------8---8-------------------8-5-5-5--|
A|----------------8h10---------------------------------|
E|-----------------------------------------------------|

 
e|-----------------------------------------------------|
B|------6-8-8-6---------------6—8h10p8-----------------|
G|----7---------------------7---------10—7p5-----------|
D|--8-----------------8---8------------------8-5-5-5---| 
A|---------------8h10----------------------------------|
E|-----------------------------------------------------|

e|------------------------------------|
B|---------8-8-6-----------8-6---6----|
G|-------7---------------------7---5--|
D|---5-8--------------8---------------|
A|----------------8h10----------------|
E|------------------------------------|

      
e|--------------------------------------------------------|
B|-----------6-8-8-6---------------6—8h10p8---------------|
G|---------7---------------------7---------10—7p5---------|
D|-5-5-5-8-----------------8---8------------------8-5-5-5-|
A|---------------------8h10-------------------------------|
E|--------------------------------------------------------|



e|--------------------------------------------------------|
B|---------8-8-6---------------6-8h10p8-------------------|
G|-------7-------------------7----------10—7p5------------|
D|---5-8--------------8----8-------------------8-5--------|
A|----------------8h10------------------------------------|
E|--------------------------------------------------------|

Maps chords – Hey Ocean

 Maps - Hey Ocean

Intro:
 G5 Am7 G/B C5 G5 G5 
You drew a map so we'd remember
 Am7 
All the places that we went to
 G/B C5 G5 
And although we never meant to we lost it on our way

 G5 
You drew a map so we'd remember
 Am7 
How to get back to the highway
 G/B C5 G5 
But instead we followed moonlight and were completely lead astray

 C5 D5 G5 
We have traveled this way, all of our days
                     C5 D5 
And we will keep on following the dotted lines
                        G5 
'Til we find a better place

 G5 Am7 
We took a trail down to the beach where
We heard the music play before
     G/B 
The fires they went on forever
       C5 G5 
Like flaming jewels upon the shore

 G5 
We sat there soaking up the starlight
 Am7 
And sang along to every song
 G/B 
Though we didn't know the words
 C5 G5 
We made them up as we went along

 C5 D5 G5 
We have traveled this way, all of our days
                     C5 D5 
And we will keep on following the dotted lines
                        G5 
'Til we find a better place

Instrumental:
 G  F#m3  Em D6 Cmaj7 D6  (x2)

 G5                            
You drew a map so we'd remember
 Am7 
All the places that we went to
 G/B C5 (hold)
And although we never meant to we lost it on our way

(hold/Piano)
 C5 D5 G5 
We have traveled this way, all of our days
                     C5 D5 
And we will keep on following the dotted lines
                        G5 
'Til we find a better place

Instrumental
 G  F#m3  Em D6 Cmaj7 D6  (x2)

(With Instrumental chords)
We have traveled this way, all of our days
We will travel this way, all of our days
We have traveled this way, all of our days
We will travel this way, all of our days
All of our days. 

------------------------------------------------------------------
This song is actually meant to be plucked rather than strum, but you can do either
------------------------------------------------------------------
Chords:EADGBe
 G5      3550xx
Am7    5350xx (0350xx on half the beat)
 G/B     02500x
 C5      03550x
 D5      05770x
G     010900x (This song uses a high G, I suppose 3200xx is acceptable)
F#m3   09700x
 Em      07550x
 D6      05440x
 Cmaj7   03200x (03240x Sounds better though)

Hey Sweetheart chords – Nightmare Of You

 The chords got adjusted a bit but they're all relatively in place 

VERSE ONE
 G 
Hey sweetheart,
don't take it so
          Em 
ha-a-a-ard  
I'm sorry I was bringing you down
 C D 
I didn't mean it when I said
                                 G         
that I wish you were dead

 G 
And hey sweetheart,
                                    Em 
is that your new ca-a-a-ar
Why don't you drive it off of a cliff?
 C D 
Because I can't stand your life
                                  G 
since I am no longer in it


PRE CHORUS
               C A Am 
And the pain is real,
       G D F 
but so are the pills (so are the pills)
 Em G 
    "I can talk to my therapist,
              C D 
pretend you don't exist"

CHORUS

 G 
The further you go,
              Em 
the colder my bones begin to grow
                         F 
They're cracking and creaking,
                 D 
creating a big scene
       G 
in the vessel
     Am            
of my body

INSTRUMENTAL:  G Em C D G Am 

VERSE TWO
         G 
And hey sweetheart,
                               Em 
how far is too fa-a-a-ar?
Because now I've got some blood on my hands
 C D 
It may have been a mistake,
                          G 
but I am only a man

PRE CHORUS
               C A Am 
And the pain is real,
       G D F 
but so are the pills (so are the pills)
 Em G 
    "I can talk to my therapist,
              C D 
pretend you don't exist"


CHORUS
 G 
The further you go,
              Em 
the colder my bones begin to grow
                         F 
They're cracking and creaking,
                 D 
creating a big scene
       G 
in the vessel
     Am            
of my body

 G 
The further you go,
              Em 
the colder my bones begin to grow
                         F 
They're cracking and creaking,
                 D 
creating a big scene
       G 
in the vessel
   C Am            
of my body