Tag: high

High Hopes piano chords by Panic! At the Disco

[Intro]
Bb   F   Dm   C
Bb   F   Dm   Am

[Chorus]
            Bb                     F
Had to have high, high hopes for a living
                 Dm                           C
Shooting for the stars when I couldn't make a killing
              Bb                      F
Didn't have a dime but I always had a vision
           Dm         Am
Always had high, high hopes

            Bb                     F
Had to have high, high hopes for a living
            Dm                     C
Didn't know how but I always had a feeling
            Bb                F
I was gonna be that one in a million
           Dm         Am
Always had high, high hopes

[Verse 1]
     Bb
Mama said
F
Fulfill the prophecy
Dm
Be something greater
C
Go make a legacy
Bb
Manifest destiny
F
Back in the days
          Dm          Am
We wanted everything, wanted everything

     Bb
Mama said
F
Burn your biographies
Dm
Rewrite your history
C
Light up your wildest dreams
Bb                F
Museum victories, everyday
          Dm          Am
We wanted everything, wanted everything

[Pre-Chorus]
    F               A           Dm         Bbm
Mama said don't give up, it's a little complicated
         F          A             Dm              Bbm
All tied up, no more love and I'd hate to see you waiting

[Chorus]
            Bb                      F
Had to have high, high hopes for a living
                 Dm                           C
Shooting for the stars when I couldn't make a killing
              Bb                      F
Didn't have a dime but I always had a vision
           Dm         Am
Always had high, high hopes

            Bb                     F
Had to have high, high hopes for a living
            Dm                     C
Didn't know how but I always had a feeling
            Bb               F
I was gonna be that one in a million
           Dm         Am
Always had high, high hopes

[Verse 2]
     Bb
Mama said
F
It's uphill for oddities
Dm
The stranger crusaders
C
Ain't ever wannabes
Bb
The weird and the novelties
F
Don't ever change
          Dm                 Am
We wanted everything, wanted everything

Bb             F
Stay up on that rise
                Dm                  C
Stay up on that rise and never come down
Bb              F
Stay up on that rise
                Dm                 
Stay up on that rise and never come down

[Pre-Chorus]
F                    A          Dm           Bbm
Mama said don't give up, it's a little complicated
         F             A            Dm            Bbm
All tied up, no more love and I'd hate to see you waiting
             F                        A                       Dm   Bbm
They say it's all been done but they haven't seen the best of me
         F            A                            Dm    Bbm
So I got one more run and it's gonna be a sight to see

[Chorus]
            Bb                     F
Had to have high, high hopes for a living
                 Dm                           C
Shooting for the stars when I couldn't make a killing
              Bb                      F
Didn't have a dime but I always had a vision
           Dm         Am
Always had high, high hopes

            Bb                     F
Had to have high, high hopes for a living
            Dm                     C
Didn't know how but I always had a feeling
            Bb               F
I was gonna be that one in a million
           Dm         Am
Always had high, high hopes

            Bb                     F
Had to have high, high hopes for a living
                 Dm                           C
Shooting for the stars when I couldn't make a killing
              Bb                      F
Didn't have a dime but I always had a vision
           Dm         Am
Always had high, high hopes

            Bb                     F
Had to have high, high hopes for a living
            Dm                     C
Didn't know how but I always had a feeling
            Bb               F
I was gonna be that one in a million
           Dm         Am
Always had high, high hopes

When Were High Piano Chords by LP

C                         B            Am            B7
   There was a time there was a life I was inside my head
C               B     Am       C     B
Then finally I rested in your bed
C         B        Am           B7
The bars the dives the worst of vibes
C          B          Am       B7
I thought had come to pass
C         B           Am             C       B
But still I couldn't seem to make it last

C                B           Am
I'd swallow the moon and the star
B          Am               B
To follow the beat of your heart

C
When we're high
B                     Am
Oh my god you blow my mind
B            C
So let's get high
B             Am
Live until we die

Am    B
Yeah yeah

C
You and I
B                         Am
Let's just do it one more time
B7        Am
A million times
B          C
Let's get high
B             Am
Live until we die

Am    B
Yeah yeah

C        B      Am        B7
A state of mind collected like
C        B      Am          B
A slowly wound bouquet
C     B          Am           B7          B     C      B
With memories of our favorite nights and days

C                   B          Am
Let's swallow the moon and the stars
B                   Am          B
Let's swallow just right where we are

C
When we're high
B                     Am
Oh my god you blow my mind
B            C
So let's get high
B             Am
Live until we die

Am    B
Yeah yeah

C
You and I
B                         Am
Let's just do it one more time
B7        Am
A million times
B         C
Let's get high
B             Am
Live until we die

Am    B
Yeah yeah

B           Am
You blow my mind

Am           B
You blow my mind

C     Am  C       B
Oh my my kiss the sky
C     Am   C        B
Jimmy baby you were right
B         Am
She's so fine
B          Am
Hips don't lie
B      Am    B        Am
Hit me baby one more time
C            B      C              B
Go ahead and insert any random ass line
B
Go ahead

Am    B
Yeah yeah

C  B

C
Cause hen we're high
B                     Am
Oh my god you blow my mind
B            C
So let's get high
B             Am
Live until we die

Am   B
Yeh yeah

C
You and I
B                         Am
Let's just do it one more time
B7        Am
A million times
B          C
Let's get high
B             Am
Live until we die

Am    B
Yeah yeah

B             Am
You blow my mind
B              Am
Live until we die

Am    B
Yeah yeah


When Were High Chords by LP

There is no capo at this song  tuning is EADGBE  Have fun!
I used c in this song which is at third fret

C                         B            Am            B7
   There was a time there was a life I was inside my head
C               B     Am       C     B
Then finally I rested in your bed
C         B        Am           B7
The bars the dives the worst of vibes
C          B          Am       B7
I thought had come to pass
C         B           Am             C       B
But still I couldn't seem to make it last

C                B           Am
I'd swallow the moon and the star
B          Am               B
To follow the beat of your heart

C
When we're high
B                     Am
Oh my god you blow my mind
B            C
So let's get high
B             Am
Live until we die

Am    B
Yeah yeah

C
You and I
B                         Am
Let's just do it one more time
B7        Am
A million times
B          C
Let's get high
B             Am
Live until we die

Am    B
Yeah yeah

C        B      Am        B7
A state of mind collected like
C        B      Am          B
A slowly wound bouquet
C     B          Am           B7          B     C      B
With memories of our favorite nights and days

C                   B          Am
Let's swallow the moon and the stars
B                   Am          B
Let's swallow just right where we are

C
When we're high
B                     Am
Oh my god you blow my mind
B            C
So let's get high
B             Am
Live until we die

Am    B
Yeah yeah

C
You and I
B                         Am
Let's just do it one more time
B7        Am
A million times
B         C
Let's get high
B             Am
Live until we die

Am    B
Yeah yeah

   C                           B
E|-----------------------------------------------|
B|-----------------------------------------------|
G|-----0-0-------0-0-----------------------------|
D|-0-2-----4-2-4-----4-2-4-4-2-1-2-4-4-2-1-------|
A|-----------------------------------------------|
E|-----------------------------------------------|

B           Am
You blow my mind

  C               Am                   B
E|-----------------------------------------------|
B|-----------------------------------------------|
G|-----0-0-------0-2-0---------0-0---------0-----|
D|-2-4-----4-2-4-------4-2-2-4-----4-2-1-2----2--|
A|-----------------------------------------------|
E|-----------------------------------------------|


Am           B
You blow my mind

C     Am  C       B
Oh my my kiss the sky
C     Am   C        B
Jimmy baby you were right
B         Am
She's so fine
B          Am
Hips don't lie
B      Am    B        Am
Hit me baby one more time
C            B      C              B
Go ahead and insert any random ass line
B
Go ahead

Am    B
Yeah yeah

C  B

C
Cause hen we're high
B                     Am
Oh my god you blow my mind
B            C
So let's get high
B             Am
Live until we die

Am   B
Yeh yeah

C
You and I
B                         Am
Let's just do it one more time
B7        Am
A million times
B          C
Let's get high
B             Am
Live until we die

Am    B
Yeah yeah

B             Am
You blow my mind
B              Am
Live until we die

Am    B
Yeah yeah

On A High chords – Duncan Sheik

 Artist: Duncan Sheik 
Title: On a High
 Daylight (2003)


Key: E major
Tempo: 122 BPM
: Ras Loyola


Introduction:
 A G#m C#m A G#m C#m 


Verse:
             A G#m C#m 
I'm on a high, I'm on a high there's nothing more to it
                  A G#m C#m 
We are the sea and the sky and the blue that runs through it, yeah
                     A G#m C#m 
And there are some who say there are so many things I need
          A G#m C#m 
So I run or I fight and I crawl or I scream and I bleed, I bleed, I bleed


Chorus:
                 B 
Well, it's a lie, it's a lie don't you believe it
             F#m 
If you're fine, then you're fine it's all how you see it
         A E 
Oh, there never will be no conspiracy of happiness.


Verse:
             A G#m C#m 
I'm on a high, I'm on a high and there's nothing more to it
                A G#m C#m 
I have the sun, it's a star why should I refuse it
                A G#m C#m 
And there are so many reasons I could give you why I should be down
                         A G#m C#m 
There's not enough money or time and my love you're not around, around, around


Chorus:
                 B 
t's a lie it's a lie don't you believe it
             F#m 
If you're fine then you're fine, it's all how you see it
         A E 
Oh, there never will be no conspiracy of happiness.
             B 
You're alive you're alive, how else could you hear me?
             F#m 
You are fine, you are fine, there's nothing worth fearing
         A E 
No, there never will be no conspiracy of happiness


Bridge:
             D 
I'm on a high on a high
           E 
We are the sea and the sky
             F#m 
I'm on a high, on a high
             G#m A 
I'm on a high


Chorus:
        B 
It's a lie, It's a lie, don't you believe it
                 F#m 
'Cause I've tried and I've tried, and I can't really see it
               A E 
Yeah, I'm trapped inside my conspiracy of happiness
         B 
Said I was yours, you were mine but I didn't really mean it
           F#m 
And I lied, and I lied and I wish you hadn't seen it
              A E 
Now I'm trapped inside my conspiracy of happiness

 B F#m A E 
(A bunch of ohh's. Repeat twice)


Outro:
             A F#m 
I'm on a high, on a high, there's nothing more to it, yeah
(Then top it off with a sweet C#m7)

The Tide Is High chords – The Paragons

 The Tide Is High
The Paragons
1967 B-side to "Only A Smile"
Standard tuning

      G C D 
 The tide is high but I'm holding on
  G C D 
 I'm gonna be your number one

  G 
 I'm not the kinda man 
  C D G C D 
 Who gives up just like that, oh no
  G C D 
 It's not the things you do, that really hurts me bad
  G C D 
 But it's the way you do the things you do to me
  G C D G C D 
 I'm not the kinda man who gives up just like that, oh no

  G C D 
 The tide is high but I'm holding on
  G C D 
 I'm gonna be your number one
  C D C D 
 Number one, number one

  G C D 
 Every man wants you to be his girl
  G C D 
 But I'll wait, my dear, 'til it's my turn
  G C D G C D 
 I'm not the kinda man who gives up just like that, no

 (Violin solo - Same chords, one letter = one bar) 

  G  -  G  -  C  -  D  x 4

  G C D 
 Every man wants you to be his girl
  G C D 
 But I'll wait, my dear, 'til it's my turn
  G C D G C D 
 I'm not the kinda man who gives up just like that, no

  G C D 
 The tide is high but I'm holding on
  G C D 
 I'm gonna be your number one
  G C D 
 The tide is high but I'm holding on
  G C D 
 I'm gonna be your number one

How High The Moon Tabs – Les Paul And Mary Ford V2

 HOW HIGH THE MOON

As recorded by Les Paul & Mary Ford
(Released as a Single in 1951)

Words by Nancy Hamilton
Music by Morgan Lewis
Arranged by Les Paul

 Slowhand


Gtr I (E A D G B E) - 'Les Paul - Electric Guitar'
Gtr II (E A D G B E) - 'Les Paul - Electric Guitar'


 Intro
  Q=240(8=s8)
                 A
 4/4
  Gtr I (Clean El. Gtr.)
  W              E  E  E  E  E  E  E E
|--------------|-----------------------|
|--------------|-------------5-----5---|
|--------------|-6-----6-----6-----6---|
|--------------|-7-----7-----5-----5---|
|--------------|-7-----7-----7-----7---|
|--------------|-5-----5-----5-----5---|
|
| Gtr II (Clean El. Gtr.)
| H    Q  E  E   E  E  E  E  E  E  E E
|-----------17-|---17-17-17-17-17-17---|
|-----------14-|---14-14-14-14-14-14---|
|-----------14-|---14-14-14-14-14-14---|
|--------------|------------17-17-17---|
|--------------|-----------------------|
|--------------|-----------------------|


  D          F7           E7
   E  E  E E  E  E  E E    E      E E E  E      E E E
|-----------------------|-----------------------------|
|--7-----7----6-----6---|-----------------------------|
|--7-----7----8-----8---|--7--------7----7--------7---|
|--7-----7----7-----7---|--6--------6----6--------6---|
|--5-----5----8-----8---|--7--------7----7--------7---|
|-----------------------|-----------------------------|
|
|  E  E  Q    E  E  Q      Q        Q    Q        Q
|-17-17-17---17-17-17---|-20b20.5-------20b20.5-------|
|-15-15-15---16-16-16---|-19b19.5-------19b19.5-------|
|-16-16------17-17-17---|-----------------------------|
|-16-16------15-15-15---|-----------------------------|
|-----------------------|-19\-------------------------|
|-----------------------|-----------------------------|


  A                   E7         A
   E      E E  E      E E E  E   E  E  E  E  E  E  E E
|------------------------------|-----------------------|
|------------------------------|-------------5-----5---|
|--6--------6---------7---7----|-6-----6-----6-----6---|
|--7--------7---------6---6----|-7-----7-----5-----5---|
|--7--------7---------7---7----|-7-----7-----7-----7---|
|--5--------5------------------|-5-----5-----5-----5---|
|
|  Q        E  E      Q   E  E   E  E  E  E  E  E  E E
|-20b20.5-----20b20.5-------17-|---17-17-17-17-17-17---|
|-19b19.5-----19b19.5-------14-|---14-14-14-14-14-14---|
|---------------------------14-|---14-14-14-14-14-14---|
|------------------------------|------------17-17-17---|
|------------------------------|-----------------------|
|------------------------------|-----------------------|


  D          F7           A         E7
   E  E  E E  E  E  E E    E  E E E E E  E  E
|-----------------------|----------------------|
|--7-----7----6-----6---|----------------------|
|--7-----7----8-----8---|--6----6---7----7-----|
|--7-----7----7-----7---|--7----7---6----6-----|
|--5-----5----8-----8---|--7----7---7----7-----|
|-----------------------|--5----5--------------|
|
|  E  E  Q    E  E  Q      Q    Q   Q    Q
|-17-17-17---17-17-17---|-14\-----------14\----|
|-15-15-15---16-16-16---|-14\-----------14\----|
|-16-16------17-17-17---|-14\-----------14\----|
|-16-16------15-15-15---|-14\-----------14\----|
|-----------------------|----------------------|
|-----------------------|----------------------|


                 1st Verse
                  A/E     A6/E      A/E      A6/E      Am/E      Am6/E
  E E Q  Q  Q     E E E E E E E E   E  E E E E E E E   E  E E  E  E E E  E
|--------------||-----------------|------------------|----------------------|
|--------------||-5---5---7---7---|-5----5---7---7---|-5----5-----7---7-----|
|-6---6--6--6--||-6---6---6---6---|-6----6---6---6---|-5----5-----5---5-----|
|-7---7--7--7--||-7---7---7---7---|-7----7---7---7---|-7----7-----7---7-----|
|-7---7--7--7--||-7---7---7---7---|-7----7---7---7---|-7----7-----7---7-----|
|-5---5--5--5--||-----------------|------------------|----------------------|
|
| W               W          

Champagne Supernova Acoustic chords – Noel Gallaghers High Flying Birds V3

 Standard Tuning) (Capo 3) (Please Take a Moment to Comment or Rate !,,!) 

Intro:  G2  |  Fmaj7  |  Cmaj7  |  G2  -  Am7/G  

Verse 1:
       
 G2 
How many special people change?
        
     Fmaj7 
How many lives are living strange?

 Cmaj7 G2   
Where were you while we were getting high?
             
       
Slowly walking down the hall
      
 Fmaj7 
Faster than a cannon ball
        
 Cmaj7 G2 
Where were you while we were getting high?

Chorus:

 G2 
Someday you will find me
       
                    Fmaj7 
Caught beneath the landslide
           
 Cmaj7 G2 
In a Champagne Supernova in the sky
           
            
Someday you will find me
           
                    Fmaj7 
Caught beneath the landslide
      
      Cmaj7 
In a Champagne Supernova
 
   G2 
A Champagne Supernova in the sky...

 G2  |  Fmaj7  |  Cmaj7  |  G2  

Verse 2: 

 G2 
Wake up the dawn and ask her why?
         
   Fmaj7 
A dreamer dreams she never dies
     
           Cmaj7 G2  
Wipe that tear away now from your eye
              
                     
Slowly walking down the hall
              
 Fmaj7 
Faster than a cannon ball
           
 Cmaj7 D 
Where were you while we were getting high?

Chorus 2:
                  G 
Someday you will find me

                    F 
Caught beneath the landslide

      C G 
In a Champagne Supernova in the sky
         
            
Someday you will find me

                    F 
Caught beneath the landslide

      C 
In a Champagne Supernova
          
   G 
A Champagne Supernova

Bridge:
  F                            
'Because people believe that they're
       
                        G 
Gonna get away for the summer

 F                           
But you and I, we live and die

     C                       
The world's still spinning round
             
               D 
We don't know why?

                G 
Why? Why? Why? Why?

Solo:  G2  |  Fmaj7  |  Cmaj7  x2

Verse 3:

 G2 
How many special people change?
        
     Fmaj7 
How many lives are living strange?

 Cmaj7 G2 
Where were you while we were getting high?
             
       
Slowly walking down the hall
      
 Fmaj7 
Faster than a cannon ball
        
 Cmaj7 D 
Where were you while we were getting high?

Chorus: 
              G 
Someday you will find me

                    F 
Caught beneath the landslide

      C G 
In a Champagne Supernova in the sky
         
            
Someday you will find me

                    F 
Caught beneath the landslide

      C 
In a Champagne Supernova
          
   G 
A Champagne Supernova


Bridge:
  F                            
'Because people believe that they're
       
                        G 
Gonna get away for the summer

 F                           
But you and I, we live and die

     C                       
The world's still spinning round
             
               D 
We don't know why?

                G 
Why? Why? Why? Why?

Solo:  G  |  Fmaj7  |  Em  |  Eb Fmaj7  (x4) |  Eb Fmaj7  (x2)

 G2  |  Fmaj7  |  <s

Half The World Away Acoustic chords – Noel Gallaghers High Flying Birds

 (Standard Tuning) (Capo 2) (Please Comment or Rate !,,!)

Intro:  C  |  Fmaj7  x2

Verse 1: 

 C Fmaj7 
Well, I would like to leave this city

 C Fmaj7 
This old town don't smell too pretty and

 C Em7 Am D7 Fmaj7   
I can feel the warning signs running around my mind


Verse 2:

 C Fmaj7 
And when I leave this island 

 C Fmaj7 
I'll book myself into a soul asylum

 C Em7 Am D7 Fmaj7   
And I can feel the warning signs running around my mind

Bridge:

 Am C Em7 Am 
So here I go still scratching around in the same old hole

 Fmaj7 D7 G G6 
My body feels young, but my mind is very old

Chorus:

 Am C 
So what do you say?

           Em7 Am 
You can't give me the dreams that are mine anyway

 F 
You're half the world away

 Fm 
Half the world away

 C Em7 Am 
Half the world away

           Dm7 Fmaj7 
I've been lost I've been found but I don't feel down. 

 C  |  Fmaj7  x2

Verse 3:

 C Fmaj7 
And one day I am gonna leave this planet

 C Fmaj7 
You would know I'd stay, but I just can't stand it and

 C Em7 Am D7 Fmaj7   
I can feel the warning signs running around my mind


Verse 4:

 C Fmaj7 
And one day I am gonna leave my spirit 

 C Fmaj7 
Find me a hole and I would live in it

 C Em7 Am D7 Fmaj7   
And I can feel the warning signs running around my mind


Bridge:

 Am C Em7 Am 
here I go still scratching around in the same old hole

 Fmaj7 D7 G G6 
My body feels young, but my mind is very old (la da da)...

Chorus:

 Am C 
what do you say?

           Em7 Am 
You can't give me the dreams that are mine anyway

 F 
You're half the world away

 Fm 
Half the world away

 C Em7 Am 
Half the world away

       Dm7 Fmaj7 
I was lost I was found, but I don't feel down. 


 C Fmaj7 
Don't Feel down

 C Fmaj7 
Don't feel down 

 C Fmaj7 
Don't feel down... 

Outro:

 C  |  Em7  |  Am  |  Dm7  |  Fmaj7  |  C

High Road Tabs – Mastodon

 -------------------------------------------------------------------------------
                             High road - Mastodon
-------------------------------------------------------------------------------
: myskimasa

Song structure at the bottom. I had trouble with [gtr2] in chorus and [gtr3] in
so-called solo. Please send corrections if you've got any!

Tuning: D standard, drop A

INTRO/VERSE
[gtr1+2]
d|------|-------------------------------------------------|
A|------|--------------------------------------------7-\--|
F|-10-\-|--4-------5-4---------7-4-------------------8-\--|
C|-10-\-|--4-------5-4---------7-4-------------------8-\--|
G|--8-\-|--2-------3-2---------5-2-------------------6-\--|
A|------|------0-0-----0-0-0-0-----0-0-0-0-0-0-0-000------|

d|--------------------------------------------|
A|--3-------4-3-------------------------------|
F|--4-------5-4---------------------2---10-\--|
C|--4-------5-4---------------------2---10-\--|
G|--2-------3-2---------------------0----8-\--|
A|------0-0-----0-0-0-3p0-1p0-0-1p0-----------|

CHORUS
[gtr1]
d|---------------------------------------------------|
A|---------------------------------------------------|
F|---------------------------------------------------|
C|---------------------------------------------------|
G|--7-7-7-7-7-7-7-7-6-6-4-411111111111111111010-9-9--|
A|--5-5-5-5-5-5-5-5-4-4-2-2-9-9-9-9-9-9-9-9-8-8-7-7--|

d|---------------------------------------------------|
A|---------------------------------------------------|
F|---------------------------------------------------|
C|---------------------------------------------------|
G|--7-7-7-7-7-7-7-7-6-6-4-4111111131313141414181818--|
A|--5-5-5-5-5-5-5-5-4-4-2-2-9-9-9111111121212161616--|

[gtr2]
d|---------------------------------------------------|
A|--------------------------9-9-9-9-9-9-9-911111212--|
F|--9-9-9-9-9-9-9-9-8-8-6-6-x-x-x-x-x-x-x-x-x-x-x-x--|
C|--x-x-x-x-x-x-x-x-x-x-x-x-6-6-6-6-6-6-6-6-8-8-9-9--|
G|--7-7-7-7-7-7-7-7-6-6-4-4--------------------------|
A|---------------------------------------------------|

d|---------------------------------------------------|
A|--------------------------9-9-9-9-9-9--------------|
F|--9-9-9-9-9-911111111-911-x-x-x-x-x-x-8-8-8111111--|
C|--x-x-x-x-x-x-x-x-x-x-x-x-6-6-6-6-6-6-x-x-x-x-x-x--|
G|--7-7-7-7-7-7-9-9-9-9-7-9-------------6-6-6-9-9-9--|
A|---------------------------------------------------|

INTERLUDE
[gtr1]
d|---------------------------------------------------|
A|---------------------------------------------------|
F|---------------------------------------------------|
C|---------------------------------------------------|
G|--7-7-7-7-7-7-7-7-7-7-7-7101010101010101010101010--|
A|--5-5-5-5-5-5-5-5-5-5-5-5-8-8-8-8-8-8-8-8-8-8-8-8--|

[gtr2]
d|------------------------7--------------------------|
A|----0-----------7---910----------------10--131012--|
F|--------7---9---------------0--10--12--------------|
C|--9---9---9---9---9------12--12--12--12--12--------|
G|---------------------------------------------------|
A|---------------------------------------------------|

"PRE-SOLO"
[gtr1]
d|------------------------------------------|
A|------------------------------------------|
F|--9---9---7-9-7---7---5-7-4---4---2-4---5-|
C|--9---9---7-9-7---7---5-7-4---4---2-4---5-|
G|--7---7---5-7-5---5---3-5-2---2---0-2---3-|
A|------------------------------------------|

d|------------------------------------------|
A|------------------------------------------|
F|--9---9---7-911--11---9-7-4-------2-5---7-|
C|--9---9---7-911--11---9-7-4-------2-5---7-|
G|--7---7---5-7-9---9---7-5-2-------0-3---5-|
A|------------------------------------------|

[gtr2]
d|-----------------------------------------|
A|----------810/12-10---810-7---7h8p7------|
F|--9---9-----------------------------9----|
C|--------------------------------------9--|
G|-----------------------------------------|
A|-----------------------------------------|

d|----------------10--141514-14h15p14-b1

High School Never Ends chords – Bowling For Soup V3

 : Fabio BlenderBR

 - Give your rating and help others users to find the best versions of the songs -


Intro: 
 A D A D A Em A     (2x)


Verse:
 A 
4 years you think for sure 
 F#m 
That's all you got to endure
 G                    
All the total dicks, all the stuck-up chicks
 D 
So superficial so immature
 A                       
Then when you graduate
 F#m 
You take a look around and you say Hey Wait!
 G                                           
This is the same as where I just came from
 D 
I thought it was over, Aw that's just great!
 

Chorus:
     A D A 
The whole damned world is just as obsessed
 D A E A 
With who's the best dressed and who's havin' sex
 A D A 
Who's got the money, who gets the honeys
 D A E A 
Who's kinda cute, and who's just a mess
         D E                  
And you still don't have the right look
         D E 
And you don't have the right friends
 D D/C# E 
Nothing changes but the faces the names and the trends


Intro: 
 A D A D A Em A     (2x)
 

Verse 2:
 A                           
Check out the popular kids
 F#m 
You'll never guess what Jessica did.
 G                                   
And how did Mary Kate lose all that wait?
 D 
And Katy had a baby so I guess Tom's straight.
 A                                  
And the only thing that matters
 F#m 
Is getting up that social ladder.
 G 
Still care about your hair and the car you drive.
 D 
Doesn't matter if your 16 or 35.


Bridge:
 Em A Em A 
Reese Witherspoon, she's the prom queen
 Em A Em A 
Bill Gates, captain of the chess team.
 Em A 
Jack Black, the clown,
 Em A 
Brad Pit the quarterback.
 D 
Seen it all before
   E 
I want my money back!


Chorus:
 A D A 
The whole damned world is just as obsessed
 D A E A 
With who's the best dressed and who's havin' sex
 A D A 
Who's in the club, who's on the drugs,
 E A 
Who's throwing up before they digest. 
         D E                  
And you still don't have the right look
         D E 
And you don't have the right friends
 D D/C# E     
And you still listen to the same shit you did back then 


Intro: 
 A D A D A Em A     

Solo:
 B G# A E 


Chorus: 
     B E B      
The whole damned world is just as obsessed
  E B F# B 
with who's the best dressed and who's havin' sex
 B E B       
Who's got the money, who gets the honeys
  E B F# B 
who's kinda cute, and who's just a mess
       E F#                    
And I still don't have the right look
       E F# 
and I still have the same three friends
           C#m <s

Do The Damage chords – Noel Gallaghers High Flying Birds V2

 INTRO:
 Em D C B A G D 
(Listen to the song to get the strumming pattern...it's very much like the intro to "My Big Mouth" by Oasis)
Em (just keep chugging this, sounds pretty good palm muted on an acoustic in my opinion)

 Em 
There’s gold in the city
 Em 
But never quite enough now to pay the rent
 Em 
You could've had it all, but the pity
 Em 
Is everything you’re gonna need is heaven sent

 Em 
Maybe the dream that we had is gone
 Em 
The people 'round here are like a setting sun
 Em G A 
They’re digging you up when they’re knocking you down
A                   Em (I like to bend the strings here...definitely hold this note out)
But they can’t stop me from loving you

BRIDGE: 
 Em G A Em G D Em G A Em G D Em G A 
Be my butterfly, but please don't flutter by
 Em G D 
You do the damage kid
 Em G A 
If love's what it's all about it's so like a juggernaut
 Em G D 
You do the damage kid

 Em G A Em G D Em G A G A  
Em (start chugging this last Em again)

 Em  
Like a stone I was falling
 Em 
Will anybody come and get me out of here?
 Em G A Em 
I waited in the rain for the calling
 Em G A Em 
Will anybody come and get me out of here?

 Em G A Em 
Maybe the dream that we had is gone
 Em G A Em 
The people 'round here are like a setting sun
 Em G A 
They’re digging you up when they’re knocking you down
 A Em 
But they can’t stop me from loving you

 Em G A Em G D Em G A 
Be my butterfly, but please don't flutter by
 Em G D 
You do the damage kid
 Em G A 
If love's what it's all about it's so like a juggernaut
 Em G D 
You do the damage kid

 Em G A 
Be my butterfly, but please don't flutter by
 Em G D 
You do the damage kid
 Em G A 
If love's what it's all about it's so like a juggernaut
 Em G D 
You do the damage kid

OUTRO: 
 Em G A Em G D Em G A G A Em

While The Song Remains The Same chords – Noel Gallaghers High Flying Birds

 "While The Song Remains The Same" - Noel Gallagher's High Flying Birds - 2014
                     wranglingoutlaw


Intro - |  G  |  Em C  | x3
        |  G  ..

...        Em C G 
For every whispered lullaby
             Em C G 
And all the castles in the sky
           Em C G 
For every word I'll ever need
            Em C G 
And all My friends are bound to leave

             Em C G 
For all the times I fell in love
             Em C G 
And when My love was not enough
             Em C G 
And for the future I don't see
             Em C G 
Just let it come down over Me
             Em C G  
Just let it come down over Me


|  C Em  |  G C  |   x3


|  Am  |  C  |   x2

|  Em C  |  G  |  Em C  |  G  ..

...        Em C G 
For every whispered lullaby
             Em C G 
And all the castles in the sky
           Em C G 
For every word I'll ever need
             Em C G 
Just let it come down over Me
             Em C G  ..
Just let it come down over Me


Habits Stay High chords – Tove Lo

 Artist: Tove Lo
Song: Habits (Stay High)
Video: https://www.youtube.com/watch?v=oh2LWWORoiM
Transcription: SCA, kostya.levin.sca 

Tuning: standard
Capo: NO capo

Chords used:

Timing for the whole song is: 
 Bb Dm F F 

Intro:
 Bb Dm F F 
  Oh oh, oh oh, oh oh

Verse:
 Bb Dm 
I eat my dinner in my bathtub
              F 
Then I go to sex clubs
                 F 
Watching freaky people getting it on
 Bb Dm 
  It doesn't make me nervous
                 F 
If anything I'm restless
                 F 
Yeah I've been around and I've seen it all
 Bb Dm 
  I get home I got the munchies
                 F 
Binge on all my Twinkies
                 F 
Throw up in the tub then I go to sleep
 Bb Dm 
  And I drank up all my money
                F 
Tasted kind of lonely
        F 
You're gone and I got to stay 

Chorus:
 Bb 
High
         Dm F 
All the time to keep you off my mind
        F 
Oo oo, oo oo
 Bb 
High
         Dm F 
All the time to keep you off my mind
        F 
Oo oo, oo oo
 Bb Dm 
Spending my days locked in a haze
             F 
Tryna forget you babe
             F 
I fall back down I gotta stay 
 Bb Dm 
High all my life
                       F 
To forget I'm missing you
        F  
Oo oo, oo oo

Verse:
 Bb Dm 
  Pick up daddys at the playground
                F 
How I spend my daytime 
               F 
Losing up the frown make them feel alive 
 Bb Dm 
  Or make it fast and greasy
                  F F 
I'm on my way to easy, xou're gone and I gotta stay 

Chorus:
 Bb 
High
         Dm F 
All the time to keep you off my mind
        F 
Oo oo, oo oo
 Bb 
High
         Dm F 
All the time to keep you off my mind
        F 
Oo oo, oo oo
 Bb Dm 
Spending my days locked in a haze
             F 
Tryna forget you babe
             F 
I fall back down I gotta stay 
 Bb Dm 
High all my life
                       F 
To forget I'm missing you
        F  
Oo oo, oo oo

Bridge:
 Bb 
Stayin in the play pretend
 Dm F F 
Where the fun ain't got no end
 Bb 
Can't go home alone again
 Dm F F 
Need someone to numb the pain
 Bb 
Stayin in the play pretend
 Dm F F 
Where the fun ain't got no end
 Bb 
Can't go home alone again
 Dm F 
Need someone to numb the pain
        F 
You're gone and I gotta stay 

Chorus:
 Bb 
High
         Dm F 
All the time to keep you off my mind
        F 
Oo oo, oo oo
 Bb 
High
         Dm F 
All the time to keep you off my mind
        F 
Oo oo, oo oo
 Bb Dm 
Spending my days locked in a haze
             F 
Tryna forget you babe
             F 
I fall back down I gotta stay 
 Bb Dm 
High all my life
                       F 
To forget I'm missing you
        F  
Oo oo, oo oo


Note:
If you have any corrections or improvements to the tab write
them on the comments 

Used To Get High Tabs by John Butler

 I really like this song but I was searching for a standard tuning tab.
It wasn't available on the internet so I've made it by my self.
Hope you like it!


John Butler - Used To Get High
Standard Tuning (EADGBe)
Capo 1

   Verse
E |----x------------------x------------------x------------------x------------------|
B |----x------------------x------------------x------------------x------------------|
G |----x------------------x------------------x------------------x------------------|
D |----x-0----------------x-0----------------x----------------0-x------------------|
A |----x-0/2\0--0/2\0-----x-0/2\0--0/2\0-----x----------------5-x------------------|
E |--0-x----------------0-x----------------3-x-3/5\3--3/5\3-----x-3/5\3--3/5\3-----|

   Chorus
     E     G    D/G
E |-----|-----|-----|
B |-----|-----|--3--|
G |-----|--4--|-----|
D |--2--|--5--|--4--|
A |--2--|--5--|--5--|
E |-----|--3--|--3--|


I used to get high for a living
Believing everything that I saw on my tv
I used to get high for a living
Eating all the bullshit food that they sold me
I used to get high for a living
Thinking that my destiny was out of my control
I used to get high for a living
There's lots of different reasons and i'll tell you so

Super size, large fries, big mac, coca cola
Go on man, pick your poison
Speed, weed, ecstacy, LSD
Man, it don't bother me cos we're all on something
Caffeine, cigarettes, alcohol
You know i'm clawing at the walls trying to get my fix
Prozac, ADD tablets, coke, smack
Now you know i am turning tricks cos

I used to get high for a living
Believing everything that I saw on my tv
I used to get high for a living
Eating all the bullshit food that they sold me
Yeah, that they sold me



Escape, can't wait all trying to get away
From this place man that we're feeling
Can't deal, can't feel what's real
All trying to conceal all this time we're stealing
No doubt, the route you're on
Can't find the clout that you've been needing
'Til then my friend you must contend
With the monster that you're feeding

I used to get high for a living
Believing everything that i saw on my tv
I used to get high for a living
Eating all the bullshit food that they sold me
I used to get high for a living
Thinking that my destiny was out of my control
I used to get high for a living
There's lots of different reasons and i'll tell you so



Got links of the cheney
Getting crazy, getting lazy with their foreign relations
Starting wars, closing doors
Trying to bring about one quicker, man, revelations
Economic rational calling fouls with the workers
Just trying to make it pay
Cost cutting, head butting
Big business do what they like and you do what they say

What's wrong get along, just prolong all the thoughts
You got going on, on the inside
Appease, stand at ease, just try to please
All the apathy that you're trying to hide
How now brown cow
Did we get from this standing place......
And now we're kneeling
'Til then my friend you must contend with the monster that you're feeding

I used to get high for a living
Believing everything that i saw on my tv
I used to get high for a living
Eating all the bullshit food that they sold me
I used to get high for a living
Thinking that my destiny was out of my control
I used to get high for a living
There's lots of different reasons and i'll tell you so





Something like that...

High Noon In Killville chords – Angry Johnny And The Killbillies

 Angry Johnny and The Killbillies - High Noon in Killville


 Am C5  
Bruce and Ed and I walked into Old Pappy's Foodmart
 G5 F5 Am 
Bruce and Ed were brothers and they were not very smart
 Am C5 
But I needed some men fast to help me with this one big score
 G5 F5 Am 
Then I'd never have to rob another grocery store
 Am C5 
Fill the bag with money I said to the cashier
 G5 F5 Am 
Fill the bag with money honey and we'll get out of here
 Am C5  
But somebody tripped the alarm and then all Hell broke loose
 G5 F5 Am 
The bag boy he pulled out a gun and blew a hole through Bruce
 Am C5 
Ed caught the bag boy in the chest with both barrels from his twelve
 G5 F5 Am 
The bag boy flew back twenty feet into the produce shelf
 Am C5 
That was for my brother Ed shouted through his tears
 G5 F5 Am 
Now we faced the electric chair instead of 15 years


 Am C5 
I grabbed that bag of money and I headed for the door
 G5 F5 Am 
I didn't wanna die in some stinking grocery store
 Am C5 
But the parking lot was already crawlin' thick with cops
 G5 F5 Am 
That what you get when you rob a store 'round the corner from the donut shop
 Am C5 
Sheriff Big Dick Turner he was runnin' the whole show
 G5 F5 Am 
He said throw your guns down come on out boys let them people go
 Am C5 
You boys don't stand a chance your little heist has failed
 G5 F5 Am 
But I knew Big Dick Turner and we'd never reach his jail
 Am C5 
Ed looked up through the window just to see what was going on
 G5 F5 Am 
A bullet pierced his forehead and the back of Ed's head was gone
 Am C5 
The cashiers they were screaming Ed's brains were everywhere
 G5 F5 Am 
It seemed Big Dick was right there was no gettin' out of there

 Am C5 
A car pulled up some folks got out - it was my mom and dad
    G5 F5 Am 
My daddy yelled out kid you're the worst son I ever had
 Am C5 
You're really in it this time you're really in it deep
 G5 F5 Am 
I hope they blow your brains out you good for nothing creep
 Am C5 
Sheriff Big Dick Turner yelled get 'em out of here
     G5 F5 Am 
And I sent the cashier to the stock room to bring me back some beer
 Am C5 
The family plan had failed plan B was coming soon
 G5 F5 Am 
I was starring in my very own Dog Day Afternoon


 Am C5 
Then they brought a woman out my true love Madeline
     G5 F5 Am 
She left me seven months before and I hadn't seen her since
 Am C5 
She left me for the bouncer at the bowling alley bar
     G5 F5 Am 
She left him two weeks later for some guy who sold used cars
 Am C5 
She said Franky please come out of there you're in an awful jam
 G5 F5 Am 
Franky please come out of there and we can start agai

Fire Aim Your Arrows High chords Vsaemerge V2

 VersaEmerge - Fire (Aim Your Arrows High)

Intro :  Em C#m C Em C 
Take a look around
           C#m 
Our time's almost running out
 Em C 
Give back what you get,
            C#m 
Uproot questions in your head

       Em C C#m 
The looking-glass is clear...
  Em C C#m 
What you want is near... nearly gone

 Em     
Shoot out all the lights, hold your ground, we'll hit the sky
      C#m C 
It's time you aim your arrows high
 Em 
Take down all the doubt, cast it out, let's do it now
      C#m C 
It's time we aim our arrows high

 Em C 
Sewn into your soul,
          C#m 
This is out of our control
     Em C 
Be who you need to be
            C#m 
There's no other you or me

       Em C C#m 
The looking-glass is clear...
  Em C C#m 
What you want is near... nearly gone

 Em     
Shoot out all the lights, hold your ground, we'll hit the sky
      C#m C 
It's time you aim your arrows high
 Em 
Take down all the doubt, cast it out, let's do it now
      C#m C 
It's time we aim our arrows high

 C Dadd9 Em 
The angst you hold, you got to let it go, let it go!
                                                       G Am 
Said to myself "I'm so alone", but I'm never alone...
                      
I'll walk in war to find the impossible

 B  (799800)
Yes, we're hexed

Stuck in a mess
                    B (799877)
We're all such a wreck!


 Em     
Shoot out all the lights, hold your ground, we'll hit the sky
      C#m C 
It's time you aim your arrows high
 Em 
Take down all the doubt, cast it out, let's do it now
      C#m C 
It's time we aim our arrows high


 Em C#m C 
Shoot out all the lights, shoot out all the lights
 Em C#m C  
Aim your arrows high, aim your arrows high...

High As The Moon chords – Get Up Kids

 The Get Up Kids
High As The Moon
On A Wire
2002 Vagrant Records
Submitted by: jeremyunderground41

Key: D

Tuning: Standard EADGBe

Chords used:
 D  -     xx0232
 A  -     x02220
 Bm  -    x24432
 G  -     320033
 Em  -    022000
 F#/Bb  - x143xx
 E/G#  -  476xxx


Intro:  D - Bm - G - A - x2


Verse 1:
 D Bm 
  I build an altar for you
 G A D 
  Out of Polaroids and pins
        Bm G A 
on the wall of my room
 D Bm 
  I don't know what to
 G A 
do Waiting for you
 D Bm G A 
  should be a sin


Chorus 1:
 G Em 
  Out at south station
              D 
It builds me up
                Bm 
it's all I can do
                 G 
High as the moon
                A 
waiting for you
To come back
           D Bm G A D Bm G A 
to my room


Verse 2:
 D Bm 
  I built an altar for you
 G A 
  I Hope you come around
 D Bm G A 
  all roads lead to my house
 D Bm 
  I had a question for you
 G A 
  I'm telling the truth
 D Bm G A 
  I froze at the sound


Chorus 2:
 G Em 
  Out at south station
              D 
It builds me up
                Bm 
it's all I can do
                 G 
High as the moon
                A 
waiting for you
To come back
    F#/Bb 
to my room


Bridge:
 Bm Em 
  All I can say
Is show me some
         G 
strength Come
            E/G# 
over please
             A 
Your enemies
           F#/Bb 
Won't get to   you
 Bm 
  Waiting to speak
 Em 
  Days into weeks
 A E/G# 
  Come over please
           A 
No enemies


Chorus 3:
 G Em 
  Out at south station
              D 
It builds me up
                Bm 
it's all I can do
                 G 
High as the moon
                A 
waiting for you
To come back
       D 
to me please
      Bm A 
Come over soon
    Em D 
No enemies
      Bm A 
Come over see
     Em D (hold)
I'm begging you


Outro:  D - Bm - A - Em - x4  D (Hold)

Flowers Bloom Tabs by High Highs

 ----------------------------------------------------------------
                             FLOWERS BLOOM - High Highs
----------------------------------------------------------------
: Bowen Jones
 jonesb93

Tuning: Standard

Verse:

e|---------------------10---10--------------------------|
B|----8---8---10---10-------------8---8---8---8---------|
G|------------------------------------------------------| x6
D|------------------------------------------------------|
A|--6--6----8---8---------------6--6----6--6------------|
E|--------------------6---6-----------------------------|

After the 4th play through of the above riff, a second guitar comes in

e|------------------------------------------------------|
B|------------------------------------------------------|
G|------------7-5---------------------------------------| x2
D|--5---5/7---------5-----------------------------------|
A|------------------------------------------------------|
E|------------------------------------------------------|

Chorus:

   Gm     A    Gm    F
e|--3-----1-----3----1----------------------------------|
B|--3-----3-----3----1----------------------------------|
G|--3-----3-----3----2----------------------------------|
D|--5-----3-----5----3----------------------------------| x2
A|--5-----1-----5----3----------------------------------|
E|--3-----------3----1----------------------------------|

Post-chorus

        Gm              A               
e|------------------------------------------------------|
B|--------3---------------3----6---------3---------6----|
G|----3---------5----7--------------3---------3---------| x2
D|--5----5----7----7----3----3----5----5----5----3------|
A|------------------------------------------------------|
E|------------------------------------------------------|


Outro:

   Gm     A    Gm    F
e|--3-----1-----3----1----------------------------------|
B|--3-----3-----3----1----------------------------------|
G|--3-----3-----3----2----------------------------------|
D|--5-----3-----5----3----------------------------------| x2
A|--5-----1-----5----3----------------------------------|
E|--3-----------3----1----------------------------------|

e|------------------------------------------------------|
B|---------3---------3---------3---------6--------------|
G|----3---------3---------3---------5-------------------|
D|--5----5----5----5----5----5----7----7----------------| x2
A|------------------------------------------------------|
E|------------------------------------------------------|

    A
e|--1--|
B|--3--|
G|--3--|
D|--3--|
A|--1--|
E|-----|
    

************************************

| /   slide up
| \   slide down
| h   hammer-on
| p   pull-off
| ~   vibrato
| +   harmonic
| x   Mute note
| b   Bend
| pb  Pre-bend
| br  Bend release
| pbr Pre-bend release
| brb Bend release bend

************************************