Tag: hillsong

Pursue All I Need Is You chords – Hillsong

 Title: Jesus I Need You
 Open Heaven / River Wild
Artist: Hillsong Worship

Note - For the best ringing sounds in this medley, transpose down the chords - 3 semitones and play on capo 3!


Intro:
 Em G Em G  


Verse 1:
   Em G  
I close my eyes to see
    Em G  
My king in majesty
      Am C  
Your grace compels my soul
    Am C   
To love and draw in close


Verse 2:
   Em G  
I lift my hands and sing
    Em G  
Surrender everything
    Am C   
In You I know I'm found
    Am C  
My God to You I'll bow


Chorus:
              Em C      
Now until forever, Jesus I surrender
                G D  
Show me what I don't know, more of You
                        Em C        
I'm desperate for Your presence, longing to be with You
              G D  
Lead me to a new place, more of You


Verse 3:
             Em G   
Through the fire I'll persevere
            Em G  
I won't submit to any fear
         Am C  
Where I go, You've been before
        Am C    
All my trust is in You Lord


Chorus:
              Em C     
Now until forever, Jesus I surrender
                G D  
Show me what I don't know, more of You
                        Em C        
I'm desperate for Your presence, longing to be with You
              G D   
Lead me to a new place, more of You
(repeat x2)


Instrumental:
 Am C G D Am C G D  


Bridge 1:
 Am             
Lead me to You
    C G D  
Forever Lord I will pursue, I will pursue
 Am                  
You've won my heart
 C G D  
Jesus You're all that I want, all that I want
(repeat x3)


Instrumental:
 Am C G D Am C G D  


Bridge 2:
               Am C  
All I need is You 

               G D       
All I need is You, Lord, is You, Lord
               Am C  
All I need is You 
{c:(repeat x3)}

               G D       
All I need is You, Lord, is You, Lord


Instrumental:
 Am C G D D      
/(     Is You Lord
                             Am C  
/     (Jesus) All I need is You 
                     G D            
/     All I need is You Lord, Is You Lord     )
 Am C G D  


Bridge 1:
 Am             
Lead me to You
    C G D  
Forever Lord I will pursue, I will pursue
 Am                  
You've won my heart
 C G D  
Jesus You're all that I want, all that I want


Outro:
 Am           
Open my eyes
 C G D   
Let me know more of Your love, more of Your love
 Am               
Here I will wait
 C G D  
Just for a glimpse of You God, I'll wait for You God


 Am C G D C

Amim Van – Arms Open Wide chords – Hillsong United

 [Intro]
 C 

[Vers 1]
 C 
 Amim van, hozom eléd
 Am 
 Leteszem a keresztnél
 G F C 
 Legyen minden csak Tiéd Uram

[Vers 2]
 C 
 Minden lépés, minden szó
 Am 
 Legyen tiszta, mint a hó
 G F C 
 Ahol járok, Te legyél az Út

[Kórus]
     F C G Am 
Ó - ó, szomjas szívem Terád vár
     F Am G 
Ó - ó, arra vágyom, ölelj át

[Vers 3]
 C 
 Minden óra, minden nap
 Am 
 Minden sóhaj, gondolat
 G F C 
 Rólad szóljon, Rólad Uram

[Kórus]

[Átvezetés]
       C G Am 
Egész életem átadom, hadd legyen Tiéd
        F G F G 
Velem bármit terveztél legyen meg! Örökké

Nincs Más Csak Jézus – One Way chords – Hillsong United

 [Intro 2x]
 C G Am F 

[Vers 1]
 C 
 Leteszem az életem
 Am 
 Csak Te vagy az egyetlen
 G F 
 Minden percben szükségem van Rád
 C 
 Futok hozzád minden nap
 Am 
 Tudom jól Te el nem hagysz
 G F 
 Te vagy minden amiről álmodtam

[Kórus]
 C G 
 Nincs más, csak Jézus
 Am F 
 Ő az akiért a szívem dobban

[Vers 2]
 C 
 Te vagy minden mindenben
 Am 
 Te vagy Úr a szívemben
 G F 
 Bármit nézek szemem téged lát
 C 
 Soha meg nem változol
 Am 
 Te uralkodsz mindenhol
 G F 
 Te vagy egyedül a hatalmas Király

[Átvezetés]
 C G 
Te vagy az út, Te vagy a cél
 Am F C 
Hitben járok, futok a győzelemért
     G Am F 
A szívem Érted ég

Vivo Estás chords – Hillsong United V3

 Vivo Estás (Alive) - Hillsong Young and Free

INTRO (2 veces):  C#m  -  E/G#  -  A A    -  C#m   -  B 
I ESTROFA
 C#m E/G# A 
Roto estaba mi corazón
    A C#m B 
Pero tu mano me rescató
 C#m E/G# A 
Del polvo yo volví a nacer
        A C#m B 
La salvación en ti encontré

 C#m E/G# A 
Tu amor no puedo expresar
  A C#m B 
Te seguiré por la eternidad
 C#m E/G# A 
En tu gracia caminaré
  A C#m B 
En libertad siempre viviré

Pre-Coro
 C#m E/G# A 
En ti, en ti, en ti, soy libre
 A C#m B 
Sé exaltado, sé exaltado
 C#m E/G# A 
Tu amor, tu amor, tu amor no se acaba
 A C#m B 
Oh  oh   oh

CORO
           C#m E/G# A 
Tú vivo estás   en    mí
                 A C#m B 
No hay nadie en tu lu - gar
        C#m E/G# A 
Te necesi - to   Dios
          A C#m B 
Eres mi li - ber - tad

INTRO (1 veces):  C#m  -  E/G#  -  A A    -  C#m   -  B 
II ESTROFA
 C#m E/G# A 
Al pasar por la oscuridad
      A C#m B 
Su luz siempre me guiará
 C#m E/G# A 
Mis cadenas Jesús rompió
    A C#m B 
Con su mano me rescató

 C#m E/G# A 
Este mundo terminará
      A C#m B 
Te seguiré hasta el final
 C#m E/G# A 
Haz en mí Dios tu voluntad
       A C#m B 
Venga tu reino a este lugar

Anchor solo Tabs – Hillsong Live V2

 -------------------------------------------------------------------------------
                             HILLSONG LIVE - Anchor
-------------------------------------------------------------------------------
 Glorious Ruins
: andrewbishop


Tuning: Standard

SOLO:

e|--------------------------------------------------------------------------------------------------|
B|--16-16-16-14-14-14-17-17-----------------------------9-9-9-9-10-10-10-10--7-7-7-7-7-7-7-7--------|
G|--------------------------14-14-14-13-13-13--11-13-14---------------------------------------------|
D|--------------------------------------------------------------------------------------------------|
A|--------------------------------------------------------------------------------------------------|
E|--------------------------------------------------------------------------------------------------|

e|--------------------------------------------------------------------------------------------------|
B|--16-16-16-14-14-14-17-17-----------------------------9-9-9-9-10-10-10-10--16-16-16-16-16-16-16-16|
G|--------------------------14-14-14-13-13-13--11-13-14---------------------------------------------|
D|--------------------------------------------------------------------------------------------------|
A|--------------------------------------------------------------------------------------------------|
E|--------------------------------------------------------------------------------------------------|




************************************
Andrew Bishop


Relentless chords – Hillsong United V5

 "For I am convinced that neither death nor life, 
neither angels nor demons, 
neither the present nor the future, 
nor any powers, neither height nor depth, 
nor anything else in all creation, 
will be able to separate us 
from the love of God that is
in Christ Jesus our Lord." 
--Romans 8:38-39

This version is on Capo 4 but 
if you prefer playing without
capo then just transpose these chords 4 times lower.

Relentless
Matt Crocker, Joel Houston

Capo 4
Verse 1:
 G C Em  
 Salvation sounds a new beginning
 C G C Em  
   As distant hearts begin believing
 C G C Em 
   Redemption's bid is unrelenting
       C G C Em 
Your love goes on, Your love goes on

Pre-Chorus:
      C Em G D 
You carry us, carry us, when the world gives way
  C Em G D 
Cover us, cover us, with Your endless grace

Chorus:
 G C Em C          
 Your love is relentless, Your love is relentless
 G C Em C G  
 Your love is relentless, Your love is relentless

Verse 2:
 G C Em  
The time is up for chasing shadows
 C G C Em  
You gave the world a light to follow
 G C Em  
A hope that shines beyond tomorrow
 C G C Em  
Your love goes on, Your love goes on

Bridge:
 D Em C G 
 Tearing through the veil of darkness, breaking every chain, You set us free
 D Em C G 
 Fighting for the furthest heart You gave, You're alive for all to see

Poderoso Para Salvar chords – Hillsong United

 Hillsong United
Poderoso para salvar
AUTOR: Ben Fielding
 Con Todo (2010)

////////////////////////////////////

Verso 1:
 D A 
Todos necesitan
                 F#m 
Amor que nunca falla
    E D 
Tu gracia y compasión
           A 
Todos necesitan
              F#m 
Perdón y esperanza
       E D 
De un Dios que salva
 D - E - D - E 

Coro:
 A E 
Cristo, Puede mover montes
           D A 
Solo Dios puede salvar
          Bm E 
Mi Dios puede salvar
 A E 
Por siempre, Autor de salvación
           D A 
Jesús la muerte venció
         Bm E 
Él la muerte venció

-

Verso 2:
 D A 
Aun con mis temores
              F#m 
Sé que me aceptas
   E D 
Lléname otra vez
                     A 
Mi vida entera ofrezco
                  F#m 
Para seguir tus pasos
   E D 
A ti me rindo
 D - A - Bm - E 

Coro(x2)

Puente:
 D A E 
  En la tierra, Tu luz brillara
         D 
Cantamos
              A E 
Por la gloria, De tu majestad
Jesús

Coro(x2)
Puente(x2)


////////////////////////////////////

Muchas bendiciones ~^o^
Atte.: Whiteangel89

Back To Life chords – Hillsong Young And Free V2

 Hey this is just an easy version to play for fun.

 Em G D  
Here in my heart you have found your place
 Em G D 
Replacing fear with your freedom
 Em C D 
You lift me up you lift me up

 Em G D 
When all seems lost in my brokenness
 Em G D 
I call your name and you answer
 Em C D 
Held by your love held by your love 

Chorus:

 C 
In the night
                        G D 
Through the struggle through the trial
                                             C 
You have made my burden light
                 G D 
You have brought me back to life again


*********Same for second verse and chorus.**********


Bridge:

 C              
You won't let go
 Em 
So I will follow
 G D 
All I am yours now and forever

 C 
You won't let go
 Em 
So I will follow
 G D 
With all I am

Embers chords – Hillsong Young And Free V2

 Let me know if anything is wrong. 

Embers  Hillsong Young and Free
Capo 2

Intro:  A  //  D /  F#m -- E --

VERSE 1:
 A 
 A spark in the night, a flame of hope
                            D 
Spirit of God within my soul
                     F#m 
Alive within my heart
          E 
The life in my bones

 A 
You lifted my eyes towards You Lord
                                 D 
Teaching my heart to draw in close
                         F#m 
To the all consuming God
                         D 
Our great unending hope


CHORUS
                         E 
 As ember fans into flame
                             F#m 
I'm revived within Your Name
                         A 
Your Spirit lives within me
                         D 
Your Spirit lives within me

                         E                
This fire burns in my soul
                            F#m 
Let the light of heaven glow
                           A 
For all the earth to see You
                        
All the earth to see You


D E  (first time to 2nd verse)
Instrumental   D E F#m A  (Woah)

VERSE 2:
Spirit leading me each day
Casting a light to lead the way
My God stay the path
You call me onwards

Here in all holiness on earth
Blazing forever glorious
You're the all consuming God
Our great unending hope

BRIDGE
         D 
For all of this life
            E 
Your Spirit ignites
       F#m 
A heavenly fire
       A 
Untouched by the night

          D 
You opened our eyes
         E 
Turned death into life
      F#m 
Revealing all truth
         A 
There's no one like You

Mighty To Save chords – Hillsong United V9

 Capo 2


Intro:
 C2 ,  G ,  Em ,  D 


Verse 1:
 C2 G 
Everyone needs compassion
                    Em 
A love that’s never failing
     D 
Let mercy fall on me
 C2 G 
Everyone needs forgiveness
                   Em 
The kindness of a Savior
     D 
The hope of nations



Bridge to chorus:
 C2 ,  D ,  C2 ,  D 



Chorus:
 G D 
Savior, He can move the mountains
           Em C2 
My God is mighty to save
       Em D 
He is mighty to save
 G D 
Forever, Author of salvation
             Em C2 
He rose and conquered the grave
       Em D 
Jesus conquered the grave



Bridge to verse 2:
 C2 ,  G ,  Em ,  D 



Verse 2:
 C2 G 
So take me as You find me
                  Em 
All my fears and failures
 D 
Fill my life again
 C2 G 
I give my life to follow
              Em 
Everything I believe in
     D 
Now I surrender



Bridge to Chorus
 C2 ,  D ,  C2 ,  D 



Chorus:
 G D 
Savior, He can move the mountains
           Em C2 
My God is mighty to save
       Em D 
He is mighty to save
 G D 
Forever, Author of salvation
             Em C2 
He rose and conquered the grave
       Em D 
Jesus conquered the grave           x2



Bridge:
 C2 G D Em 
Shine your light and, let the whole world see, we’re singin'
 C2 G D Em 
For the glory, of the risen King, Jesus      x2



Chorus:
 G D 
Savior, He can move the mountains
           Em C2 
My God is mighty to save
       Em D 
He is mighty to save
 G D 
Forever, Author of salvation
             Em C2 
He rose and conquered the grave
       Em D 
Jesus conquered the grave  

 

Bridge:
 C2 G D Em 
Shine your light and, let the whole world see, we’re singin'
 C2 G D Em 
For the glory, of the risen King, Jesus      x6


Ending:
 C2 ,  G ,  Em ,  D 

END

The Lost Are Found Tabs by Hillsong United V2

 Artist: Hillsong Live
 God Is Able
Song: The Lost Are Found

Key: B | Capo 4

Intro/Electric Guitar riff:

E-------11---14---11-------11---14---11--------11------11-------11-|
B---12----------------12------------------12-------14--------11----|
G-----11-----------------11------------------11--------------------|
D------------------------------------------------------------------|
A------------------------------------------------------------------|
E------------------------------------------------------------------|

E--------------------------------------------|
B------12----11-----9-----11s12--------------|
G--------------------------------------------|
D--------------------------------------------|
A--------------------------------------------|
E--------------------------------------------|


Chords:

Intro (x4): Em  C  G  Bm


Verse 1:
    Em
Everlasting
          C            G   Bm
While earthly ages fade
   Em
In mercy
     C                     G    Bm
Our God Your kingdom reigns


Pre-chorus:
Am                  Em
Lord over everything
            G  Bm
You are near
Am                 Em
All of the universe
            C
At Your feet


Instrumental (x2): Em  C  G  Bm 

Verse 2:
         Em  
In the Saviour
    C                 G    Bm
Injustice brought to right
           Em
For Your glory
          C                  G  Bm
That Your Name be lifted high


Pre-chorus (x2):
Am                  Em
Lord over everything
            G  Bm
You are near
Am                 Em
All of the universe
            C
At Your feet


Instrumental: G  Am  Em  C


Chorus:
    G
The lost are found
               Am
The blind will see
    Em
The lame will walk
              C
The dead will live
    G
And You our God
   Am            Em    C
Forever You will reign

Alive chords – Hillsong Young And Free V3

 Hillsong Young and Free-Alive
(CAPO 2)

Intro: 
 B F# G G B A B F# G 
I was lost with a broken heart
          G B A 
You picked me up, now I'm set apart
           B F G 
From the ash I am born again
           G B A   
Forever safe in the Savior's hands
           B F# G 
You are more than my words could say
              G B A 
I'll follow you Lord for all my days
               B F# G 
I'll fix my eyes, follow in your ways
           G B A 
Forever free in unending grace

        B F# G           
'Cause You are, You are, You are my freedom
  G B A  
We lift you higher, lift you higher
  B F# G                  
Your love, Your love, Your love never ending
 G B A 
Oh oh oh

          B F# G 
You are alive in us
              G B A 
Nothing can take your place
          B F# G   
You are all we need
                G B A 
Your love has set us free
              A 
Ooo oh oh oh oh

 B F# G G B A B F# G       
In the midst of the darkest night
            G B A 
Let Your love be the shining light
             B F# G 
Breaking chains that were holding me
                G B A  
You sent Your Son down and set me free
       B F# G 
Everything in this world will fade
              G B A   
I'm pressing on till I see your face
         B F# G 
I will live that Your will be done
          G B A 
I won't stop till Your Kingdom come

        B F# G           
'Cause You are, You are, You are my freedom
  G B A  
We lift you higher, lift you higher
  B F# G                  
Your love, Your love, Your love never ending
 G B A 
Oh oh oh

          B F# G 
You are alive in us
              G B A 
Nothing can take your place
          B F# G   
You are all we need
                G B A 
Your love has set us free
              A 
Ooo oh oh oh oh

 B F# G G B A B F# G               
'Cause You are, You are, You are my freedom
  G B A      
We lift you higher
        B F# G               
'Cause You are, You are, You are my freedom
  G B A      
We lift you higher, lift you higher 
   B F# G                  
Your love, Your love, Your love never ending
 G B A 
Oh oh oh

          B F# G 
You ar

Cornerstone chords – Hillsong Live V3

 Song Name: Cornerstone
Arrangement: Hillsong Live - Cornerstone
Album key: C, BPM: 71.5

Chorded by: Worship Tutorials
email: brian@worshiptutorials.com

INTRO:
 C  / / / |  C  / / / |  Am  / / / |  Am  / / / |  F  / / / |  G  / / / |

VERSE 1:
 C   
  My hope is built on nothing less
 F G 
  Than Jesus' blood and righteousness
 Am G 
  I dare not trust the sweetest frame
 F G C  / / / |  C  / / / |
  But wholly trust in Jesus' name

VERSE 1 (REPEAT):
 C   
  My hope is built on nothing less
 F G 
  Than Jesus' blood and righteousness
 Am G 
  I dare not trust the sweetest frame
 F G C  / / / |  C  / / / |
  But wholly trust in Jesus' name

CHORUS 1:
         F Am G 
Christ alone, Cornerstone
 C/E F Am G 
Weak made strong, in the Savior's love
 C/E F Am G C  / / / |  C  / / / |
Through the storm, He is Lord, Lord of All

VERSE 2:
 C 
  When darkness seems to hide His face
 F G 
  I rest on His unchanging grace
 Am G 
  In every high and stormy gale
 F G C 
  My anchor holds within the veil
 F G C  / / / |  C  / / / |
  My anchor holds within the veil 

CHORUS 2:
         F Am G 
Christ alone, Cornerstone
 C/E F Am G 
Weak made strong, in the Savior's love
 C/E F Am G C  / / / |  C  / / / |
Through the storm, He is Lord, Lord of All

SOLO:
 Am  / / / |  Am  / / / / |  F  / / / |  G  /  C/E  / |

CHORUS 3:
         F Am G 
Christ alone, Cornerstone
 C/E F Am G 
Weak made strong, in the Savior's love
 C/E F Am G C  / / / |  C  / / / |
Through the storm, He is Lord, Lord of All

CHORUS 5:
         F Am G 
Christ alone, Cornerstone
 C/E F Am G 
Weak made strong, in the Savior's love
 C/E F Am G C  / / / |  C  / / / |
Through the storm, He is Lord, Lord of All

TURNAROUND:
 C  / / / |  C  / / / |

VERSE 3:
 C 
  When He shall come with trumpet sound
 F G 
  Oh, may I then in Him be found
 Am G 
  Dressed in His righteousness alone
 F G C  / / / |
  Faultless, stand before the throne

TURNAROUND:
 C  / / / |  C  / / / |  C  / / / |

SOLO:
 F  /  Am  / |  G  /  C/E  / |  F  /  Am  / |  G  /  C/E  / |
 F  /  Am  / |  G  / / / |  C  / / / |  C  / / / |

CHORUS 5:
         F Am G 
Christ alone, Cornerstone
 C/E F Am G 
Weak made strong, in the Savior's love
 C/E F Am G <sp

Forever Reign Tabs by Hillsong United

 INTRO

e|----------------------------|
B|---7/h/9---7/h/9------------|
G|-------------------9-9-10---|   x2
D|----------------------------|
A|----------------------------|
E|----------------------------|



VERSE 1:

        C
You are good, You are good When there's nothing good in me.
        
        G
You are love, You are love On display for all to see.
        
         C
You are light, You are light When the darkness closes in.
        
         G
You are hope, You are hope You have covered all my sin.



e|--------------------------------|
B|---5---7/h/9---7/h/9------------|
G|-----------------------9-9-10---|   
D|--------------------------------|
A|--------------------------------|
E|--------------------------------|


VERSE 2:

e|---15--------21---15---|
B|--------15-------------|
G|-----------------------|   x4
D|-----------------------|
A|-----------------------|
E|-----------------------|



PRE-CHORUS:

e|---1-1-1----------------1-1-1------15-15-15---|
B|---------5-5--13-13-13--------5-5--13-13-13---|
G|----------------------------------------------|
D|----------------------------------------------|
A|----------------------------------------------|
E|----------------------------------------------|



CHORUS:

e|---12-12-12----------15-15---12-12-12-----------17-17---|
B|------------15-15-15-------------------15-15-15---------|
G|--------------------------------------------------------|   x3
D|--------------------------------------------------------|
A|--------------------------------------------------------|
E|--------------------------------------------------------|


e|--12-12-12--------15-15--12-12-12-----------15--15--15--15--15--15--15---|
B|----------15-15-15----------------15(x5)--13--13--13--13--13--13--13--13-|
G|-------------------------------------------------------------------------|
D|-------------------------------------------------------------------------|
A|-------------------------------------------------------------------------|
E|-------------------------------------------------------------------------|



VERSE 3:

You are more, You are more Than my words will ever say.

You are Lord, You are Lord..


"All creation will proclaim.." (Build)
e|--------------------------------------------------------------------|
B|---13-13-13-13-13-13-13-13-13-13-13-13-13-13-13-13-13-13-13-13-13---|
G|---12-12-12-12-12-12-12-12-12-12-12-12-12-12-12-12-12-12-12-12-12---|
D|---10-10-10-10-10-10-10-10-10-10-10-10-10-10-10-10-10-10-10-10-10---|
A|--------------------------------------------------------------------|
E|--------------------------------------------------------------------|


"You are God, You are God.."
e|---10-10-10-10-10-10-10-10-10-10-10-10-10-10-10-10-10-10-10-10-10---|
B|---12-12-12-12-12-12-12-12-12-12-12-12-12-12-12-12-12-12-12-12-12---|
G|---12-12-12-12-12-12-12-12-12-12-12-12-12-12-12-12-12-12-12-12-12---|
D|--------------------------------------------------------------------|
A|--------------------------------------------------------------------|
E|--------------------------------------------------------------------|



PRE-CHORUS:

e|---1-1-1----------------1-1-1------15-15-15---|
B|---------5-5--13-13-13--------5-5--13-13-13---|
G|----------------------------------------------|
D|----------------------------------------------|
A|----------------------------------------------|
E|----------------------------------------------|



CHORUS:

e|---12-12-12----------15-15---12-12-12-----------17-17---|
B|------------15-15-15-------------------15-15-15---------|
G|--------------------------------------------------------|   x3
D|--------------------------------------------------------|
A|--------------------------------------------------------|
E|--------------------------------------------------------|


e|--12-12-12--------15-15--12-12-12-----------15--15--15--15--15--1

Oceans Where Feet May Fail chords – Hillsong United V5

 Song Name: Oceans (Where Feet May Fail)
Arrangement: Hillsong United - Zion

Chorded by: Worship Tutorials
email: brian@worshiptutorials.com

 Bm  / /  A/C#  |  D  / / / |  A  / / / |  G  / / / |

VERSE 1:
 Bm A/C# D 
  You call me out upon the waters
            A G 
The great unknown where feet may fail
 Bm A/C# D          
  And there I find You in the mystery
             A G 
In oceans deep - My faith will stand

CHORUS:
 G D A      
  And I will call upon Your name
 G D A G 
  And keep my eyes above the waves - When oceans rise    
               D A 
My soul will rest in your embrace
            G         ( A )
For I am Yours and You are mine

TURNAROUND:
 Bm  / /  A/C#  |  D  / / / |  A  / / / |  G  / / / | 

VERSE 2:
 Bm A/C# D 
Your grace abounds in deepest waters
                 A G 
Your sovereign hand   Will be my guide
 Bm A/C# D 
Where feet may fail and fear surrounds me
               A G 
You've never failed and you won't start now

CHORUS 2:
 G D A 
So I will call upon Your name
  G D A G 
And keep my eyes above the waves - When oceans rise    
               D A 
My soul will rest in your embrace
            G          ( A )
When I am Yours  and You are mine

TURNAROUND/SOLO:
 Bm  / /  A/C#  |  D  / / / |  A  / / / |  G  / / / |
 Bm  / /  A/C#  |  D  / / / |  A  / / / |  G  / / / |

BRIDGE  A :
 Bm G 
   Spirit lead me where my trust is without borders     
            D A 
   Let me walk upon the waters wherever You would call me
 Bm G 
   Take me deeper than my feet could ever wander
             D A 
   And my faith will be made stronger in the presence of my Savior (x3)

BRIDGE  B :
 G D 
   Spirit lead me where my trust is without borders     
             A Em 
   Let me walk upon the waters wherever You would call me
 G D 
   Take me deeper than my feet could ever wander
             A Em 
   And my faith will be made stronger in the presence of my Savior

BRIDGE  C :
 Bm A/C# D 
   Spirit lead me where my trust is without borders     
            A Em 
   Let me walk upon the waters wherever You would call me
 Bm A/C# D 
   Take me deeper than my feet could ever wander
             A Em 
   And my faith will be made stronger in the presence of my Savior (x2)

SOLO 2:
 Bm  / /  A/C#  |  D  / / / |  A  / / / |  Em  / / / |
 Bm  / /  A/C#  |  D  / / / |  A  / / / |  Em  / / / |

CHORUS 3:
 G D A  
  I will call upon Your Name    
 G D A     
  Keep my eyes above the waves
 G D A  
  My soul will res

Hillsong Medley chords – Hillsongs

 C G Em D C G 
Everyone needs compassion
                           Em 
A love thats never failing
       D 
Let mercy fall on me
 C G 
Everyone needs forgiveness
                          Em 
The kindness of a Saviour
        D 
The hope of nations


 C G Em D C G 
In my heart and my soul
                        Em 
Lord I give You control
                     D 
Consume me from the inside out, Lord
 C Em 
Let justice and praise
                  D 
Become my embrace
                      C 
To love You from the inside out


 G 
I see a generation
 Em 
Rising up to take their place
                C D 
With selfless faith, with selfless faith

 G 
You stood before my failure
 C 
Carried the Cross for my shame
 Em D 
My sin weighed upon Your shoulders
             C 
My soul now to stand


 D G D 
Saviour, He can move the mountains
           Em C 
My God is mighty to save
       Em D 
He is mighty to save
 G D 
Forever, author of salvation
             Em C 
He rose and conquered the grave
       Em D 
Jesus conquered the grave


 C G Em D 
So Ill stand with arms high and heart abandoned
 C G Em D 
In awe of the One who gave it all
 C G Em D 
Ill stand my soul Lord to You surrendered
 C G D 
All I am is Yours


 Em C G 
Everlasting, Your light will shine when all 
        D 
else fades
 Em C G 
Neverending, Your glory goes beyond all 
 D 
fame


 C D 
Break my heart for what breakes Yours
 G Em 
Everything I am for Your kingdoms cause
 C D Em 
As I go from nothing to eternity


                  C D 
So what could I say?
              Em G 
What could I do?
                C D 
But offer this heart O God
              Em G 
Completely to You
                  C D 
So what could I say?
               Em G 
What could I do?
                 C D 
But offer this heart O God
              Em    
Completely to You


 C G 
Shine Your light and let he whole world 
 D 
see…
       Em C G 
Were singing for the glory of the risen 
 D 
king
 Em 
Jesus
 C G 
Shine your light and let the whole world
 D 
sing…


 C D - Em 
Hosanna in the highest
 C D - G 
Hosanna in the highest!

All Things New chords – Hillsong Live

 ------ All Things New By Ben Fieldings - Hillsong Live 2014 ------

All things new

 B 

Verse 1 
 E B F# 
Loves making all things new
 E B F# 
You're working in all for good
        E B 
And for things on this world 
         G#m7 F# 
There is hope renewed
       E/C# G#m7 F# 
In the life that is found in you

Chorus
       E B F# 
Cause You make all things new
       E B F# 
Cause You make all things new 
     B/D# E 
Yesterday and forever 
      G#m7 F# 
Your love never changing
      B/D# E 
This hope never failing
 G#m F# E 
Hallelujah

Verse 2
 E B F# 
But faith is a thing unseen
         E B F# 
Bringing love where it hides my pain
         E B 
Speaking things that are not 
     G#m7 F# 
As if they were
 C#m7 G#m7 F# 
I am alive in you

Chorus x 2
Chorus
       E B F# 
Cause You make all things new
       E B F# 
Cause You make all things new 
     B/D# E 
Yesterday and forever 
      G#m7 F# 
Your love never changing
      B/D# E 
This hope never failing
 G#m F# E 
Hallelujah
 G#m   / F# E B  / G#m F# G#m   / F# E B F# 

Bridge
                G#m7 F# E 
Heavens at the open I know that I am chosen
               B G#m7 F# 
I am alive in you, I am alive in you
                 G#m F# E 
God you are restoring all things for your glory
               B G#m F# 
I am alive in you, I am alive in you

Chorus
       E B F# 
Cause You make all things new
       E B F# 
Cause You make all things new 
     B/D# E 
Yesterday and forever 
      G#m7 F#/Bb 
Your love never changing
      B/D# E 
This hope never failing
 G#m F# E 
Hallelujah
 B/D# E 
Yesterday and forever 
      G#m7 F# 
Your love never changing
      B/D# E 
This hope never failing
 G#m F# E 
Hallelujah

A Song To Sing intro Tabs by Hillsong United

 Hillsong United
 Live In Miami
Song: A Song To Sing...


Intro:

E:----------7-----------------------------7-------------|
B:--9---9-------11--9-------------9---9------11--9------|
G:---8---8------------11-----------8---8-----------11---|
D:------------------------------------------------------|
A:------------------------------------------------------|
E:------------------------------------------------------|

E:----------7-----------------------------7-------------|
B:--7---7-------11--9-------------7---7------11--9------|
G:---8---8------------11-----------8---8-----------11---|
D:------------------------------------------------------|
A:------------------------------------------------------|
E:------------------------------------------------------|

Use some combo of delay/chorus and very soft distortion!



That´s one of my favourite intro parts Hillsong did, been searching for it a while and 
couldn´t find it, so i tried to write it myself!
Hope you enjoy it :)


That´s my first tab, sorry if it´s not fitting exactly ;)
Be blessed!!!

Andrew Bishop

Thank You Jesus chords – Hillsong Live

 Artist: Hillsong Live
Song: Thank You Jesus

Key: F | Capo: 5


This song was recorded by Hillsong Live probably for the next album, and here's an extract.
It comes from the sermon about that song by pastor Brian Houston:



Verse 1:
 C                             
Grace that flows like a river
 G F C 
Washing over me
 C                                                            
Fount of heaven, love of Christ
 G F C 
Overflow in me


Chorus:
           F C     
Thank You Jesus, You set me free
           F C 
Christ my Saviour, You rescued me


Verse 2:
 C 
Take this life delivered
   G F C 
A vessel of Your love
 C                  
Wholly now devoted
    G F C 
To see Your Kingdom come


Chorus (x2):
           F C     
Thank You Jesus, You set me free
           F C 
Christ my Saviour, You rescued me


Interlude:  F G Am C/E F G Am C 


Bridge (x2):
 F 
 You've given me life
 G 
 You've opened my eyes
 Am 
  I love You Lord
 C/E 
   I love You Lord
 F 
 You've entered my heart
 G 
 You've set me apart
 Am 
  I love You Lord
 C 
 I love You Lord


Interlude:  F G Am C/E F G Am C 


Bridge (x2):
 F 
 You've given me life
 G 
 You've opened my eyes
 Am 
  I love You Lord
 C/E 
   I love You Lord
 F 
 You've entered my heart
 G 
 You've set me apart
 Am 
  I love You Lord
 C               ( F G )
 I love You Lord


Chorus:
           F C     
Thank You Jesus, You set me free
           F C 
Christ my Saviour, You rescued me

Higher Tabs by Hillsong United

 -------------------------------------------------------------------------------
                             Higher - Hillsong United
-------------------------------------------------------------------------------
This is just a tab I made for the intro to the acoustic version of Higher. The original 
song is played with two guitars, but I tried to put everything in one. Hope you like it!

: William Jun

Tuning: Standard

Verse 1

e|-3----------------3-----------------------------3--------------------------|
B|-1----------------0-----------------0h1---------1--------------------------|
G|---------0----------------0---------2-------2---------------2--------------|
D|-3---3-------3----0---0-------0---------2---------------2-------2----------|
A|------------------------------------0--------------------------------------|
E|---------------------------------------------------------------------------|

e|-3----------------3--------------------------------------------------------|
B|-1----------------0-----------------1-------0h1-1--------------------------|
G|---------0----------------0-----------------2---------------2--------------|
D|-3---3-------3----0---0-------0---------2-----------2---2-------2----------|
A|------------------------------------0--------------------------------------|
E|---------------------------------------------------------------------------|

           For    unto           us
e|-3----------------3-----------------0-----------0--------------------------|
B|-1----------------0-----------------1-----------1-----------1--------------|
G|---------0--------0-------0-----------------2------------------------------|
D|-3---3-------3--------0-------0---------2---------------2-------2----------|
A|------------------------------------0--------------------------------------|
E|---------------------------------------------------------------------------|

           A      savior         came
e|-3----------------3-----------------0--------------------------------------|
B|-1----------------0-----------------1---------------1----------------------|
G|---------0--------0-------0-----------------2---------------2--------------|
D|-3---3-------3--------0-------0---------2-------2---------------2----------|
A|------------------------------------0--------------------------------------|
E|---------------------------------------------------------------------------|

           Amazing             grace        that  takes   the     weight
e|-3----------------3-----------------0-----------0--------------------------|
B|-1----------------0-----------------1-----------1--------------------------|
G|---------0--------0-------0-----------------2---------------2--------------|
D|-3---3-------3--------0-------0---------2---------------2------------------|
A|------------------------------------0--------------------------------------|
E|---------------------------------------------------------------------------|

e|-3----------------3-----------------0-----------------------3--------------|
B|-1----------------0-----------------1-----------1-----------1--------------|
G|---------0----------------0-----------------2---2-------2------------------|
D|-3---3-------3----0---0-------0---------2-----------2-----------2----------|
A|------------------------------------0--------------------------------------|
E|---------------------------------------------------------------------------|

           His  name     is      hope
e|-3----------------3-----------------0-----------0-----------0--------------|
B|-1----------------0-----------------1-----------1-----------1--------------|
G|---------0--------0-------0-----------------2------------------------------|
D|-3---3-------3--------0-------0---------2---------------2-------2----------|
A|------------------------------------0--------------------------------------|
E|-----------------------------------------------------