Tag: hold

Hold Me chords – Pj Proby

 Hold Me:PJ Proby.
#3 in UK and #70 on BB Hot 100 on
LONDON Records in 1964.

INTRO:
 E Gb B 
When you're near me I feel so romantic..
 Dbm7 Ab 
when you're far away I'm always blue.
 A Bb A B 
If you want me to remain romantic......here are 
                               C B 
all the things you'll have to do..oo..oo.

#1.
 E Ab 
Hold me, honey, won't you hold me?..yeah?
 A Db 
Hold me never let me go.
 Gbm7 Eb E 
Take me, honey, won't you take me?
 Db Gb B B7 
Never to forsake me, cause I love you so..whoa-oh!

#2.
 E Ab 
Thrill me, let your kisses thrill me..yeah!
 A Db 
just like you alone can do.
 Gbm Am E Db 
Hold me, tenderly enfold me..never try to 
 Gb B E B 
hold me away from you..aaaahhhhh-ooowwww!!


INTERLUDE: E Ab A Db..Gbm Eb E Db..Gb B..(ooooooohhh!)

#3.
 E Ab 
Thrill me, let your kisses thrill me..yeah!
 A Db 
just like you alone can do.
 Gbm Am E Db Gb 
Hold me, tenderly enfold me......baby, don't you try to 
         B E Db 
hold me away from you..nooo!!

OUTRO:
 Gb B E Db 
Baby, don't you try and hold me away from you..woooo!!
 Gb B E 
Baby, don't you try and hold me away from you..(Fade.)


A sixties smash from Kraziekhat.

Hold The Line chords – Rod Stewart

 Hold The Line – Rod Stewart
“Another Country”
 Roj Vincent

Intro:   C Em Am F C Em 
Hold on we just have to hold on
                  Am F 
We don't have to cry, no not tonight
         C Em 
I know lately everything seems crazy
                Am F 
People walking by just getting by
     C G 
And I just wanna rest my head
      C Am 
And lay down with roses on our bed
      Dm C G 
They say heaven can wait
         F G 
You and I, we'll survive
                  C 
Sometimes we're lost and astray
          Em Am 
And the hope far away, hold the line
           F 
We'll survive
                C 
So let's just smile through the rain
               Am 
Through the heartache and pain
           Am F 
Hold the line we'll survive
           C 
We'll Survive
 Em Am 
Hold the line (Hold the line)
           F 
We'll survive (Hold the line)

 C Em 
Slow down we just have to slow down
                 Am F 
Now’s becoming fast, way too fast
          C Em 
Another grey day, technicolour save me
                 Am F 
Paint it in the sky, we're alive
     Dm C G 
And I just wanna rest my head
      C G Am 
And lay down with roses in our bed
      Dm C G 
They say heaven can wait
         F G 
You and I, we'll survive
                  C 
Sometimes we're lost and astray
          Em 
And the hope far away
           Am F 
Hold the line we'll survive
                 C 
So let's just smile through the rain
               Em         
Through the heartache and pain
           Am F 
Hold the line we'll survive
           C 
We'll survive
                Em 
La   la   la   la   la   la
           Am 
Hold the line
           F 
We'll survive
                C 
La   la   la   la   la   la  
                Em 
La   la   la   la   la   la
           Am 
Hold the line
           F 
We'll survive

Break:   G Am F G Am F G Am C Dm Em F C C Em 
Hold on we just have to hold on
                   C 
We don't have to cry
             F 
No, not tonight
         C Em 
I know lately everything seems crazy
                Am F 
People walking by getting by
                  C 
Sometimes we're lost and astray
          Em 
And the hope far away
           Am F 
Hold the line we'll survive
                C 
So let's just smile through the rain
               Em 
Through the heartache and pain
           Am F 
Hold the line, we'll survive
           C Em 
We'll survive, oh yeah
           Am 
Hold the line
           F 
We'll survive
                C 
La   la   la   la   la   la
                Em 
La   la   la   la   la   la
           Am 
Hold the line
           F 
We'll survive
 

Hold Me chords – Barbara Mandrell

 C F C 
Hold me  let me be a little girl again

 E7 F 
Don't want a lover now  I need a friend

       G7 
And a warm safe place to be


 C F G7 C 
Hold me  don't want to talk I don't want to smile

 E7 F 
I only want to hide and rest awhile

     G7 C 
And have you hold me


                                 E7 
I don't want to think about the world outside your arms

 F A7 D7 G7 
Everything it calls on me to d--o

 C E7 
I'm all out of giving let me take just for a minute

 F G7 
Sometimes I need to be a baby too  and have you


 C F C 
Hold me  let me be a little girl again

 E7 F 
Don't want a lover now  I need a friend

       G7 
And a warm safe place to be


 C F G7 C 
Hold me  don't want to talk I don't want to smile

 E7 F 
I only want to hide and rest awhile

     G7 C 
And have you hold me


 C F G7 C 
Hold me  don't want to talk I don't want to smile

 E7 F 
I only want to hide and rest awhile

     G7 C 
And have you hold me

Hold Heart chords – Emilíana Torrini V2

 Emiliana Torrini "Hold heart"

      Am G F E Dm Dm/C C B7   
e:---5----3----1----0----1----1----0----0--|
B:---5----3----1----0----3----3----1----0--|
G:---5----4----2----1----2----2----0----2--|
D:---7----5----3----2----0----x----2----x--|
A:---7----5----3----2---------3----3----2--|
E:---5----3----1----0----------------------|

    Am                        
e:-----------------------------------------:  
B:-------5-----------5-----------5-----5-5-:  
G:-------5-----------5-----------5-----5-5-:
D:-----------------------------------------:
A:-----------------------------------------:
E:-5--------5--5--------5--5--------5--5-5-:      

 Am G 
Hold heart don't beat so loud
 F E 
For me keep your calm as he walks out on you
 Am G 
No tears don't you come out
 F E 
If you blind me now, I'm defeated
 Am G 
No lips don't make a sound
 F E 
Don't let him hear the break in your voice

 Dm Dm/C G        
Hand let go of his with ease and grace
               C B7 E 
Don't let him bleed under your nails
 Dm Dm/C G  
Oh lord take off thy crown you're my king 
               C B7 E 
no more with that merciless heart

 Am G 
Hold heart don't beat so loud
 F E 
For me keep your calm lest he walks out on you
 Am G 
No tears don't you come out
 F E 
If you blind me now I am defeated

Hold Your Hand chords – Family Force 5

 Family Force 5 - Hold Your Hand 

Standard


Intro

 G D A Bm  

Verse
 G                      
Playground summer time

 D 
Chalky hands mid-July

 A Bm  
First crush 1989

 G 
Swing sets carousels

 D 
You're dressed in pink pastels

 A Bm  
Another day in paradise

          G 
Till I heard you scream

              D 
Cause you skinned your knee

            A 
You looked up at me and I said


I said…

Chorus 
                 G D 
I'll hold your hand don't you worry no

                  A Bm  
I'll hold your hand don't you worry no

                           G 
Through the good and the bad

          D 
Sunny or sad

        A Bm  
Reach out, reach out, reach out, reach out 


I'll hold your hand

Intro 


Verse

Best suit clip on tie
Dad's car mom's advice
It was prom 1999
Strobe lights fog machines
Sweaty palms two left feet
DJ's spinning all my life
You said shall we dance
I said sorry I can't
With your smiling eyes you said
You said…

Chorus 

I'll hold your hand don't you worry no
I'll hold your hand don't you worry no
Through the good and the bad
Sunny or sad
Reach out [4x]
I'll hold your hand

Hold On Were Going Home Acoustic chords – Bebe Rexha

 From Bebe's posted video: https://www.youtube.com/watch?v=VD-3tsPoH2w
This is her short cover of Drake's song, "Hold On, We're Going Home".

Short and sweet. Capo on 5. Main chords are Am G D. There's of course the finger plucking that I don't know 
how to achieve as a beginner. But pretty solid, enjoy. Any feedback is appreciated.

Intro
 Am G D Am 
I got my eyes on you
                              Am 
You're everything that I see

             G D 
I want your high love and emotion endlessly

             Am                
I can't get over you
                          Am 
You left your mark on me

             G D 
I want your high love and emotion endlessly


                Am Am 
Cause I'm  a  good girl and you know it

            G D  
You act so different around me

             Am 
Yeah I'm a good girl and you know it
         
        G D 
I know exactly who you could beeeeeee


                     Am 
Just hold on we're going home

                    G D 
Just hold on we're going home
             
                 Am Am 
It's hard to do these things alone

              G D 
Just hold on we're going homeeeeeeeeeeeeeeeee


                 Am 
Just hold on to me
 
                 G D 
Just hold on to me, yeeaaah
 
                            Am 
It's hard to do these things alone

 G D 
Yeaaaaaaaaaah, yea eeeeeeee yeah yeah...

Hold Fast chords – Zachary Cale

 Zachary Cale - Hold Fast

I think it in an open tuning, this is in standard

Capo 2nd 

Intro/riff
    G A Bm G 
e|-----0-2----0---------2-----------------|
B|-3h5---3-0--3-2-h3-5--3--3--5-3--2-3-0--|
G|-0-----0----2---------4-------0------0--|
D|-0-----0----2---------4-------0------0--|
A|-x-----x----0---------2-------x------2--|
E|-3-----3----------------------3------3--|


 G A Bm G  
If I let you stan inside of me
 G A Bm G  
could you learn to walk, could you learn to breathe?
 G A Bm G  
Or would you shield your eyes from the ugly things 
 G A Bm G  
That bare their teeth and beat their wings?

 A G A G 
Hold fast to the ray, that slips past the falling rain. 
 A G A G 
Keep your dream ’neath your hat, and the wind on your back.
 A G A G 
Day breaks, cock crows, earth quakes, night glows,
 A G A G 
flowers wilt, love dies, snow melts, sun shines. Oh my, oh my.

 Bm G  3x
 A 

Riff


Well the past is still the past you can visit anytime.
Nothing’s really changed except a few road signs.
Well it’s quiet ’round here and we like it that way. So don’t go sniffing ’round a newly dug grave.

Hold fast to the ray, that slips past the falling rain. 
Keep your dream ’neath your hat, and the wind on your back.
Day breaks, cock crows, earth quakes, night glows,
flowers wilt, love dies, snow melts, sun shines. Oh my, oh my.

Hold On chords – Twin Atlantic

 Standard Tuning
First tab so comment on any tips or improvements

Twin Atlantic - Hold On

Intro:  E A 

Verse 1:

 E 
Must have been something you said, you caught me off guard and alone,
 A                              
Running round the streets in the dark, trying to find my home,
         E 
You can listen to my heartbeat, let the rain pounding on the open road,
        A 
Let me whip you off of your feet, let me show you how it feels to be the one,

Pre Chorus:
 
 B A B A 
  I know you're gonna feel alive, I know you're gonna feel alive

Chorus:

 E F# A E F# A 
Hold on, if you can, be strong, 
 E F# C# A 
Yeah it's a risk worth taking, to have a life worth living, 
 E F# A E 
You need to hold on, You need to hold on,

Verse 2:

 E 
Must have been something you wrote, or the look in your eyes that told me no, 
 A 
Please do run ahead, no chance you're going home, 
         E 
You can listen to my heart explode, like the sound of the wind on an open road
        A B 
Let me live in the eye of the storm, let me show you how it feels to be alone, 

Pre Chorus 2:

 B A B A 
  I know you're gonna feel alive, I know you're gonna feel alive,

Chorus 2:

 E F# A E F# A 
Hold on, if you can, be strong, 
 E F# C# A 
Yeah it's a risk worth taking, to have a life worth living, 
             E F# A E 
You need to hold on, You need to hold on,
             E F# A E 
You need to hold on, You need to hold on,
             E F# A E 
You need to hold on, You need to hold on,

Outro:

 B A B A 
I know you're gonna feel alive, I know you're gonna feel alive,
 B A B A 
I know you're gonna feel alive, I know you're gonna feel alive,
 E F# A E F# A 
Hold on, if you can, be strong, 
 E F# C# A 
Yeah it's a risk worth taking, to have a life worth living, 
             E F# A E 
You need to hold on, You need to hold on

Luv Hold Me Down Acoustic chords – Drowners

 Capo on 2nd fret

(Intro:  G Em Am )

 G Em Am 
In a simple skirt, you caused the ricochet

    G Em Am 
Of courting boys who watch you walk away

 Bm C 
But I don't live my life like you do,

    Bm C 
No I don't live my life like you do


Chorus:

    G B7 C 
So hold me down and never let me go,

     G B7 C 
The school boy grin that only goes to show,

      G D Em 
That I could never have such control,

 Em G 
Every time you leave, Every time you leave I wanna go

(Intro again)

(Same as first verse)
Rip me up and bully me in jest,
Like the afternoons where you spent sleeping on my chest 
But I don't live my life like you do,
No I don't live my life like you do

So hold me down and never let me go,
The school boy grin that only goes to show,
That I could never have such control
Every time you leave, Every time you leave I wanna go

(Not sure about this one guitar part but any contributions are welcome!
 Chords that run after it are Em Bm & after the guitar part again Em D)

So hold me down and never let me go,
The school boy grin that only goes to show,
That I could never have such control,
Everytime you leave, Everytime you leave I wanna go

Hannah Hold On chords – Get Up Kids

 The Get Up Kids
Hannah Hold On
On A Wire
2002 Vagrant Records
Submitted by: jeremyunderground41

Key:  E 

Tuning: Standard EADGBe

Chords used:
 E  -    022100
 B  -    x24442
 C#m  -  x46654
 A  -    x02220
 F#m  -  244222
 E/G#  - 476xxx
 B/Eb  - x698xx
 A/C#  - x476xx


Intro:  E - A - E/G# - A - x2


Verse 1:
 E B 
I never asked 
      E/G# A 
to be    sorry
         A 
If it's over it's 
 F#m E 
over for sure
 E B 
I don't regret that
   E/G# A 
I didn't want to
   A 
Remember what
 F#m E 
all this was for


Refrain 1:
 A E/G# C#m E 
  So this is all we can do
 A E/G# C#m E 
  What news is in store
 A E/G# E B/Eb A/C# B 
  How come starting o------ver

Would be frowned on anymore


Chorus 1:
 E C#m E/G# A B 
  Hannah hold on
 E C#m E/G# A B 
  Hannah hold on
 E C#m E/G# 
  It's all been said
      A A B 
It's all been done


Verse 2:
 E B 
I never witnessed
 E/G# A 
bitter like this
   A 
I think i've been
 F#m E 
shot in cold blood
 E B 
You won't admit it
       E/G# 
and I won't be
  A A 
around Just so I
 F#m E 
hear the applause


Refrain 2:
 A E/G# 
  This isn't
 C#m E 
all we can do
 A E/G# 
  When in doubt
             C#m E 
should move on
 A E/G# 
  No need to
 E B/Eb C#m B 
sort it all  out
 F#m 
   By the time you
                       B 
read this i'll be gone


Chorus 2:
 E C#m E/G# A B 
  Hannah hold on
 E C#m E/G# A B 
  Hannah hold on
 E C#m E/G# 
  It's all been said
      A B 
It's all been done
            A 
You Hang on
            B 
You Hang on
            A 
You Hang on


Bridge:
 F#m E/G# A B 
    You  only 
 C#m B/Eb E 
dis-ap---point
     F#m E/G# 
the ones who
 A B C#m B/Eb E 
don't believe
 E/G# A B C#m 
     You only 
 A B C#m 
disappoint
 B/Eb B C#m 
the  ones who
 B/Eb B 
don't believe


Chorus 3:
 E C#m E/G# B 
  Hannah hold on
 E C#m E/G# B 
  Hannah hold on
 E C#m E/G# B 
  Hannah hold on
E    C#m      E/G# B E-- x2
  Hannah hold on


Outro:
 E B 
I never asked 
      <

Hold On Til The Night chords – Greyson Chance V3

 Greyson Chance
Hold On Til The Night
Hold On Til The Night
2011
Submitted by: jeremyunderground41

Key:  F# 

Tuning: Standard EADGBe

Chords used:
 Ebm  - x68876
 B  -   x24442
 F#  -  244322
 C#  -  x46664
 G#m  - 466444


Intro: Ebm-C#-B-- x2


Verse 1:
 Ebm 
   Watching the minute hand
 F# B 
   Frozen solid not moving
 Ebm 
   Still we believe we can
 F# B 
   But we're afraid of losing
 Ebm 
   Watching from over here
 F# B 
  It's hardly worth competing
 Ebm 
   I'm almost out of here
 F# 
   While breaking a
              B 
heart that's beating
  

Refrain 1:
 G#m 
Just as I start giving
    B           (hold)
up I'm not backing up


Chorus 1:
 F# 
Run into the light Get
out of your own way
 B 
Not afraid to fight
Believe in what you say
 Ebm B C# 
I'll hold on til the night
 F# 
Hanging by a thread I'm
not scared to let go
 B 
Thoughts inside your head
That creep up to get you
 Ebm B 
I  believe this is right
                         Ebm C# B 
So I'll hold on til the night


Verse 2:
 Ebm 
   I climbed up on a tree
 F# B 
   To get a new perspective
 Ebm 
   If love is worth the time
 F# B 
   The price is being rejected 


Refrain 2:
 G#m 
Just as I start falling
      B               (hold)
down I turned this around


Chorus 2:
 F# 
Run into the light Get
out of your own way
 B 
Not afraid to fight
Believe in what you say
 Ebm B C# 
I'll hold on til the night
 F# 
Hanging by a thread I'm
not scared to let go
 B 
Thoughts inside your head
That creep up to get you
 Ebm B 
I  believe this is right
                         Ebm C# 
So I'll hold on til the night


Bridge:
 B 
Hold on til I'm with you
 Ebm 
All I've got to give you
 C# 
All my fears are slowly
           B 
fading to never know
Yes I start running
running running running! 


[Chorus]


Chorus 3:
 F# 
Run into the light Get
out of your own way
 B 
Not afraid to fight
Believe in what you say
 Ebm B C# 
I'll hold on til the night
 F# 
Hanging by a thread I'm
not scared to let go
 B 
Thoughts inside your head
That creep up to get you
 Ebm B 
I  believe this is right
                         Ebm C# B B (hold)
So I'll hold on til the night

Oh You Are The Roots That Sleep Beneath My Feet And Hold The Earth In Place chords – Bright Eyes V2

 The version that was already up here had the interlude all wrong 
and a lot of the chords were misplaced throughout the song. 
This one should be more accurate. Enjoy!


    D Bm 
I met you through a common friend
           G D 
in the attic of my parent's house
          D Bm  
and though I didn't know it then
    G A  
I soon was finding out
              Bm G 
you are the roots that sleep beneath my feet 
      D A 
and hold the earth in place
              Bm  
each time a faucet opens
 G 
words are spoken
     D A 
the water runs away 
                 G 
and I hear your name
             D 
no, nothing has changed 


 D Bm G D D Bm 
there was this book I read and loved
       G D 
the story of a ship
         D Bm 
who sailed around the world and found
       G A 
that nothing else exists
            Bm 
beyond his own two sails
      G 
and wooden shell 
     D A 
and what is held within
             Bm 
all else is sure to pass
     G  
we clutch and grasp
      D A 
and debate what's truly permanent
                             G 
but when the wind starts to shift
                D 
there's no argument

[Interlude]
    D A  
I sing and drink and sleep on floors
      Bm G               
and try hard not to be annoyed
     F# Bm A 
by all these people worrying about me
   D A   
so when I'm suffering through some awful drive
          
        D G 
you occasionally cross my mind
          D Bm A 
it's my hidden hope that you are still among them

well are you?

[Interlude]
                 D G 
Oh, you are the roots that sleep beneath my feet 
       D A 
and hold the earth in place
               D 
each time a curtain opens
   G 
sunlight pours in
     D A 
a lifetime melts away
              G 
and we share a name
                      D 
on some picturesque grave

Hold On Be Strong Tabs by Outkast

 Outkast – Hold On, Be Strong

This song has a small guitar part composed of two riffs.


Riff 1:                Riff 2:
 
E-------0-------------|-------0-------------|
B-----3---------------|-----0---------------|
G—--4-----------------|---6-----------------|
D-5-------------------|-7-------------------|
A---------------------|---------------------|
E---------------------|---------------------|

They basically alternate throughout the song, just a short contribution.

The Hold Tight chords – Nerina Pallot

 THE HOLD TIGHT

by Nerina Pallot       

------------------------------------------------------

VERSE 1:
 C F Am G 
It's a kind of lust thing,   really,
   C F Am G 
A little bit of brief wandering.
        C F Am G 
And it started out two hearts, cold, kids with nothing
    C F Am G 
to lose.

-------------------------------------------------------

PRE-CHORUS 1:
     C F Am G 
And I don't suppose that you think that it's something,
 C F Am G 
I don't suppose that it bothers you still.

-------------------------------------------------------

CHORUS 1:
              C F Am G 
But it's the hold tight,  hold steady,
 C F Am G 
Hold tight, see where it goes.
 C F Am G 
Just a little bit, just a little bit, just a little bit daunting,
 C F Am G               
This you can't erase, this will not be scared, in the eye 
         C F Am G C F Am G 
of the storm.

-------------------------------------------------------

VERSE 2:
        C F Am G 
In the moonlight, we walked
        C F Am G 
in the park at night.
           C F Am G 
We played go-olf,  under statues  
    C F Am G 
of Lennon, our hearts bound for breaking at dawn.

-------------------------------------------------------

PRE-CHORUS 2:
     C F Am G 
And I don't suppose that it means much of anything,
 C F Am G 
I don't suppose that you think of it too.

-------------------------------------------------------

CHORUS 2:
              C F Am G 
But it's the hold tight, hold steady,
 C F Am G 
hold tight, we're back in the game.
 C F Am G 
Just a little bit, just a little bit, just a little bit over,
 C F Am G 
just a little bit, just a little bit, just a little bit over 
 C F Am G C F Am G 
again.

-------------------------------------------------------

INSTRUMENTAL:

 C F Am G C F Am G 

-------------------------------------------------------

PRE-CHORUS 3:
     C F Am G 
And I don't suppose that you think much of anything,
     C F Am G 
But I really hope that you think of me still.

-------------------------------------------------------

CHORUS 3:
              C F Am G 
Cos it's the hold tight, keep steady,
 C F Am G 
hold tight, back in the game.
 C F Am G 
Hold tight, hold steady now,
 C F Am G 
Hold tight, hold on.....

----

Hold On Tabs by Alabama Shakes V4

 This is Heath's Lead guitar parts in their official 'Hold On' video:


Standard tuning.

Start (Palm mute)

E|-----X--------X--------X-----------------|
B|-----X--------X--------X-----------------|
G|-----X--------X--------X-----------------|
D|-----X--------X--------X-----------------| X2
A|--3--X--3--3--X--3--3--X----3----3-------|
E|--3--X--3--3--X--3--3--X--5----5---5--5--|

Verse 1, 2, 3.

E|-------------------------------------|
B|-------------------------------------|
G|-------------------------------------|
D|-------------------------------------|
A|-----7-----3-----------3-----3-------|
E|--5-----5-----5--3--5-----5-----5----|

Chorus 1, 2, 3.

First part

E|------------------------------------------------------------------------------|
B|------------------------------------------------------------------------------|
G|------------------------------------------------------------------------------|
D|---------10---------10----------------10---------10----------------10---------|
A|--10h12------10h12------10h12--10h12------10h12------10h12--10h12------10h12--|
E|------------------------------------------------------------------------------|


E|--------------|
B|--------------|
G|--10--10/12---|
D|--12--12/14---|
A|--------------|
E|--------------|

Second part

E|------------------------------------------------------------------------------|
B|------------------------------------------------------------------------------|
G|------------------------------------------------------------------------------|
D|---------10---------10----------------10---------10----------------10---------|
A|--10h12------10h12------10h12--10h12------10h12------10h12--10h12------10h12--|
E|------------------------------------------------------------------------------|


E|--------------|
B|--------------|
G|--10/12--10---|
D|--12/14--12---|
A|--------------|
E|--------------|

Third part

E|------------------------------------------------------------------------------|
B|------------------------------------------------------------------------------|
G|------------------------------------------------------------------------------|
D|---------10---------10----------------10---------10----------------10---------|
A|--10h12------10h12------10h12--10h12------10h12------10h12--10h12------10h12--|
E|------------------------------------------------------------------------------|

E|--------------|
B|--------------|
G|--10--10/12---|
D|--12--12/14---|
A|--------------|
E|--------------|

Fourth Part

(b>): Bend up (b )------12(b

Hold On chords – John Conlee

 G C G C D7                      
Hold on, Hold on, hold on tight. Its gonna be rough, but its gonna be 
  
 C G 
alright.


   G C D7 
When youre little nothing but love keeps you warm when the nights get cold 
      C D7 G 
its nice to know that Your folks are there when you need someone to hold


     G C G C D7                      
Hold on, Hold on, hold on tight. Its gonna be rough, but its gonna be 
  
 C G 
alright.


              G C D7 C 
When youre getting a little older and wearing those hand-me-downs, its nice 
                                        D7 G 
to have that old, Shaggy, dog by your heels when you turn around.


     G C G C D7                      
Hold on, Hold on, hold on tight. Its gonna be rough, but its gonna be 
  
 C G 
alright.
           
            G C D7 
When you meet the woman that loves to keep you warm when the nights get cold, 
      C D7 G 
its nice to know that shes always there when you need someone to hold.


           
     G C G C D7                      
Hold on, Hold on, hold on tight. Its gonna be rough, but its gonna be 
  
 C G 
alright.

     G C G C D7                      
Hold on, Hold on, hold on tight. Its gonna be rough, but its gonna be 
  
 C G 
alright.

Hold On chords – Sons Of The East

  Kwint & Troy (from Sir Jupiter).

Hope you enjoy this song, and don't forget to check out our band Sir Jupiter here : 
https://www.facebook.com/sirjupiter  

Artist : Sons Of The East
Song : Hold On
Album : Sons Of The East - EP [2013]


CAPO II

It's the same chords during the whole song :  Am F C Em 


INTRO:  Am F C Em 


VERSE:

 Am F C Em 
Boy walks south down on the broken track,
 Am F C Em 
Father said my son come on back


PRECHORUS

 Am F C Em 
So much trouble I must leave behind,
 Am F C Em 
You can still do well, let me remind


CHORUS:

 Am F C Em 
Ho-old, hold on
 Am F C Em 
Ho-old, hold on


 Am F C Em   x2


VERSE:


I've seen my eyes when they're clouded in dark,
You call to your god like an old skylark


PRECHORUS:


This will show us that the devil preys,
I am counting down all of my days


CHORUS:


Hold, hold on
I hold on yeah, I hold on
Hold, hold on
I hold on yeah, I hold on


BREAK:


I'll hold on now, I'll hold on I
I'll hold on now, I'll hold on I


CHORUS:


Hold, hold on
Hold, hold on


[INSTRUMENTAL]


CHORUS:


Hold, hold on
Come on back, my son, come on back my son

Hold, hold on
Before skies are red, and my day is done



If you have any suggestions/corrections, please let us know in the comments!

Hold On Till May Acoustic chords – Pierce The Veil V2

 Verse:

 Asus2 Ab/B 
  She sits up high surrounded by the sun
                                         Asus2 
One million branches and she loves everyone
                                  Ab/B 
“Mom and dad, did you search for me?
        
I’ve been up here so long I’m going crazy!”

Chorus:

 A 
  And as the sun went down we ended up on the ground
             Ab/B          
I heard the train shake the windows

You screamed over the sound
           A 
And as we own this night

I put your body to the test with mine
              Ab/B 
This love was out of control

3-2-1 where did it go?

 A Ab/B 


Verse:

 Asus2 
  Now don’t be crazy

Yes now, of course you can stay here
                               Ab/B 
You know we’re going on ten years.

“Big deal, I guess you’re official.”
                                             Asus2 
I only said it ‘cause I know what it’s like to feel

Burned out, and down
                      Ab/B 
We’ve all been there sometimes

But tonight I’ll make you feel beautiful once again



Chorus:

 A 
  And as the sun went down we ended up on the ground
             Ab/B          
I heard the train shake the windows

You screamed over the sound
           A 
And as we own this night

I put your body to the test with mine
              Ab/B 
This love was out of control

3-2-1 where did it go?


 E  -> 0-2 ->  Ab/B  -> 7 ->  A  -> 4 -> 


Bridge:

 E Ab/B 
  If I were you, I’d put that away
                         A 
See, you’re just wasted

And thinking about the past again
                    E 
Darling you’ll be okay


And she said,
 E Ab/B 
 “If you were me, you’d do the same
         A        
‘Cause I can’t take anymore

I’ll draw the shades and close the door
  E 
Everything’s not alright and I would rather…”

 E Ab/B A E 

Chorus:

 Am A 
  And as the sun went down we ended up on the ground
             Ab/B          
I heard the train shake the windows

You screamed over the sound
           A 
And as we own this night

I put your body to the test with mine
                E 
This love was out of control

Tell me where did you go?

 Ab/B A E 

------0-|
------0-|
------2-|
--2-1-2-|
------0-|
------x-|

Hold Me chords – Matt Epp

 B F# Db Ebm 
You can hold me
        B F# Db 
But you can't hold me down

       B 
Since I was a kid
           F# 
It wasn't easy to fit
       Db 
I was moving around
       Ebm 
Every couple of years
       B 
Every friend that I had
       F# Db 
Was a friend that I had to leave

     B 
And now that I am
          F# 
A more experienced man
       Db 
Now I have to believe
          Ebm 
It's all part of the plan
   B 
I still don't belong
       F# Db 
But I belong in your arms

        B F# Db Ebm 
You can hold me
        B F# Db 
But you can't hold me down

    B 
It happens with lovers
    F# 
It happens with friends
     Db 
You push them away
         Ebm 
Just by closing them in
       B 
Every friend that you have
      F# Db 
Is a friend that will have to leave

    B 
So taking my hand
      F# 
Is a good way to start
    Db 
To open the door
          Ebm 
You just open your heart
       B 
I will show you for free
         F# Db 
Just how free you can be

        B F# Db Ebm 
You can hold me
        B F# Db 
But you can't hold me down

 B F# Db 
When you're wrapping your arms around me
                      F# B 
And I'm feeling your love surround me
           Ebm Db F# 
Oh that's when I feel freedom

 B F# Db 
When you're wrapping your arms around me
                      F# B 
And I'm feeling your love surround me
           Ebm Db   
Oh that's when I feel free

 B F# Db Ebm 
Hold me
 B F# Db 
Don't hold me down

        B F# Db Ebm 
You can hold me
        B F# Db 
But you can't hold me down

Hold Yuh Tabs by Gyptian

 Hey guys, so these are the tabs to my arrangement of Gyptian - Hold Yuh
(sorry for the delay chiz!)

watch my cover of it here to get an idea of the rhythm and timing etc


By the way, this is my first tab so I may have made mistakes, so feel free to let
me know if I have!

Based around the chords D Em C G

h = Hammer On
p = Pull Off
/ = Slide

Capo 1

e|---------------------------------------------------------------|
B|-----3-3-3-1p0-0----3---0--1-1-1-0--------------------0--------|
G|----2----------0------0----0-------0-0----2---0--2--2---2-0----|
D|---0-----------2--2--------2------------0---0----0-------------|
A|---------------2-----------3-----------------------------------|
E|-------------------------------------3-------------------------|


e|---------------------------------------------------------------|
B|---------------------------------0----3-3-3--1p0-0----------1--|
G|---0--0-----0-----0--2p0--0----0-----2-----------0----2---0-0--|
D|-2-------2-----2----------0--0------0------------2--2---2---2--|
A|-2----------3------------------------------------2----------3--|
E|--------------------------3------------------------------------|

e|----------------------------------------------------------------|
B|-1-1-0-------------------0-------------------------------0------|
G|-------0-0---2---0--2--2---2-0---0--0---0---0--2p0-0--0----2--0-|
D|-----------0---0----0----------2------2---2--------0-0-----0----|
A|-------------------------------2--------3-----------------------|
E|---------3-----------------------------------------3------------|


e|----------------------------------------------------------------|
B|---0-0-0-------------0-0-0-0------------------------------------|
G|--0------0h2p0-0---0---0-----0h2p0--2-2-------0---2-----0---2---|
D|-2-------------2-2-----0------------0---0-0p2-2-2---0p2-2-2---2-|
A|2--------------3------------------------------2---------3-------|
E|-----------------------3----------------------------------------|


e|-----------------------------------------------------------------|
B|---0-0-0----------3-------0-0-0-------------0-0-0-0--------------|
G|-0-0-----0p2-2--2---2----0------0h2p0-0---0---0-----0h2p0--2-2---|
D|---0---------0----------2-------------2-2-----0------------0---0-|
A|-----------------------2--------------3--------------------------|
E|---3------------------------------------------3------------------|


e|-----------------------|
B|-----------------------|
G|-----0---2-----0---2---|
D|-0p2-2-2---0p2-2-2---2-|
A|-----2---------3-------|
E|-----------------------|


e|-----------------------------------------------------------------|
B|-0-0-0-------3-3-3-1p0-0----3---0--1-1-1-0-----------------0-----|
G -0-----0p2--2----------0------0----0------0-0---2---0-2--2---2p0-|
D|-0---------0-----------2--2--------2----------0---0---0----------|
A|-----------------------2-----------3-----------------------------|
E|-3------------------------------------------3--------------------|


e|---------------------------------------------------------------|
B|---------------------------------0----3-3-3--1p0-0----------1--|
G|---0--0-----0-----0--2p0--0----0-----2-----------0----2---0-0--|
D|-2-------2-----2----------0--0------0------------2--2---2---2--|
A|-2----------3------------------------------------2----------3--|
E|--------------------------3------------------------------------|


e|----------------------------------------------------------------|
B|-1-1-0--------------------0-------------------------------------|
G|-------0-0----2---0--2--2---2-0----0--0----0----0--2p0--0---0---|
D|------------0---0----0-----------2-------2---2----------0--0--0-|
A|---------------------------------2---------3--------------------|
E|---------3----------------------------------------------3-------|


e|-------------------------0-0------------------0-0---------------|
B