Tag: hole

A Hole In The Earth chords by Daughter

FM7sus2 (in Outro)
e|-0--|
B|-1--|  
G|-0--|  
D|-3--|  
A|-x--|
E|-x--|  

[Intro]
Am Asus2 Em FM7

[Verse]
Am         FM7
In my own turn
     Em                    F6                     Am
I'm trying to reach out I know I'll get there soon
                       FM7
There's a hole in the earth here
           Em               F
And we're walking round the edges

[Pre-Chorus]
Am                 Em
You were flaunting all your open wounds
FM7                   F
I can't express them better than you

[Chorus]
C                 Am          Asus2
You have buried childish qualities
Em                   Esus4  F                   Fadd9
Friend make sense of me, friend make sense of me
C                Am          Asus2
I have many destructive qualities
Em                   Esus4  F                   Fadd9
Friend make sense of me, friend make sense of me

[Interlude]
Am F C G

[Verse]
Am               FM7  F
  It's like an old   ruin
      C                        G        G7
Your father's a liar while my father's lying down
Am                  F
  In a hole in the earth there
     C                 G7     G13
And I'm scared I'll forget him

[Pre-Chorus]
Am                Em
I'm still haunted by those open wounds
FM7                    F
I won't express them truly to you

[Chorus]
C                 Am          Asus2
You have buried childish qualities
Em                   Esus4  F                   Fadd9
Friend make sense of me, friend make sense of me
C                Am          Asus2
I have many destructive qualities
Em                   Esus4  F                   Fadd9
Friend make sense of me, friend make sense of me

[Interlude]
Am Em F

[Bridge]
Am              G
I have so much hurt inside me
  Em                       F
Friend make sense of me, friend make sense of me
Am              G
I have so much hurt inside me
  Em                       F
Friend make sense of me, friend make sense of me

[Outro]
Am      FM7sus2 F
Friend
   Em    G   Gadd9
Friend
(x2)

Am    FM7sus2    F
Em               G        Gadd9
Am    E7sus4 FM7 F
Em               G        Gadd9
Am    FM7sus2    F
Em               G        Gadd9
Am    E7sus4     F        Fadd9
Em               G        Gadd9
Am    FM7sus2    F
Em               G        Gadd9

Where Did You Sleep Last Night Tabs – Hole

 
-------------------------------------------------------------------------------
                  Hole  - Where Did You Sleep Last Night
-------------------------------------------------------------------------------
: Scott
 sharn@fordham.edu

Tuning: EADGBE

Classic folk song famously performed by Leadbelly, and covered by Nirvana. Love and Cobain played the song
together at a Rock Against Rape benefit in Los Angeles in 1993, and Hole performed it often during
their 1991 tours. The chords are basically the same as all other versions, but I adapted it based
on what I hear in the live recordings from several Hole performances. Play with distortion.


e|----------------------------|
B|-----------2-22---3---------|
G|-----------2-22---0---------|
D|-22-22-22--2-22---0---------|
A|-22-22-22--0-00---2---------|
E|-00-00-00---------3---------|

  My girl, my girl, don't lie to me


e|------------------------------|
B|-33---------------------------|
G|-00--4444---00----------------|
D|-00--4444---00--4--2-2----2---|
A|-22--2222---22--4--2-2-2--2---|
E|-33---------33--2--0-0-3b-0---|

  Tell me where did you sleep last night?
  
[Repeat pattern throughout]

  In a patch, in a patch
  Where the sun never shines
  And my body shivered all night
  My girl, my girl don't lie to me
  Tell me where did you sleep last night?

  In a patch, in a patch
  Where the sun never shines
  And my body shivered all night
  
  Her husband was a hardworking man
  Killed a mile and a half from here
  His head was found on a driving wheel
  And his body never was found

  My girl, my girl, don't lie to me
  Tell me where did you sleep last night?
  My girl, my girl, don't lie to me
  Tell me where did you sleep last night?
  In a patch, in a patch
  Where the sun never shines
  And my body shivered all night

  My girl, my girl, where will you go?
  I'm going where the cold wind blows
  To a patch, to a patch
  Where the sun never shines
  And my body shivered all night

  My girl, my girl, don't lie to me
  Tell me where did you sleep last night?
  In a patch, in a patch
  Where the sun never shines
  And my body shivers all night

Pretty On The Inside Tabs – Hole V2

 -------------------------------------------------------------------------------
                             Pretty on the Inside - Hole
-------------------------------------------------------------------------------
: Scott

Tuning: EADGBE

This is an alternate way of playing the song

e|-------------------------------------------|
B|---00000000-00000000-00000000-00000000-----|
G|---22222222-33333333-44444444-55555555-----|
D|---00000000-11111111-22222222-33333333-----|
A|---00000000-00000000-00000000-00000000-----|
E|-------------------------------------------|


   Slutkiss girls, won't you promise her smack
   Is she pretty on the inside?
   Is she pretty from the back?
   Slutkiss girls, won't you water her rack
   Is she pretty on the inside
   Baby, pretty from the back?
   Slutkiss girl molasses, rot blackstrap
   Is she ugly on the inside, baby
   Ugly, ugly from the back?

   There is no power like my pretty power
   Like my pretty power
   Like my ugly

   Slutkiss girls, won't you promise her smack
   Is she pretty on the inside?
   Is she ugly? 
   Ugly? Ugly? Ugly? Ugly? 
   Ugly? Ugly? Ugly? Ugly?

Hole In The Door Tabs – Peer Günt

 notation legend:      

/   - slide up
\   - slide down


Intro:

E |-----------|-----------|-----------|-------------------|-------------12-----|
B |-----------|-----------|-----------|------------------___--------/12----12\-|
G#|-3-3-0--5--|-3-3-0--5--|-3-3-0--5--|----5-5-0-3-3-3-0'___'0-----------------|
E |-3-3-0--5--|-3-3-0--5--|-3-3-0--5--|----5-5-0-3-3-3-0'-|-'0-----------------|
B |-----------|-----------|-----------|-------------------|--------------------|
E |-----------|-----------|-----------|-------------------|--------------------|


Verse:

E |-------|--------------|--------------|--------------|-----------|
B |-------|--------------|--------------|--------------|-----------|
G#|-------|--------------|--------------|--------------|-----------|
E |-------|------------0-|------------0-|------------0-|-----------|
B |-------|-0-2--3-2-0---|-0-2--3-2-0---|-0-2--3-2-0---|-0-2-------|
E |-0-0-0-|--------------|--------------|--------------|-----------|


           Cold walls....  
E |-------|--------------|--------------|--------------|--------------|
B |-------|--------------|--------------|--------------|--------------|
G#|-------|--------------|--------------|--------------|--------------|
E |-------|------------0-|------------0-|------------0-|------------0-|
B |-------|-0-2--3-2-0---|-0-2--3-2-0---|-0-2--3-2-0---|-0-2--3-2-0---|
E |-0-0-0-|--------------|--------------|--------------|--------------|


   I'm lying here...
E |--------------|--------------|--------------|--------------|
B |--------------|--------------|--------------|--------------|
G#|--------------|--------------|--------------|--------------|
E |------------0-|------------0-|------------0-|------------0-|
B |-0-2--3-2-0---|-0-2--3-2-0---|-0-2--3-2-0---|-0-2--3-2-0---|
E |--------------|--------------|--------------|--------------|



                      A little light...   
E |------------------|--------------|------------------|
B |------------------|--------------|------------------|
G#|-3-3-0--5-5-5--0--|--------------|-3-3-0--5-5-5--0--|
E |-3-3-0--5-5-5--0--|------------0-|-3-3-0--5-5-5--0--|
B |------------------|-0-2--3-2-0---|------------------|
E |------------------|--------------|------------------|


   I have smoked...
E |--------------|--------------|--------------|--------------|
B |--------------|--------------|--------------|--------------|
G#|--------------|--------------|--------------|--------------|
E |------------0-|------------0-|------------0-|------------0-|
B |-0-2--3-2-0---|-0-2--3-2-0---|-0-2--3-2-0---|-0-2--3-2-0---|
E |--------------|--------------|--------------|--------------|


   I'm so worry...
E |--------------|--------------|--------------|--------------|
B |--------------|--------------|--------------|--------------|
G#|--------------|--------------|--------------|--------------|
E |------------0-|------------0-|------------0-|------------0-|
B |-0-2--3-2-0---|-0-2--3-2-0---|-0-2--3-2-0---|-0-2--3-2-0---|
E |--------------|--------------|--------------|--------------|


                      Only thing I can see.   
E |------------------|--------------|
B |------------------|--------------|
G#|-3-3-0--5-5-5--0--|--------------|
E |-3-3-0--5-5-5--0--|------------0-|
B |------------------|-0-2--3-2-0---|
E |------------------|--------------|


                      A blinking eye...   
E |------------------|--------------|
B |------------------|--------------|
G#|-3-3-0--5-5-5--0--|--------------|
E |-3-3-0--5-5-5--0--|------------0-|
B |------------------|-0-2--3-2-0---|
E |------------------|--------------|


                      A little light in the dark.   
E |------------------|--------------|
B |------------------|--------------|
G#|-3-3-0--5-5-5--0--|--------------|
E |-3-3-0--5-5-5--0--|------------0-|
B |------------------|-0-2--3-2-0---|
E |------------------|--------------|


                                There's a, there's a,                 
E |------------------|--------------|-----

Hole In The Ship chords – Bad Religion

 Hello, this is my first ever tab so I hope i didn't make any mistakes making this. It sounds good on acoustic.
I'm pretty sure most parts are correct or very close.

There is a riff that goes throughout the song you can play it or you can just play Am instead.

riff    -------------------------------------                      ----------------
        -------------------------------------                      ----------------
        -------------------------------------                      ------------0---
        -------2--------2---------2-----3--2-                      --------2-------
        ---0--------0--------0---------------     x3               ----3-----------
        -------------------------------------                      ----------------

Intro
 Am G Dm Am    
riff    C G 

Verse 1
riff                                                                               
Well they said there was nothing to worry about
                                    C G 
And they said there was no reason to shout
riff
But I saw the bulkheads cracking
                       C G 
And for us there's no way out

riff                                                                               
When we started on our journey
                        C G 
No one ever could have foreseen
riff
Our desolate and lonely ending
                           C G 
All I've got is helpless feeling
 F G 
But it doesn't take a genius to see

Chorus
           Am G Dm Am 
There's a hooooooooooooooooooooole   in the ship
             C G Am 
And there's nothing we can do
     C G Am 
Our worst fears have now come true
    C G Am 
A few of us are struggling desperately
               C G Am 
To shoot the albatross of H.M.S. Humanity
 C C/B Am G 
It's time to bail
                        Am    riff   C G 
but I think it's too late


Verse 2
riff
All my cohorts think I'm crackers
                        C G 
They've embroiled the local matters
riff
And despite obvious warning
                        C G 
They won't heed my futile chatter

 F G 
But there's something they outta know


Chorus 2

           Am G Dm Am 
There's a hooooooooooooooooooooole   in the ship
     C G Am 
The end is oh so near
       C G Am 
The others show no interest or fear
       C G Am 
Our nature overwhelms our buoyancy
          C G Am 
Yeah nothing could patch the growing vacuity
 C C/B Am G 
It's time to bail, 
                        Am 
but I think it's too late



Bridge
 Dm Am Dm Am C    
Is it possible we have a social disease that makes us close our eyes in dangerous times
 G Am 
But I'm joining in nicely?
 Dm Am Dm Am C    
Or are we too aware and simply too scared to accept destiny, our mortality 
 G E7  
Our mortality, yeah



Chorus
           Am G Dm Am 
There's a hooooooooooooooooooooole   in the ship
 C G Am 
And there's nothing we can do
 <sp

Hole In Your Heart chords – Allison Weiss

 : JimBlenderBR


** Capo 4th



Enjoy!




- Intro:  Cadd9 Cadd9 G G Cadd9 Cadd9 G G 




- Verse 1:

 Cadd9 G                      
Summer heat soaked through the sheets and kept me up all night.
 Cadd9 G 
You stayed so quiet there next to me, I held myself and tried
 C G 
to get a grip and make some sense of the distance in between,
 C Bm 
the promise of a future that I ain’t ever seen.
 Cadd9 G                          
Though taking time is wasting time, I gave you what you asked.
 Cadd9 G 
I held you tight for one more night, as long as you could last.
 C G 
but staring at the ceiling, I knew it was a lie.
 C Bm 
You said you’d always love me, but you didn’t even try to fix




- Chorus:

     C G Bm Em C G Bm Em 
The hole in your heart, the hole in your heart.
 C G Bm Em 
I should’ve known, should’ve seen from the start.
 C G Bm 
Maybe it’s the hole in your heart.




- Post-Chorus:  Cadd9 Cadd9 G G Cadd9 Cadd9 G G 




- Verse 2:

 Cadd9 G                   
People grow and people change, it’s just a fact of life,
 Cadd9 G       
but don’t you find it kind of strange it happened overnight?
 C G 
See, I’m the kind of person who waits right through the rain.
 C Bm 
Guess you’re the kind of person who runs and hides and blames it on




- Chorus:

     C G Bm E C G Bm Em 
The hole in your heart, the hole in your heart.
 C G Bm Em 
I should’ve known, should’ve seen from the start.
 C G Bm Bm 
Maybe it’s the hole in your heart.




- Bridge:

 C Bm Em C Bm 
Oh love, Now I know the reason why you go, love.
 Em C Bm 
Nothing wrong with leaving when there’s no love
 Em  
left inside your empty chest.
 C 
but like you said it, no regrets,
 Bm 
so what did I expect from the




- Chorus:

     C G Bm Em C G Bm Em 
The hole in your heart, the hole in your heart.
 C G Bm Em 
I should’ve known, should’ve seen from the start.
 C D Em 
Maybe it’s the hole in your heart.
 C Bm Em 
Maybe it’s the hole in your heart.
 C Bm Em 
Maybe it’s the hole in your heart.


__________
Hope you liked!

: JimBlenderBR

I Need You Like A Hole In My Head chords – Webb Pierce

 C D7 
I need you baby yessiree
 
   G7 C 
I need you like a hole in my head

                                      A7 
Now I'm just a wishing that you were mine

 D7 G7 
Like I'm a wishing I was dead


 C 
Your trifling ways has got me down

 F 
Made me the laughing stock of town

 C D7 
I need you baby yessiree
 
   G7 C 
I need you like a hole in my head


                      D7 
I need you baby yessiree
 
   G7 C 
I need you like a hole in my head

                                    A7 
Now I've got about as much use for you

 D7 G7 
As a quarter made of lead


   C 
A trifling woman I just can't stand

 F 
Cause I never was a trifling man

 C D7 
I need you baby yessiree
 
   G7 C 
I need you like a hole in my head


                  G7 C 
I mean it baby I need you like a hole in my head

Black Hole Sun chords – Soundgarden V6

 , so be nice :) very simple, hopefully it sounds alright.

Cadd2 ( Can be played in different ways)
e --0--
B --3--
G --0--
D --2--
A --3--
E---X--

Intro:
 
e----------------|-----------|-----------------|------------|
B-------3--------|-------3---|-------3---------|-------2----|
G-----2----2-----|-----2-----|-----0----0------|------------|
D---2--------2---|---2-------|---0--------0----|-----4------|
A-0------------0-|-3---------|-----------------|---4--------|
E----------------|-----------|-3-------------0-|-2--------0-|
 
 
e----------------|-----------|
B----------------|-----------|
G-------3--------|--------4--|
D-----3----3-----|------2----|
A---3--------3---|----5------|
E-1------------1-|--0--------|



Verse:
       A Cadd2 
In my eyes, indisposed
       G F# 
in disguise as no one knows
           F E5 
hides the face, lies the snake
     A G F# 
the sun in my disgrace
         A Cadd2 
Boiling heat, summer stench
             G F# 
beneath the black the sky looks dead
         F E5 
call my name through the cream
          A G F# 
and I'll hear you, scream again
 

Chorus:
            F E         
Black hole sun, won't you come
     A G C 
wash away the rain
            F E 
Black hole sun, won't you come
           D 
won't you come 
           E 
won't you come


Verse 2:
     A Cadd2 
Stuttering, cold and damp
           G F# 
steal the warm wind tired friend
           F E5 
times are gone for honest men
                 A G F# 
and sometimes far too long to snakes
       A Cadd2 
In my shoes a walking sleep
        G F# 
and my youth i pray to keep
        F E5 
heaven send hell away
             A G F# 
no one sings like you anymore


Chorus:
            F E         
Black hole sun, won't you come
     A G C 
wash away the rain
            F E 
Black hole sun, won't you come
           D C 
won't you come    

               F E         
Black hole sun, won't you come
     A G C 
wash away the rain
            F E 
Black hole sun, won't you come
           D 
won't you come                                        
                   C E7 
Black Hole Sun! Black Hole Sun!
                 D       
Won't you come?
                   C E7 
Black Hole Sun! Black Hole Sun!
                 D       
Won't you come? 
                   C E7 
Black Hole Sun! Black Hole Sun!
                 D       
Won't you come? 
                   C E7 
Black Hole Sun! Black Hole Sun!

Break:
e---------------------------|
B---------------------------|
G---------------------------|
D---------------------------|
A---3--2--0--3--------------|
E------------------3--2--1--| x6


E---1/3 -3--------------|



              A                     Cadd
Hang my head, drown my fear
          G F# 
Till you all just disappear


Chorus

Heaven Tonight chords – Hole

 C F 
Here comes the sun in the form of a girl          
            G C F G 
She's the finest sweetest thing in the world
             C F G 
Take you to heaven tonight
 C F 
I feel the horses coming galloping        
        G 
In the summer rain            
             C F G 
Take you to heaven tonight       
        C F G F 
'Cause I love you for what you are


 F C G 
I'll gallop to you, tonight, tonight      
       F C 
We'll ride, I'll give it to you               
 F C F G 
We're going to heaven tonight
 C F G 
Tonight


 C F        
Out on the winding road I couldn't wait         
          G 
Oh baby, I was afraid           
            C F G 
Headed for heaven tonight           
            C F G 
I'll go to heaven tonight
 C F 
I feel the horses coming galloping       
        G 
I will never grow old           
            C F G 
I'll go to heaven tonight        
         C F G F 
Because I love you for what you are


 F C G 
I'll gallop to you tonight, tonight      
       F C 
We'll ride, I'll bow down to you                
 F C F G 
We're going to heaven tonight
 C F G 
Tonight

 C G F 
I can't believe that I can be happy
 C             
Someone will come again  
   G F  
I can't be happy
 C 
Oh, stop your crying    
     G F 
You can be happy
 C G F 
Go to heaven when you make me happy


 C F 
Here comes the kiss that I never had   
    G 
Nothing feels like this           
            C F G 
Headed for heaven tonight
 C F G 
I love you
 C F 
Here comes a storm in the form of a girl           
             G C F G 
She's the finest sweetest thing in the world          
            C F C F 
I'll go to heaven tonight for what you are


 F C G 
I'll gallop to you tonight, tonight      
       F C 
We'll ride, I'll bow down to you                   
 F C F G 
We'll go to heaven tonight
 C F G 
Tonight
 C F G 
Tonight
 C F G 
Tonight        
          C F G 
Take it tonight        
          C F G 
Take it tonight        
          C F G 
Take it tonight 
 C F G 
Tonight
 C F G 
Tonight

Reasons To Be Beautiful Tabs by Hole V2

   MAIN RIFF
e- ------------------------|-3--6-1--------------------------|
B- ------------------------|-3--8-3--------------------------|
G- ------------------------|-4--8-3--------------------------|
D- ----8-------------------|-5--8-3--------------------------|
A- -5--6-8-----------------|-5--6-1--------------------------|
E- -3----6-----------------|-3-------------------------------|


 CHORUS
e- ----------------------------------------------------------|
B- ----------------------------------------------------------|
G- ----------------------------------------------------------|
D- ------6-x4---------------6-x4---------------6-x4----------|
A- -3-x8-4---6-x4-8-x8-3-x8-4---6-x4-8-x4-3-x4-4---6-x4-8-x8-|
E- -1--------4----6----1--------4----6----1--------4----6----|


 BRIDGE
e- ----------------------------------------------------------|
B- ----------------------------------------------------------|
G- ----------------------------------------------------------|
D- -5-x4---------------5-x4----------------------------------| x2
A- -3---6-x4-8-x4-3-x4-3---6-x4-8-x3-xx-6-xx-8-xx------------|
E- -----4----6----1--------4----6----xx-4-xx-6-xx------------|

 LAST CHORUS
e- ---------------------------------------------------------------------------------------------|
B- ---------------------------------------------------------------------------------------------|
G- ---------------------------------------------------------------------------------------------|
D- -----------6-x4---------------6-x4---------------6-x4---------------6-x2-xxxx----------------|
A- -8-x8-3-x8-4---6-x4-8-x4-3-x4-4---6-x4-8-x8-3-x8-4---6-x4-8-x4-3-x4-4----xxxx-6-x2-xxxx-8-x8-|
E- -6----1--------4----6----1--------4----6----1--------4----6----1--------------4----xxxx-6----|


 ENDING
e- -3--1--1--6/5--3--1--2--3---------------------------------|
B- -3--3--1--8/7--5--3--4--5---------------------------------|
G- -4--3--2--8/7--5--3--4--5---------------------------------|
D- -5--3--3--8/7--5--3--4--5---------------------------------| x2
A- -5--1--3--6/5--3--1--2--3---------------------------------|
E- -3-----1--------------------------------------------------|

e- --------------------3-------------------------------------|
B- ---3--3--3--3--3----3-------------------------------------|
G- ---0-0---0-0---0-0--0-------------------------------------|
D- --0-----0-----0---0-0-------------------------------------|
A- -1-----2-----3------2-------------------------------------|
E- --------------------3-------------------------------------|

Black Hole Sun chords – Soundgarden V5

 Soundgarden - Black Hole Sun
From the  Superunknown (1994)
Comment for any corrections and please rate


Capo 4

Intro:
 E G D C#m C B 

Verse 1:
       E G 
In my eyes, indisposed,
        D C#m 
In disguises no one knows.
            C B 
Hides the face, lies the snake,
      E F 
The sun in my disgrace.
          E G 
Boiling heat, summer stench,
             D C#m 
Neath the black the sky looks dead.
          C B 
Call my name through the cream,
           E F 
And I'll hear you scream again.

Chorus:
             C 
Black hole sun,
            B 
Won't you come,
      E D G 
And wash away the rain.
             C 
Black hole sun,
            B A B 
Won't you come, won't you come, won't you come.

Verse 2:
        E G 
Stuttering, cold and damp,
            D C#m 
Steal the warm wind tired friend.
            C B 
Times are gone for honest men,
                E F 
And sometimes far too long for snakes.
         E G 
In my shoes, a walking sleep,
         D C#m 
And my youth I pray to keep.
         C B 
Heaven sent hell away,
         E F 
No one sings like you anymore.

Chorus:
             C 
Black hole sun,
            B 
Won't you come,
      E D G 
And wash away the rain.
             C 
Black hole sun,
            B A B            
Won't you come, won't you come.

             C 
Black hole sun,
            B 
Won't you come,
      E D G 
And wash away the rain.
             C 
Black hole sun,
            B     
Won't you come,
            A G B 
Won't you come (Black hole sun, Black hole sun).
            A Em B 
Won't you come (Black hole sun, Black hole sun).
            A G B 
Won't you come (Black hole sun, Black hole sun).
            A Em B 
Won't you come (Black hole sun, Black hole sun).

Bridge:
          E G 
Hang my head, drown my fear,
          D C#m 
Till you all just disappear.

Chorus:
             C 
Black hole sun,
            B 
Won't you come,
      E D G 
And wash away the rain.
             C 
Black hole sun,
            B A B            
Won't you come, won't you come.

             C 
Black hole sun,
            B 
Won't you come,
      E D G 
And wash away the rain.
             C 
Black hole sun,
            B 
Won't you come,
            A G B 
Won't you come (Black hole sun, Black hole sun).
            A G B 
Won't you come (Black hole sun, Black hole sun).
            A G B 
Won't you come (Black hole sun, Black hole sun).
            A G B 
Won't you come (Black hole sun, Black hole s

Black Hole In My Mind chords – The Lillingtons

 The Lillingtons
Black Hole In My Mind
Death By Television
1999 Fat Wreck Chords
Submitted by: jeremyunderground41

Key:  Bb 

Tuning: Standard EADGBe

Chords used:
 Gm  - 355333
 Eb  - x68886
 Bb  - x13331
 F  -  133211
 Am  - x02210


Intro: 
Gm--F-Gm--F- x3
G--F-Gm--


Verse:
 Gm 
  They used to call
             Eb Bb 
me Captain Scott
 Gm 
  I used to be
         Eb Bb 
an astronaut
 Gm 
  Put me on a
              Eb Bb 
rocket into space
 Gm 
  And now I'm lost
           Eb Bb 
without a trace


Refrain 1:
 Eb 
  And now I'm
 Bb Gm F Gm F Gm F Gm 
really out of sight
 Eb Bb 
  And now nothing's
           F 
gonna be alright yeah


Chorus 1:
 Gm Eb 
  My life has been
            Bb 
a waste of time
            Am 
I've got a black 
            Gm 
hole in my mind
             Eb 
My life has been
            Bb 
a waste of time
            Am 
I've got a black 
            Gm 
hole in my mind
             Eb 
My life has been
            Bb 
a waste of time
            Am 
I've got a black 
            Gm 
hole in my mind
             Eb 
My life has been
            Bb 
a waste of time
            Am 
I've got a black 
hole in my mind


Guitar Solo:  Gm - Eb - Bb - Am - x2


(Repeat Verse)
(Repeat Refrain)
(Repeat Chorus 1)


Bridge:
 Gm Eb Bb Am Gm Eb Bb Am 
     In my mind


Chorus 2: Bass Only
 Gm Eb 
  My life has been
            Bb 
a waste of time
            Am 
I've got a black 
            Gm 
hole in my mind
             Eb 
My life has been
            Bb 
a waste of time
            Am 
I've got a black 
            Gm 
hole in my mind
             Eb 
My life has been
            Bb 
a waste of time
            Am 
I've got a black 
            Gm 
hole in my mind
             Eb 
My life has been
            Bb 
a waste of time
            Am 
I've got a black 
hole in my mind


Chorus 3:
 Gm Eb Bb  
  Mind
            Am 
I've got a black 
hole in my mind
 Gm Eb Bb  
  Mind
            Am 
I've got a black 
hole in my mind
 Gm Eb Bb  
  Mind
            Am 
I've got a black 
hole in my mind
 Gm Eb Bb  
  Mind
            Am 
I've got a black
                Gm (hold)
hole in my mind

Down In The Hole chords – Bruce Springsteen

 #----------------------------------PLEASE NOTE---------------------------------#
#This file is the author's own work and represents their interpretation of the #
#song. You may only use this file for private study, scholarship, or research. #
#------------------------------------------------------------------------------#

Date: Thu, 09 Jan 2014 2:30 pm
From: mister-monkey@gmx.de

DOWN IN THE HOLE
by Bruce Springsteen 
(High Hopes)

Here´s my attempt of playing along to this song. I´m not a 100% sure about everything 

but I think I got it 60-70% right. The outro is kinda hard to hear so this is just a guess. 

Corrections welcome!

Capo: 3rd fret

Chords (relative to capo)

 Am       (0-0-2-2-1-0)
 C        (0-3-2-0-1-0)
 G        (3-2-0-0-0-1)
 F        (X-X-3-2-1-1)

 Am 
Sun comes every morning but it ain't no friend
 Am C 
I get dressed and I go back again
 Am 
The rain keeps on falling on twisted bones and dirt
 Am C 
I'm buried to my heart here in this hurt
 G 
Fire keeps on burning, you're waiting in the cold
            Am 
Down in the hole


 Am 
Dark and bloody autumn pierces my heart
 Am C 
The memory of your kiss tears me apart
 Am 
The sky above is turning, the world below's gone gray
 Am C 
I thought that I could turn and walk away
 G 
Fire keeps on burning, and I'm working in the cold
            Am 
Down in the hole


 F C G 
Radio's crackling with the headlines, wind in the phone lines
 F C G 
The sun upon your shoulder, empty city skylines
 F C Am 
The day rips apart, a dark and bloody arrow pierced my heart

Interlude:   Am Am C C Am Am C C G G Am Am G G Am Am Am 
I got nothing but heart and sky and sunshine, the things you left behind
 Am C 
I wake to find my city's gone to black
 Am 
The days just keep on falling, your voice it keeps on calling
 Am C 
I'm gonna dig right here until I get you back
 G C G                 
Fires keep on burning, I'm here with you in the cold
            Am 
Down in the hole

Interlude:  C C Am 
Down in the hole

Outro:
 C C Am Am G G F C Am 

**************************************************************
Corrections are more than welcome.
E-Mail me at: mister-monkey@gmx.de
**************************************************************

Watering Hole chords – The Apache Relay

 F Bb F Bb         
Take me to your watering hole, 
           F Bb F Bb 
I've been trying to fill a well that I call my soul.
    F Bb F Bb 
Yes I've grown so thirsty, 
 F Bb F Bb 
walking this desert I thought I would be


 Am Abm Gm Am Abm Gm 
What a shame to find we are alone only in our mind.


     F Bb F Bb 
So why does a man go out wandering, 
         F Bb F Bb 
when he knows that he has all he'll ever need. 


 F Bb F Bb 
Some people say that you'll never know,
 F Bb F Bb 
whats gone missing until you let it go.


 Am Abm Gm Am Abm Gm 
What a shame to find we are alone only in our mind.
 Am Abm Gm Am Abm Gm 
Who's to blame that we try to find what we need when we close our eyes.


 F B F B 
o0O0o o0O0o


 Am Abm Gm Am Abm Gm  
What a shame to find we are alone only in our mind.
 Am Abm Gm Am Abm Gm 
Who's to blame that we try to find what we need when we close our eyes.


 F B F B 
o0O0o o0O0o

Black Hole Tabs by Washya

 -----------------------------------------------------------------------------
                   Black Hole - Washya
-----------------------------------------------------------------------------
Tuning: Standard (EBGDAE)
Intro
E|-------------------------------------------------------------------|
B|-------------------------------------------------------------------|
G|-------------------------------------------------------------------|
D|---------------------------------------------------0---------------|
A|-----------------1h2---------------------------2p1---2-----2-2-2-2-|
E|-0-0-0-0-0-0-0-0-----3-0-1-3-0-0-0-0-0-0-0-0-3---------3p2-0-0-0-0-|
PM * * * * * * * *             * * * * * * * *               * * * *

E|-----|
B|-----|
G|-----|
D|-5-8-|
A|-5-8-|
E|-3-6-|

Verses
E|---------------| |---------------------|
B|---------------| |---------------------|
G|---------------| |---------------------|
D|---------------| |---------------------|
A|---------3/4/5-| |---------8-7-5/6-5-3-|
E|-0-3-1-0-1/2/3-| |-0-3-1-0-6-5-3/4-3-1-|
PM * * * *    x12 PM * * * *             x3

Chorus
E|-----------------------------------------------------------------|
B|-----------------------------------------------------------------|
G|-----------------------------------------------------------------|
D|-------------------------------------------8-7-8-------8-7-8-8\5-|
A|---------5-6-5~---5-6-5--------------5-4-5-6-5-6-5-4-5-6-5-6-8\5-|
E|-0-000-3--------3--------6-5-0-0-0-0-3-2-3-------3-2-3-------6\3-| 

Violet Tabs by Hole V3

 Hole - Violet (Live Through This)

 *Lead Guitar

intro

e- -----------3---3-------------------------------------------------------------|
B- -----------3---3-------------------------------------------------------------|
G- -----------0---0-x4----------------------------------------------------------|
D- -6-x5-2-x5-0---0-------------------------------------------------------------|
A- -7----3----2---3-------------------------------------------------------------|
E- -----------3-----------------------------------------------------------------|


riff 1

e- -7----3----3---3-------------------------------------------------------------|
B- -7----3----3---3(don't play this chord the last time)------------------------|
G- -0----0----0---0-x4----------------------------------------------------------|
D- -6-x5-0-x5-0---0-------------------------------------------------------------|
A- -7----3----2---3-------------------------------------------------------------|
E- -----------3-----------------------------------------------------------------|

riff 2

e- -----------------------------------------------------------------------------|
B- -----------------------------------------------------------------------------|
G- -----------------------------------------------------------------------------|
D- -2----3----5-----------------------------------------------------------------|
A- -2-x5-3-x5-5-x10-------------------------------------------------------------|
E- -0----1----3-----------------------------------------------------------------|

pre-chorus

e- -----------------------------------------------------------------------------|
B- -----------------------------------------------------------------------------|
G- -----------------------------------------------------------------------------|
D- ---6-x3/---0-x3/---4-x3----------6-x3/---0-x3/---4-x3------------------------|
A- ---7---/---3---/---5------4-x3---7---/---3---/---5------4-x3-----------------|
E- --------------------------5-----------------------------5--------------------|

chorus

e- -----------------10----------------------------------------------------------|
B- -----------------10----------------------------------------------------------|
G- -9---------------11----------------------------------------------------------|
D- -9-x5-9----10----12-x5-7-----------------------------------------------------|
A- -7----9-x2-10-x5-12----7-x5--------------------------------------------------|
E- ------7-----8----10----5-----------------------------------------------------|

post chorus 1

e- -----------3---3-------------------------------------------------------------|
B- -----------3---3-------------------------------------------------------------|
G- -----------0---0-x4----------------------------------------------------------|
D- -----------0---0-------------------------------------------------------------|
A- -----------2---3-------------------------------------------------------------|
E- -----------3-----------------------------------------------------------------|

pre-chorus 2

e- ---------------------------------7---/---3---/---5----5----------------------|
B- ---------------------------------7---/---3---/---5----5----------------------|
G- ---------------------------------0-x3/---0-x3/---0-x3-0----------------------|
D- ---------------------------------6---/---0---/---4----0----------------------|
A- ---------------------------------7---/---3---/---5----4----------------------|
E- ------------------------------------------------------5----------------------|

riff 3

e- -----------------------------------------------------------------------------|
B- -----------------------------------------------------------------------------|
G- -----------12-x2-9-x3-14-x5-11-x3-0-x3-----------12-x2-9-x3-14-x2-11-x3-7-x5-|
D- -6-x2-9-x3-10----7----12----9-----0----6-x2-9-x3-10----7----12----9-----5----|
A- -7---