Tag: Horizon

Mantra chords by Bring Me the Horizon

MANTRA - BRING ME THE HORIZON (Guitar & Vocal Cover) -> https://www.youtube.com/watch?v=-zSW6MN-SIY
[Verse 1]

Intro]
D5 C5 (x4)

F5 C5 D5 (x4)

[Verse 1]
 Dm
 Do you wanna start a cult with me?
 Dm
 I'm not vibrating like I ought to be
 Bb
 I need a purpose, I can't keep surfing
 Dm
 Through this existential misery
 Dm
 Now we're gonna need some real estate
 Bb
 But if I choose my words carefully
 F
 Think I could fool you that I'm the guru
 C
 Wait, how do you spell epiphany?

 [Chorus]
 Dm             Bb                          F
 Before the truth will set you free
 It will p*ss you off
 Dm             Bb                          F
 Before you find a place to be
 You're gonna lose the plot
 Dm             Bb
 Too late to tell you now
 F                     C
 One ear and right out the other one
 Dm             Bb
 'Cause all you ever do
 F                     C
 Is chant the same old mantra

 [Verse 2]
 Dm
 Could I have your attention, please?
 Dm
 It's time to tap into your tragedy
 Bb
 Think you could use a new abuser
 Dm
 Close your eyes and listen carefully
 Dm
 Imagine you're stood on a beach
 Dm
 Water gently lapping at your feet
 Bb                                         F
 And now you're sinking, what were you thinking?
 C
 That's all the time we have this week

 [Chorus]
 Dm             Bb                          F
 Before the truth will set you free
 It will p*ss you off
 Dm             Bb                          F
 Before you find a place to be
 You're gonna lose the plot
 Dm             Bb
 Too late to tell you now
 F                     C
 One ear and right out the other one
 Dm             Bb
 'Cause all you ever do
 F                     C
 Is chant the same old mantra

 [Bridge]
 Dm                                               Bb
 And I know this doesn't make a lot of sense
 F                                                                    C
 But do you really wanna think about yourself now?
 Dm                                               Bb
 All I'm asking for's a little bit of faith
 F
 You know it's easy to believe
 Dm                                               Bb
 And I know this doesn't make a lot of sense
 F                                                                    C
 You know you gotta work the corners of your mind now
 Dm                                               Bb
 All I'm asking for's a little bit of faith
 F
 You know it's easy to believe
 C
 So easy to believe

 [Chorus]
 Dm             Bb                          F
 Before the truth will set you free
 It will p*ss you off
 Dm             Bb                          F
 Before you find a place to be
 You're gonna lose the plot
 Dm             Bb
 Too late to tell you now
 F                     C
 One ear and right out the other one
 Dm             Bb
 'Cause all you ever do
 F                     C
 Is chant the same old mantra

The Way New Horizon Chords by Housefires

Capo 3rd fret

Key: G
Capo: 3

[Chorus]
                          G
Oh, and I believe You are
        C         Em             C
the Way, the Truth, and the Life
                 G
I believe You are
        C         Em             C
the Way, the Truth, and the Life
                 G
I believe You are
        C         Em             C
the Way, the Truth, and the Life
                 G
I believe You are
        C         Em             C
the Way, the Truth, and the Life

[Verse 1]
                        G
I believe through every battle
              C
through every heartbreak
              Em           C
through every circumstance
                          G
I believe that You are my fortress
           C
You are my portion
           Em           C
You are my hiding place
                        G
I believe through every battle
              C
through every heartbreak
              Em           C
through every circumstance
                          G
I believe that You are my fortress
           C
You are my portion
           Em           C
You are my hiding place

[Chorus]
                   G
I believe You are
        C         Em             C
the Way, the Truth, and the Life
                 G
I believe You are
        C         Em             C
the Way, the Truth, and the Life

[Verse 2]
                        G
I believe through every blessing
              C
through every promise
              Em              C
through every breathe I take
                       G
I believe that You are Provider
        C
You are Protector
                Em         C
And You are the one I love, yeah

[Chorus]
                   G
I believe You are
        C         Em             C
the Way, the Truth, and the Life
                   G
I believe You are
        C         Em             C
the Way, the Truth, and the Life
                   G
I believe You are
        C         Em             C
the Way, the Truth, and the Life
                   G
I believe You are
        C         Em             C
the Way, the Truth, and the Life

[Bridge]
G                    C
  It's a new horizon
                  G
And I'm set on You
                           D
and You lead me here today 
                          G
with mercies that are new
                        C
All my fears and doubts, 
                     G                             D 
they can all come too because they can't say along
                        G
when I'm here with You
                   C
It's a new horizon
                  G
And I'm set on You
                           D
and You lead me here today 
                          G
with mercies that are new
                        C
All my fears and doubts, 
                     G                             D 
they can all come too because they can't say along

when...

[Chorus]
                   G
I believe You are
        C         Em             C
the Way, the Truth, and the Life
                   G
I believe You are
        C         Em             C
the Way, the Truth, and the Life
                   G
I believe You are
        C         Em             C
the Way, the Truth, and the Life
                   G
I believe You are
        C         Em             C
the Way, the Truth, and the Life

[Bridge]
G                    C
  It's a new horizon
                  G
And I'm set on You
                           D
and You lead me here today 
                          G
with mercies that are new
                        C
All my fears and doubts, 
                     G                             D 
they can all come too because they can't say along
                        G
when I'm here with You
                   C
It's a new horizon
                  G
And I'm set on You
                           D
and You lead me here today 
                          G
with mercies that are new
                        C
All my fears and doubts, 
                     G                             D 
they can all come too because they can't say along

[Chorus]
                   G
I believe You are
        C         Em             C
the Way, the Truth, and the Life
                   G
I believe You are
        C         Em             C
the Way, the Truth, and the Life

Blasphemy solo Tabs – Bring Me The Horizon V2

 -------------------------------------------------------------------------------
                             BLASPHEMY - Bring Me The Horizon
-------------------------------------------------------------------------------
:Maddy S
Instagram:maddybvb


Tuning:A# (B flat)

C |----------------------------------------------------------------------------------------------| 
G |------------13-------13/15----17(b)18(r)17----------------------------------------------------|
D#|---12/14---------14------------------------------------------12-------------------------------|
A#|----------------------------------------------------------------------------------------------|
F |----------------------------------------------------------------------------------------------|
A#|----------------------------------------------------------------------------------------------|

e|---10------------------------------------------10/--------------------------------------------------|
B|--------10--13---------------------------------10/--------------------------------------------------|
G|------------------12-10h12-12/14-12-10--------------------------------------------------------------|
D|----------------------------------------------------------------------------------------------------|
A|----------------------------------------------------------------------------------------------------|
E|----------------------------------------------------------------------------------------------------|

e|---10-----------------------------------------------------------------------------------------------|
B|-------13p10--------13p10-------------------------------------------13------------------------------|
G|---------------12----------12----------------10----------12/14-----------12-------------------------|
D|-------------------------------12-----10h12-------12------------------------------------------------|
A|----------------------------------------------------------------------------------------------------|
E|----------------------------------------------------------------------------------------------------|

e|-------------------------------------------13-15-15(b)17---17(b)20----15--17--13--------------------|
B|--15/17--13-13------------------13h15-----------------------------------------------15--------------|
G|----------------12p10-------------------------------------------------------------------------------|
D|----------------------------------------------------------------------------------------------------|
A|----------------------------------------------------------------------------------------------------|
E|----------------------------------------------------------------------------------------------------|


************************************

| /   slide up
| \   slide down
| h   hammer-on
| p   pull-off
| ~   vibrato
| +   harmonic
| x   Mute note
| b   Bend
| pb  Pre-bend
| br  Bend release
| pbr Pre-bend release
| brb Bend release bend

************************************

Bright Eyes chords – Art Garfunkel V5

  Urbanturban

Capo on 2nd fret



Intro:   C F C Am F G C F C 
Is it a kind of dream,
 Am F C 
Floating out on the tide,
 G C F 
Following the river of death downstream?
      Dm7 G G7 
Oh, is it a dream?

            C F C 
There's a fog along the horizon,
 Am F C 
A strange glow in the sky,
      G C F 
And nobody seems to know where you go,
                    E 
And what does it mean?
     C G7 C 
Oh-oh, is it a dream?

         Em 
Bright eyes,
  F G 
Burning like fire.
         Em 
Bright eyes,
   F Dm 
How can you close and fail?
  E7 Am G C 
How can the light that burned so brightly
   F Dm 
Suddenly burn so pale?
   G7 C 
Bright eyes.

  C F C 
Is it a kind of shadow,
  Am F C 
Reaching into the night,
  G C F 
Wandering over the hills unseen,
     Dm7 G G7 
Or is it a dream?

            C F C 
There's a high wind in the trees,
     Am F C 
A cold sound in the air,
      G C F 
And nobody ever knows when you go,
                    E 
And where do you start,
     C G7 C 
Oh-oh, into the dark.


         Em 
Bright eyes,
  F G 
Burning like fire.
         Em 
Bright eyes,
   F Dm 
How can you close and fail?
  E7 Am G C 
How can the light that burned so brightly
   F Dm 
Suddenly burn so pale?
   G7 C 
Bright eyes.


         Em 
Bright eyes,
  F G 
Burning like fire.
         Em 
Bright eyes,
   F Dm 
How can you close and fail?
  E7 Am G C 
How can the light that burned so brightly
   F Dm 
Suddenly burn so pale?
   G7 C 
Bright eyes.


I learned this from Bob Tulip's Youtube lesson. It's really good, so check it out 
if you are having trouble with the rhythm. Have fun!

Island Of The Honest Man chords – Hot Hot Heat

 Great song, thanks chordify.net that helped a lot. Enjoy!



I was picked up and then dropped off in a 
                                             B F#m 
culture counter-clockwise turned around
       C#m 
Dug a hole in Southern Carolina,
 E B F#m 
took me straight to China safe and sound
 A E B F#m  
Donated my map to the lost and found


 C#m 
While working for a common cause 
        E B F#m 
I only got a kamikaze state of mind
           C#m 
This self defeating meeting of the minds
    E B F#m 
is eating what was once so hard to find
     A E B F#m 
But right then the clouds parted in the sky


     A E B 
The horizon took us all a little by surprise
       C º                 C#m     
By surprise, watch the sky
And as the howling winds subdsided,
the locals ran out, all waving their hands and singing:


 E A 
Welcome to the island of the honest man
 E A 
Do what you want - there is no need to impress us     
 E A 
Welcome to the island of the honest man
 E A 
We don't believe in what the big people tell us
 B C º
Wait here - stay here


I was picked up and then dropped off in a 
                                             B F#m 
culture counter-clockwise turned around
          C#m         
Rolled a pair of dice in Paris 
          E B F#m 
that got me to paradise all safe and sound.
 A E B F#m 
Stole my temper back from the lost and found


           A           
No longer needed to be seated on a 
 E B 
sinking ship just waiting there to drown
          C º                C#m 
There to drown - jump off now
And as they lead us to their village,
a thousand voices all started to sing out loud:


 E A 
Welcome to the island of the honest man
 E A 
Do what you want - there is no need to impress us     
 E A 
Welcome to the island of the honest man
 E A 
We don't believe in what the big people tell us
 B C º
Wait here - stay here


 C#m E 
From the sunrise up above to the sunset below, they all sing
 C#m E 
Welcome in, welcome back, well come on let's go
 C#m E 
And all the people on the island they already know why they sing
 C#m E 
Welcome in, welcome back, well come on let's go
 C#m E 
From the sunrise up above to the sunset below, they all sing
 C#m E 
Welcome in, welcome back, well come on let's go
 C#m E 
And all the people on the island they all want to show why they sing,
 C#m 
why they sing, why they sing, why they're singing


 E A 
Welcome to the island of the honest man
 E A 
Do what you want - there is no need to impress us     
 E A 
Welcome to the island of the honest man
 E A 
We don't believe in what the big people tell us


 E A 
Welcome to the island of the honest man
 E A 
This is the island of the honest man
 E A 
Welcome

Islands chords – Sara Bareilles

 Islands by Sara Bareilles
 The Blessed Unrest
Track 11
2013


Half Step Down Tuning


Chords:

Em:      x22000
G:       320003 or 320033
D:       xx0232
A:       x02220
C:       x32010
Bm:      x24432

(To play in standard tuning, put a capo on the 6th fret and replace the chords above by 
Am, C, G, D, F & Em)


  Intro:     Em      (G)  D        x 2


 Em                (G)    D 
 Waiting for the bus stop
 Em                          (G)    D 
 Waiting for the concrete black top to settle down
 Em                      (G)   D A C 
 Long enough for me to get off and get a little ground

 Em                  (G)     D 
 I'm ready for the sea change
 Em                   (G)             D 
 Helpless felt this coming from a mile away
 Em                         (G)   D A G 
 And now you're looking at me babe, and how we'll separate if we can
                              G Bm C 
 Cause I still count on one hand the number of good men I know


                  D Em 
 It's like I'm standing on the edge with just a telephone wire
             C 
 Trying to get to you first to say the world's on fire
 D Em 
 Holding my breath until I know you're alright
               C 
 Because the water will only rise

 When will you realize
 D Em 
 You must become an island
 C G 
 You must become an island
   D Em 
 You must become an island
       C 
 And see for yourself that that's what I am


 Em      (G)  D      x 2


 Em                        (G)   D 
 You always dirty up the windows
          Em 
 If you keep 'em at bay that way
          (G)         D Em 
 No one's gonna surprise you by getting too close
             (G)   D
 Anybody but me though
                 A G 
 You've made exceptions to your rules
                               G Bm C 
 And now we're staring down truth neither one of us wants to know


                  D Em 
 It's like I'm standing on the edge with just a telephone wire
             C 
 Trying to get to you first to say the world's on fire
 D Em 
 Holding my breath until I know you're alright
               C 
 Because the water will only rise

 When will you realize
 D Em 
 You must become an island
 C G 
 You must become an island
   D Em 
 You must become an island
       C G D Em 
 And see for yourself the horizon is all we have
       C G D Em C 
 And see for yourself the horizon is all we have


 D Em 
 Holding my breath until I know you're alright
               C 
 Because the water will only rise

Deep Water Horizon chords – Epica

 Em Bm 
We have to wait
       G D 
For a dying day, full of black decay
 Em Bm 
We'll find a way
      G D Am 
To become aware, breathing tainted air
               G 
We change the lanes in every second of our lives
 Em Bm 
Lost in our minds
                 G D 
We'll taste the water's brine, all for the silver shine 
 Em Bm 
Can't stay the same
                 G D Am                         
Should end this bloody game, bare in the venom rain
             G B7 
To fuel the greed to feed the hungered has its price
              Bbm Ebm 
There's the feeling once again
                F Gb 
The day where black and white began
           Bbm Ebm Ab 
Await the ending of our everlasting violence
                Bbm Ebm 
We've all been healing from the pain
              F Gb 
From all the misery and constraint

We're inhaling fumes again 
               Ab 
So don't deny it
 Em Bm 
Lies will unwind
         G D 
The verity you'll find, upon the moor resigned 
 Em Bm 
Primary gain
              G D                        
Comes with a thousand slain, all for the greater vain
              G B7 
Without the horror causing hazard we'll survive 
               Bbm Ebm 
There's the feeling once again
                 F Gb 
The day where black and white began
           Bbm Ebm Ab 
Await the ending of our everlasting violence
                Bbm Ebm 
We've all been healing from the pain
                
              F Gb 
From all the misery and constraint

We're inhaling fumes again 
                Ab 
So don't deny it

//Please submit your corrections and ideas ;)

The House Of Wolves chords – Bring Me The Horizon

 Sorry it's not great but it's my first tab.
(It's for the acoustic guitar but i'm sure it'd work on electric too)

Play with the capo wherever you find easier, I play capo 2.
 C Am Em G  all through the song


           C Am 
Show me a sign, show me a reason to give,
    Em G 
A solitary fuck about your god damn beliefs
           C Am 
I'm going blind, but one thing's clear
 Em G 
Death is the only salvation you'll feel


 C Am Em G 
Brick by brick by brick   

 C Am Em G 
Brick by brick by brick


               C Am 
What you call faith, I call a sorry excuse
 Em G 
Cloak and daggers murder the truth
            C Am 
The bitter taste, there's nothing else
      Em G 
I'll bow for your king when he shows himself


 C Am 
Brick by brick by brick
       Em G 
These walls begin to cave in
     C Am 
The house of wolves you built
 Em G 
Whispers in a thousand tongues


              C Am 
Show me your face, show me a reason to think,
    Em G 
My soul can be saved if I sell you my sins
           C Am 
I'm going blind, but one thing's clear
 Em G 
Death is the only salvation for me


 C Am 
Brick by brick by brick
       Em G 
These walls begin to cave in
     C Am 
The house of wolves you built
 Em G 
Whispers in a thousand tongues


      C Am Em G 
(The house of wolves you built)
     C Am             
The house of wolves you built
      Em G 
Will burn just like a thousand suns

 C Am 
When you die, the only kingdom you'll see
    Em G 
Is 2 foot wide and 6 foot deep


C   -   Am   -   Em   -   G X2 (for he instrumental part including the YEAH)


 C Am 
When you die, the only kingdom you'll see
    Em G 
Is 2 foot wide and 6 foot deep
(HEAVIER STRUMMING IS OPTIONAL FOR THE NEXT 2 LINES)
 C Am 
When you die, the only kingdom you'll see
    Em G 
Is 2 foot wide and 6 foot deep


 C    -    Am    -    Em    -    G C Am Em G 
Brick by brick by brick
 C Am Em G 
Brick by brick by brick
 C Am          
Brick by brick by brick
       Em G 
These walls begin to cave in
     C Am 
The house of wolves you built
 Em G 
Whispers in a thousand tongues

 C Am          
Brick by brick by brick
       Em G 
These walls begin to cave in
     C Am 
The house of wolves you built
      Em G 
Will burn just like a thousand suns


 C    -    Am    -    Em    -    G C Am 
You said you want me
         Em G 
Now I'm here, now I'm here, now I'm here
 C Am 
You said you want me
         Em G 
N

Hospital For Souls Acoustic Tabs by Bring Me The Horizon

 -------------------------------------------------------------------------------
                             Hospital For Souls Acoustic - Bring Me the Horizon
-------------------------------------------------------------------------------
: joanofarch

Tuning: standard

Capo on 3

Hi! . I looked for easy, acoustic tabs/videos for this song and did
not see any. It will not be exactly like the song (obviously). I made this tab to look
pretty simple. I hope it is clear enough. If you have any suggestions to make it better, 
let me know!

Chords: G#5, F, Dm, Em



:39 to 1:05

e|-10---11---8------10---11---8------------|
B|-------------8---------------8-----------|
G|-----------------------------------------|
D|-----------------------------------------|
A|-----------------------------------------|
E|-----------------------------------------|

1:06 to 1:34

Play the chords very fast strumming down. Listen to the song to know when the chords change.

       G#5               F                Dm              Em
e|-0-----------  e|-0-----------  e|-4-----------  e|-0-----------|
B|-0-----------  B|-4-----------  B|-6-----------  B|-0-----------|
G|-5-----------  G|-5-----------  G|-5-----------  G|-0-----------|
D|-5-----------  D|-6-----------  D|-0-----------  D|-5-----------|
A|-0-----------  A|-0-----------  A|-x-----------  A|-5-----------|
E|-0-----------  E|-x-----------  E|-x-----------  E|-x-----------|


1:35 to 2:16

Strumming: down, down, down, up, down, down, down slowly and quietly.
Change chords when done with the strumming pattern

2:17 to 2:44

Same strumming, but a little louder

2:45 to 3:11

Very fast strumming, down

3:12 to 5:35

Back to old strumming ddduddd

5:39 to 6:37

Very fast strumming downward. Let the last strum ring out at the end of the song.

Can You Feel My Heart Tabs by Bring Me The Horizon V3

 ( @sheeransdearest on twitter)

Okay so basically this is the intro I play. I'm pretty sure it's right but the last e 
doesn't have to be correct. I played it by ear on the piano and tried to tab it, so please 
don't be angry with me if it's wrong.

e |----------------------------------------------------|
H |-0--0--0--3-1--0--0--0-3-1--0--0--0--3-1--0--0--0---|
G |----------------------------------------------------|
D |--------------------------------------------------2-|
A |----------------------------------------------------|
E |----------------------------------------------------|

You can play it either twice ooor you can do it like me. I just leave the first h out 
and strum the cords.

e |-C------------Am-------------Em-------------G--------|
H |-C--0--0--3-1-Am--0--0--3-1--Em--0--0-3-1---G--0--0--|
G |-C------------Am-------------Em-------------G--------|
D |-C------------Am-------------Em-------------G------2-|
A |-C------------Am-------------Em-------------G--------|
E |-C------------Am-------------Em-------------G--------|

The cords for the rest of the song are C Am Em G.
You can continue strumming, D D D DU would be a really easy pattern and is the same 
rythm as the intro picking, but you can do whatever pattern you like. When there's no 
singing, you can also play the inro picking, I think it sounds pretty rad.

I really hope I could help you with this :) Keep going and btw you rock bc bmth okay

Chasing Rainbows Tabs by Bring Me The Horizon

 Intro: Riffs

e|------------------------------------------------------------------|
B|------------------------------------------------------------------|
G|----------12121212\15151515\10101010------------------------------|
D|---8\5-X4---------------------------------------------------------|
A|------------------------------------------------------------------|
D|------------------------------------------------------------------|

e|------------------------------------------------------------------|
B|------------------------------------------------------------------|
G|----------12121212\15151515\10101010--13h14p13--------------------|
D|---8\5-X4---------------------------------------------------------|
A|------------------------------------------------------------------|
D|------------------------------------------------------------------|

Intro: Chords

e|----------------------------------|
B|----------------------------------|
G|----------------------------------|
D|---10----6----3-------------------|
A|---10X8--6X4--3X4-----------------|X3
D|---10----6----3-------------------|

Interlude: Chords

e|---------------------------------------------|
B|---------------------------------------------|
G|---------------------------------------------|
D|---10~-6~-3~--X4|--6----8----3~----3---------|
A|---10~-6~-3~--X4|--6X8--8X8--3~X3--3X3-------|
D|---10~-6~-3~--X4|--6----8----3~----3---------|

Refrain: Riffs

e|------------------------------------------------------------------|
B|------------------------------------------------------------------|
G|----------12121212\15151515\10101010------------------------------|
D|---8\5-X4---------------------------------------------------------|
A|------------------------------------------------------------------|
D|------------------------------------------------------------------|

e|------------------------------------------------------------------|
B|------------------------------------------------------------------|
G|----------12121212\15151515\10101010--13h14p13--------------------|
D|---8\5-X4---------------------------------------------------------|
A|------------------------------------------------------------------|
D|------------------------------------------------------------------|

e|------------------------------------------------------------------|
B|--11-13-16X3--11-13-16x5----8-11-13X3---6-8-4-3h4p3~--------------|X2
G|------------------------------------------------------------------|
D|------------------------------------------------------------------|
A|------------------------------------------------------------------|
D|------------------------------------------------------------------|

Refrain: Chords

e|----------------------------------|
B|----------------------------------|
G|----------------------------------|
D|---10----6----3-------------------|
A|---10X8--6X4--3X4-----------------|X4
D|---10----6----3-------------------|

Interlude: Chords

e|----------------|-----------------------|--------------------------|
B|----------------|-----------------------|--------------------------|
G|----------------|-----------------------|--------------------------|
D|---10~-6~-3~--X4|--6----8----3~----1~---|--6~--8~--3~--1~----------|
A|---10~-6~-3~--X4|--6X8--8X8--3~X3--1~X3-|--6~--8~--3~--1~----------|
D|---10~-6~-3~--X4|--6----8----3~----1~---|--6~--8~--3~--1~----------|

Refrain: Riffs

e|------------------------------------------------------------------|
B|------------------------------------------------------------------|
G|----------12121212\15151515\10101010------------------------------|
D|---8\5-X4---------------------------------------------------------|
A|------------------------------------------------------------------|
D|------------------------------------------------------------------|

e|------------------------------------------------------------------|
B|-------

Join The Club Tabs by Bring Me The Horizon

 Intro: Riffs

e|--------------------------|
B|--------------------------|
G|------8~-5h6p5------------|X8
D|--3-8---------------------|X8
A|--------------------------|
D|--------------------------|

Refrain: Chords

e|-------------------------------|
B|-------------------------------|
G|-----8---------8---------------|X2
D|--3--8X2--3----8X3--6----------|X2
A|--3--6----3X2--6----6X13-------|X2
D|--3-------3---------6----------|X2

Interlude: Riff

e|--------------------------|
B|--------------------------|
G|------8~-5h6p5------------|X2
D|--3-8---------------------|X2
A|--------------------------|
D|--------------------------|

Interlude: Chords

e|-----------|
B|-----------|
G|--10~------|
D|--10~------|
A|-----------|
D|-----------|

Well join the club!

e|-------------------------------|
B|-------------------------------|
G|-------------------------------|
D|--0----8----x----6-------------|
A|--0X2--8X3--xX2--6X3-----------|
D|--0----8----x----6-------------|

Interlude: Riff

e|--------------------------|
B|--------------------------|
G|------8~-5h6p5------------|X2
D|--3-8---------------------|X2
A|--------------------------|
D|--------------------------|

Interlude: Chords

e|-----------|
B|-----------|
G|--10~------|
D|--10~------|
A|-----------|
D|-----------|

Well join the club!

e|-------------------------------|
B|-------------------------------|
G|-------------------------------|
D|--0----8----x----6-------------|
A|--0X2--8X3--xX2--6X3-----------|
D|--0----8----x----6-------------|

Interlude 2: Chords

e|---------------------------|----------------------------------|
B|---------------------------|----------------------------------|
G|---------------------------|----------------------------------|
D|--3^--3--x----3^--3--1\12--|--3^--3--x----0-------------------|X2
A|------3--xX4------3--1\12--|------3--xX4--0X3-----------------|X2
D|------3--x--------3--1\12--|------3--x----0-------------------|X2

Refrain: Chords

e|-------------------------------|
B|-------------------------------|
G|-----8---------8---------------|X4
D|--3--8X2--3----8X3--6----------|X4
A|--3--6----3X2--6----6X13-------|X4
D|--3-------3---------6----------|X4

Refrain: Riffs (Do you think you're the only one..?)

e|-------------------------------------|
B|-------------------------------------|
G|--8^8^8^5-X2--5^5^5^5----------------|X2
D|-------------------------------------|
A|-------------------------------------|
D|-------------------------------------|

Interlude 2: Chords

e|---------------------------|----------------------------------|
B|---------------------------|----------------------------------|
G|---------------------------|----------------------------------|
D|--3^--3--x----3^--3--1\12--|--3^--3--x----0-------------------|X2
A|------3--xX4------3--1\12--|------3--xX4--0X3-----------------|X2
D|------3--x--------3--1\12--|------3--x----0-------------------|X2

Soft piano...

Refrain: Chords

e|-------------------------------|
B|-------------------------------|
G|-----8---------8---------------|X4
D|--3--8X2--3----8X3--6----------|X4
A|--3--6----3X2--6----6X13-------|X4
D|--3-------3---------6----------|X4

Refrain: Riffs (Do you think you're the only one..?)

e|-------------------------------------|
B|-------------------------------------|
G|--8^8^8^5-X2--5^5^5^5----------------|X2
D|-------------------------------------|
A|-------------------------------------|
D|-------------------------------------|

End: Chords

e|---------------------|
B|---------------------|
G|---------------------|
D|--3^--3--------------|
A|------3X6------------|
D|------3--------------|

Blessed With A Curse solo Tabs by Bring Me The Horizon V2

 Example in this video/Ejemplo en este vídeo: http://www.youtube.com/watch?v=Mx1sR-kIP78

Intro

e|-----------------------------------------------------------------|
B|-----------------------------------------------------------------|
G|--5--4--2~----5--7--12-------------------------------------------| 
D|--7--5--3~----7--9--14--8~---------------------------------------|
A|-----------------------------------------------------------------|
D|-----------------------------------------------------------------|

Solo in 3:07


e|----------------10-13-15-17^17-15p13-15\18-15~-------------------|
B|---------11-8~---------------------------------------------------|
G|---7-10----------------------------------------------------------|
D|-----------------------------------------------------------------|
A|-----------------------------------------------------------------|
D|-----------------------------------------------------------------|

e|-----------------------------------------------------------------|
B|-----------------------------------8-6-3-------------------------|
G|--------------------------------7^-------------------------------| 
D|--5-8-10^10^10^10p8-5~--333~-------------------------------------|
A|-----------------------------------------------------------------|
D|-----------------------------------------------------------------|

e|-----------------------------------------------------------------|
B|-----------------------------------------------------------------|
G|--5p3-5p3--------------------------------------------------------|
D|----------5p3-5p3------------------------------------------------|
A|------------------5p3-5p3--3p1-3p1-------------------------------|
D|-----------------------------------5p3 5p3-5~--------------------|


Riffs in 3:29
e|-----------------------------------------------------------------|
B|-----------------------------------------------------------------|
G|--7-10-12-12\15-12~----7-10-12\15-12-15-15\17-15-17-17^17p15-12~-| 
D|-----------------------------------------------------------------|
A|-----------------------------------------------------------------|
D|-----------------------------------------------------------------|

e|-------------------------------------------------------------------------|
B|-----------------------------11------------------------------------------|
G|---12-15-17-17^17p15-17~---7----10-12~--101010-88-7-8p7~--555-33-2-3p12--| 
D|-------------------------------------------------------------------------|
A|-------------------------------------------------------------------------|
D|-------------------------------------------------------------------------|

e|-----------------------------------------------------------------|
B|-----------------------------------------------------------------|
G|--10-12-14-14^14p12-14^-1010~------10-12-14-14^14p12-14^-1212----| 
D|-----------------------------------------------------------------|
A|-----------------------------------------------------------------|
D|-----------------------------------------------------------------|

e|--151515-131313-111111-101010-11p10~-----888-66-5-6p5~-----------|
B|-----------------------------------------------------------------|
G|-----------------------------------------------------------------| 
D|-----------------------------------------------------------------|
A|-----------------------------------------------------------------|
D|-----------------------------------------------------------------|

Singularity – Horizon Feat Nilu chords

 D A 
They say I should be present
 F#m 
Find my independence 
 D F#m A 
Breathe in; doing this on my own

 D A 
Then I start to remember
 F#m 
Just  why I surrender
 D F#m A 
Felt so good that I can’t let go

 D 
And I’m back to where I was again
 F#m E D 
Take you in as you took me out
                                          F#m 
Cut this string, I’m getting higher
                                E A 
And I can’t seem to come down

                              Bm 
Tell me, how can I wait?
               F#m E D 
Tell me, how can I take a chance on it all?
              A F#m 
Cut this string, I’m getting higher
       E A 
And I can’t seem to come down

 D A 
Shapeshift you deceive me
 F#m 
Make me think that I need
 D F#m A 
More from you than you will give out

 D A 
Why can’t I just listen?
 F#m 
I create my prison
 D F#m A 
I’m chained by my own heart and life

 D 
And I’m back to where I was again
 F#m E D 
Take you in as you took me out
                                          F#m 
Cut this string, I’m getting higher
                                E A 
And I can’t seem to come down

                              Bm 
Tell me, how can I wait?
               F#m E D 
Tell me, how can I take a chance on it all?
              A F#m 
Cut this string, I’m getting higher
       E A 
And I can’t seem to come down

Can You Feel My Heart Tabs by Bring Me The Horizon V2

 Drop D-Tuning

There is a pretty nice tab online, i just added some small corrections.



Synth Intro

e|-7-7-7-10-8-7-7---7-10-8-7-7-7-10-8-7-7---7---7---7--7|
B|----------------5-----------------------5---5---5-----|
G|------------------------------------------------------|
D|------------------------------------------------------|
A|------------------------------------------------------|
D|------------------------------------------------------|

Guitar Chords

e|-----------------------------------------|
B|-----------------------------------------|
G|-5---2-------------2---5-----------------|
D|-5---2---2-----5---2---5---2-------------|
A|-3---0---2-----5---0---3---2-------------|
D|---------2-----5-----------2-------------|
           ^
         hold it pretty long


Riff
e|---------------------------------------------|
B|---------------------------------------------|
G|-----------------------4---------------------|
D|-------------------5----------7p5------------|
A|--5/7---------5--7------------------7--------|
D|---------------------------------------------|

e|---------------------------------------------|
B|---5--5--5--5--------------------------------|
G|---------------4---5(hold)-------------------|
D|---------------------------------------------|
A|---------------------------------------------|
D|---------------------------------------------|


e|---------------------------------------------|
B|---------------------------------------------|
G|--------4------------------------------------|
D|--5--7-----7--5------------------------------|
A|------------------7(hold)--------------------|
D|---------------------------------------------|


Synth Bridge
e|----------7--------------7---------------------|
B|--8-----7----5-7-8-----7-----------------------|
G|-----------------------------------------------|
D|-----------------------------------------------|
A|-----------------------------------------------|
E|-----------------------------------------------|

Chorus

e|-----------------------------------------|
B|-----------------------------------------|
G|-5---2-------------2---5-----------------|
D|-5---2---2-----5---2---5---2-------------|
A|-3---0---2-----5---0---3---2-------------|
D|---------2-----5-----------2-------------|
           ^
         hold it pretty long


All thanks to pakopako for his great tab!

Go To Hell For Heavens Sake Tabs by Bring Me The Horizon V2

 Drop C

D||-------|------------------------|------------------------|
A||-------|------------------------|------------------------|
F||-------|------------------------|------------------------|
C||-------|--7---7---7--7---7---7--|--7---7---7--3---3---3--|
G||-------|--7---7---7--7---7---7--|--7---7---7--3---3---3--|
C||-------|--7---7---7--7---7---7--|--7---7---7--3---3---3--|


------------------------|------------------------|------------------------|
------------------------|------------------------|-------------3---3---3--|
------------------------|------------------------|-------------2---2---2--|
--5---5---5--5---5---5--|--5---5---5--5---5---5--|--0---0---0--0---0---0--|
--5---5---5--5---5---5--|--5---5---5--5---5---5--|--0---0---0--0---0---0--|
--5---5---5--5---5---5--|--5---5---5--5---5---5--|--0---0---0--0---0---0--|


------------------------|------------------------|------------------------|
-------------5---5---5--|------------------------|------------------------|
-------------4---4---4--|------------------------|------------------------|
--0---0---0--2---2---2--|--3---3---3--3---3---3--|--3---3---3--3---3---3--|
--0---0---0--2---2---2--|--3---3---3--3---3---3--|--3---3---3--3---3---3--|
--0---0---0--2---2---2--|--3---3---3--3---3---3--|--3---3---3--3---3---3--|


------------------------|------------------------|------------------------|
------------------------|------------------------|------------------------|
------------------------|------------------------|------------------------|
--7---7---7--7---7---7--|--7---7---7--3---3---3--|--5---5---5--5---5---5--|
--7---7---7--7---7---7--|--7---7---7--3---3---3--|--5---5---5--5---5---5--|
--7---7---7--7---7---7--|--7---7---7--3---3---3--|--5---5---5--5---5---5--|


------------------------|------------------------|------------------------|
------------------------|-------------3---3---3--|-------------5---5---5--|
------------------------|-------------2---2---2--|-------------4---4---4--|
--5---5---5--5---5---5--|--0---0---0--0---0---0--|--0---0---0--2---2---2--|
--5---5---5--5---5---5--|--0---0---0--0---0---0--|--0---0---0--2---2---2--|
--5---5---5--5---5---5--|--0---0---0--0---0---0--|--0---0---0--2---2---2--|


------------------------|------------------------|
------------------------|------------------------|
------------------------|------------------------|
--3---3---3--3---3---3--|--3---3---3--3---3---3--|
--3---3---3--3---3---3--|--3---3---3--3---3---3--|
--3---3---3--3---3---3--|--3---3---3--3---3---3--|


----------------------------------|----------------------------------|
----------------------------------|----------------------------------|
----------------------------------|----------------------------------|
----------------------------------|----------------------------------|
----------------------------------|----------------------------------|
--7-7-7-7-7-7-7-7-7-7-7-7-7-7-7-7-|--7-7-7-7-7-7-7-7-7-7-7-7-7-7-7-7-|



----------------------------------|----------------------------------|
----------------------------------|----------------------------------|
----------------------------------|----------------------------------|
----------------------------------|----------------------------------|
----------------------------------|----------------------------------|
--5-5-5-5-5-5-5-5-5-5-5-5-5-5-5-5-|--5-5-5-5-5-5-5-5-5-5-5-5-5-5-5-5-|

----------------------------------|
----------------------------------|
----------------------------------|
----------------------------------|
----------------------------------|
--3-3-3-3-3-3-3-3-3-3-3-3-3-3-3-3-|

---------------------------------------------|-------------------|
---------------------------------------------|-------------------|
---------------------------------------------|-------------------|
---------------------------------------------|-------------------|
----------------------------------------

Sleepwalking Acoustic chords – Bring Me The Horizon

 ! enjoy


Standard Tuning

CAPO 6


 C Am Em                                                      
My secrets are burning a hole through my heart
         G          
And my bones catch a fever
 C Am 
When it cuts you up this deep
  Em G 
It's hard to find a way to breathe
 C Am 
Your eyes are swallowing me
 Em 
Mirrors start to whisper
 G 
Shadows start to sing
 C Am 
My skin's smothering me
 Em G 
Help me find a way to breathe

 C Am 
Time stood still
  Em G 
The way it did before
 C Am Em G 
It's like I'm sleepwalking
 C Am Em G 
Fell into another hole again
 C Am Em G 
It's like I'm sleepwalking

 C Am 
I'm at the edge of the world
 Em 
Where do I go from here?
 G 
Do I disappear?
 C Am 
Edge of the world
 Em 
Should I sink or swim?
 G 
Or simply disappear?

 C Am 
Your eyes are swallowing me
 Em 
Mirrors start to whisper
 G 
Shadows start to sing
 C Am 
My skin's smothering me
 Em G 
Help me find a way to breathe

 C Am 
Time stood still
  Em G 
The way it did before
 C Am Em G 
It's like I'm sleepwalking
 C Am Em G 
Fell into another hole again
 C Am Em G 
It's like I'm sleepwalking

 C 
Wake up!
 Am 
Take my hand 
 Em G 
Give me a reason to start again
 C 
Wake up!
 Am 
Take my hand 
 Em G 
Give me a reason to start again

 C Am 
Your eyes are swallowing me
 Em 
Mirrors start to whisper
 G 
Shadows start to sing
 C Am 
My skin's smothering me
 Em G 
Help me find a way to breathe

 C Am 
Time stood still
  Em G 
The way it did before
 C Am Em G 
It's like I'm sleepwalking
 C Am Em G 
Fell into another hole again
 C Am Em G 
It's like I'm sleepwalking

Beady Eyes On The Horizon chords – Jukebox The Ghost

 My favourite song by my favourite band - I *think* this is almost correct.  
Standard tuning, no capo.  Please forgive any lyrical errors!

All chords should really be played as barre chords, but let's face it, those are 
uncomfortable and are really only necessary when a Cm or Gsus4 chord is coming up.


__________



 G       -   320033/355433
 Bm      -   x24432
 C       -   x32010/x35553
 Em      -   022000
 Cm      -   x35543
 Gsus4   -   355533



           G Bm   
There's a dead man hanging,
 C                
slumped over the steering wheel
       G Bm C        
of an interstate runaway bursting into flames.



         G Bm 
And the devil was gently breathing, 
           C                
sleeping face-down in my apartment, 
          G Bm C        
and like all his friends I'm growing tired of his games.
 


                        G Bm 
And there's a homeless man arranging his hands,
                 Em C 
grooving to the beat radiating from a police scanner.
              G Bm 
He said "The air was feeling good to me, 
    Em C 
as cool and ripe as air can be." 



       G Bm 
And a woman who sincerely believes 
      Em C 
in UFOs (UFOs) - you can blame her when the   stars are hanging
     G Bm 
overhead, dangling by a thread, 
          Em Cm 
floating ten thousand feet off the ground.



              G Bm 
This was the story told to me 
      Em C 
when I was just the age of seventeen; 
           G Bm 
one which God himself dictated to me, 
           C  (staccato)
He said, "This is how all this shit's gonna be,
        G Bm Em C 
when I blow your little planet into smithereens (smithereens) 
 G Bm Em C  
Blow your little planet into smithereens"
    G Bm 
It haunted my dreams 
         Em C 
like an accident on replay 
      G Bm Em C     
on a TV screen.



 Cm G             
She sees faces in her dreams; 
 Em                      
strange machines she'd never seen.
 G                   
Blueprints of submarines 
       Em                    
to reassemble in a time of dire need (dire need).



                G                        
And there were preachers in the desert, 
 Em                    
waving to the crowd,
           G                     
dictating seven angry letters 
        Em             
from a man up in the clouds



                G 
And there were twenty-seven soldiers
         Bm 
telling twenty-seven lies,
        Em                             
and a hole inside a hurricane
        Cm 
with a pair of beady eyes.


           G Gsus4 
A pair of beady eyes looking down 
 Em Cm 
onto the pavement while the stars are gathered 'round.
                 G Gsus4 
Because they all want a front seat when shit starts going down,
             Em C  (staccato)       Cm - Cm 
because the Sun is just a supernova turned the other way around! 


Truth Chords – Alexander Ebert V2

 Truth - Alexander Ebert

Intro (with whistle)  Gm A# Gm A# Gm D# A# F Gm 
Truth.
 Gm 
The truth is that I never shook my shadow

Every day it's trying to trick me into doing battle
                 A# 
Calling out 'faker' only get me rattled

Wanna pull me back behind the fence with the cattle
 Gm 
Building your lenses
Digging your trenches
Put me on the front line
Leave me with a dumb mind
                 A# 
With no defenses
But your defense is
If you can't stand to feel the pain then you are senseless

Since this,
 Gm 
I've grown up some
Different kinda figther
And when the darkness come, let it inside you
 D# 
Your darkness is shining
My darkness is shining
 A# F 
Have faith in myself
 Gm 
Truth.
 Gm 
I've seen a million numbered doors on the horizon
Now which is the future you choosen before you gone dying
                         A# 
I'll tell you about a secret I've been undermining
Every little lie in this world comes from dividing
                    Gm 
Say you're my lover
say you're my homie
Tilt my chin back, slit my troath
                                         A# 
Take a bath in my blood, get to know me
All out of my secrets
All my enemies are turning into my teachers

Because
 Gm 
Light's blinding
No way dividing
What's yours or mine when everything's shining
 D# 
Your darkness is shining
My darkness is shining
 A# F 
Have faith in ourselves
 Gm 
Truth.

(Yeah)

|-------------|
|-------------|
|-------------|
|-------------|
|-------------|
|3-3-5-6-5-6--|

 A# F 
Yes I'm only loving, only trying to only love
                                                    Gm 
And yes, that's what I'm trying to is only loving

Yes I'm only loving, trying to only love
                                                A# 
I swear to god I'm only trying to be loving
                            F 
Yes I'm only lonely loving
                                                      Gm 
And yes I'm only feeling only loving, only loving
                                                 A# 
Ya say it ain't loving, loving but my loving
                     F 
I wanna only love til I'm only loving
                                 Gm 
I swear to god I'm only loving.
                                                                         A# 
Trying to be loving, loving, loving, loving, loving, loving, love
                                     F 
Yes I'm only loving, yes I'm trying to only love
                                                 Gm 
I swear to god I'm trying but I'm only loving
                                                                 A# 
Ya say it ain't loving, loving, loving, loving, love my love
                    F 
But I'm only loving, loving, loving
        Gm 
The Truth.

More lyrics: http://www.lyricsmania.com/truth_lyrics_alexander_ebert.html
All about Alexander Ebert: http://www.musictory.com/music/Alexander+Ebert

Pick Me Up Chords – Janet Devlin

 Pick Me Up by Janet Devlin
 Hide And Seek
Track 4
2013


Standard Tuning
No Capo


Chords:

 C :       x32010
 F :       x33211 or 133211
 Am :      x02210
G:       320003 or 320033
 Dm :      xx0231
 Em :      x22000


    Intro:     C C F 
 Behind The Curtains I Hide From The Eyes Of The World
      C F 
 And I Know for Certain That This Storm Is Lurking Around
          C F 
 And As Much As I Try To I Never Can Fight It Away
                  Am G F C 
 It's Taking Me Down, Down, Down, Again

                    Am 
 When I See The Horizon Fall
           G F 
 I Wanna Catch a Glimmer of Hope
                 Am 
 I Want You To Hear My Call
                 G F 
 I Want You To Give Me More Than Your Soul
 

          C G Am 
 Pick Me Up, Will You, Pick Me Up
                    F 
 From The Floor Tonight
             C G Am F 
 I'll Stand Up, If You, Pick Me Up, Me Up Tonight
          Dm Em F C 
 Make Me Smi-i-ile again


   C F 
 Falling In Deeper Than I've Ever Dreamed Of Before
       C F 
 Now It's So Much More Than Just Keeping The Wolf From The Door
   C F 
 Forever Thinking I'm Constantly Sinking Below
                    Am G F C 
 I Don't Wanna Go Down, Down, Down, No

                   Am 
 When I See The Horizon Fall
           G F 
 I Wanna Catch a Glimmer Of Life
                 Am 
 I Want You To Hear My Call
                 G F 
 I Want You To Give Me More Than Your Time


          C G Am 
 Pick Me Up, Will You, Pick Me Up
                    F 
 From The Floor Tonight
             C G Am F 
 I'll Stand Up, If You, Pick Me Up, Me Up Tonight
          Dm Em F C 
 Make Me Smi-i-ile again


               Am 
 Need You To Rise When I Fall
                G 
 Need You To Raise My Hope
               F 
 Need You To Give Me Nothing But Light
                 Am 
 I Want You To Hear My Call
          G 
 Come Allay This Storm
               F                      ( Dm )
 Want You To Give Me More Than Your Mind


          C G Am 
 Pick Me Up, Will You, Pick Me Up
                    F 
 From The Floor Tonight
             C G Am F 
 I'll Stand Up, If You, Pick Me Up, Me Up Tonight
          C G Am 
 Pick Me Up, Will You, Pick Me Up
                    F 
 From The Floor Tonight
             C G Am F 
 I'll Stand Up, If You, Pick Me Up, Me Up Tonight
          Dm Em F C 
 Make Me Smi-i-ile again


 End on C