Tag: horse

King Of A One Horse Town Chords by Dan Auerbach

[Verse]
Am   F              Dm           G
Everyday is just a little white lie
Am         F        Dm      G
Telling myself I'm gettin' by
Am       F           Dm           G
I just stay in this room and cry
      F             G        Am
The snow it covers up the ground
    F               G     Am
And I can't hear a single sound

[Verse] 
Am                F     Dm            G
I'd turn off the TV and go for a drive
Am                F          Dm          G
But I can't see there's any signs of life
Am        F                 Dm             G
Kept a Christmas tree with blinking lights
           F               G     Am
I coulda made it but I messed around
      F              G     Am
I'm a loser with a rusted crown
  F           Am             Dm        G
Scared if I jump in the ocean I might drown

[Chorus]
 F         G         Am
King of a One Horse Town
         F         G         Am
I'm the King of a One Horse Town
       F                      
And I barely pull my weight around

[Verse]
Am                F         Dm            G
I thought about leaving but I don't know
Am             F     Dm            G
Wouldn't even know anywhere to go
Am              F     Dm            G
Guess I'll stay on desolation row
           F       G     Am
Go get stoned and hang around
                F            G     Am
The beat of my drum is the only sound
          F             Am           Dm         G
I would jump into the ocean but I'm scared I'd drown

[Chorus]
 F         G         Am
King of a One Horse Town
         F         G         Am
I'm the King of a One Horse Town
       F                      
And I barely pull my weight around

[Chorus]
 F         G         Am
King of a One Horse Town
         F         G         Am
I'm the King of a One Horse Town
       F                      
And I barely pull my weight around

King Of A One Horse Town Chords version 2 by Dan Auerbach

[Intro] 
Dm G Em7 G7 (play the Em7 by moving your pinky to the 5th fret of the second string from a normal G bar chord)

[Verse]
Dm                 G               Em7 G7
Everyday is just a little white lie
Dm                 G          Em7 G7
Telling myself I'm gettin' by
Dm                  G            Em7 G7
I just stay in this room and cry
C                  Bm     Am     Dm Em 
The snow it covers up the ground
C                  Bm     Am
And I can't hear a single sound

Dm                      G             Em7 G7
I'd turn off the TV and go for a drive
Dm                          G             Em7 G7
But I can't see there's any signs of life
Dm                         G               
Kept a Christmas tree with blinking lights
C                      Bm     Am     Dm Em
I coulda made it but I messed around
C                  Bm     Am    Dm Em
I'm a loser with a rusted crown
Dm                            Em
Scared if I jump in the ocean I might drown

[Chorus]
C         Bm        Am   Dm Em
King of a One Horse Town
C                 Bm        Am   Dm Em
I'm the King of a One Horse Town 
      F Em   Dm   C  B  A   G
And I barely pull my weight around

[Verse]
Dm                          G            Em7 G7
I thought about leaving but I don't know
Dm                     G          Em7 G7
Wouldn't even know anywhere to go
Dm                      G         Em7 G7
Guess I'll stay on desolation row
       C          Bm      Am   Dm Em
Go get stoned and hang around
               C           Bm   Am     Dm Em
The beat of my drum is the only sound
        Dm                          Em 
I would jump into the ocean but I'm scared I'd drown

[Chorus]
C         Bm        Am    Dm Em
King of a One Horse Town
      C         Bm        Am     Dm Em
I'm a King of a One Horse Town
      C         Bm        Am   Dm Em 
I'm a King of a One Horse Town
      F  Em  Dm   C  B  A   G
And I barely pull my weight around

      C         Bm        Am    Dm Em
I'm a King of a One Horse Town
C         Bm        Am    Dm Em
King of a One Horse Town
      C         Bm        Am    Dm Em
I'm a King of a One Horse Town
      F  Em  Dm   C  B  A   G
And I barely pull my weight around

Liturgy Tabs – Jordaan Mason And The Horse Museum

 These are the notes played throughout the song:

E|-----------------------------------------------------------------|
B|-----------------------------------------------------------------|
G|-------5-------5-------5-------5-------5-------5-------5-------5-|
D|---5-------5-------5-------5-------6-------6-------6-------6-----|
A|-6---6---6---6---6---6---6---6---6---6---6---6---6---6---6---6---|
E|-----------------------------------------------------------------|

Here are the chords strummed around the one minute mark:

C#      G#        C#
and you became bones
C#      G#        C#
and you became bones
C#      G#        C#
and you became bones

Lyrics:

you blunt horses. 
you casper ghosts. 
your dust jackets, creased sheets cold. 
auburn wool pockets carve blossomed boats. 
simple sandpaper. cobblered coats. 
and you became bones.
and my brothers will burst into baskets of orange fruit; 
my sister will tame all the beasts she holds high; 
my mother will break bricks to weather her windows; 
my father will worry until he goes blind; 
and we all will sleep at the bottom of the river. 
i’ll sing sonata, bring the frost-bite, bury bones, 
i’ll call niagara, down the house lights, and stay home. 
stop your novels: catch a cold, dig your gold.

Behold A Pale Horse chords – Charlie Daniels Band

 SONG:   BEHOLD A PALE HORSE
ARTIST: THE CHARLIE DANIELS BAND
TAB BY: DON CZARSKI
EMAIL:  GUITARZAN7@HOTMAIL.COM

           BEHOLD A PALE HORSE
         THE CHARLIE DANIELS BAND

INTRO:  Dm 

VERSE: 
  Dm 
There was a mighty nation

Blessed above all of creation
           C 
It was a rare and precious pearl
               Bb 
Conceived in faith and liberty
               C 
Home of the brave, land of the free
          Dm 
Was the envy of the world


VERSE:
            Dm 
But this shining city on the hill

Has turned from the creators will
          C 
And let evil take control
          Bb 
Now the reckless men who lead them
           C 
Want to strip away their freedom
         Dm 
And to steal their very soul


VERSE:
           Dm 
Now it's smoke and mirrors

Switchin' bait

Criticize and confiscate
              C 
And let the guilty walk away
                Bb 
In this much righteous Godly nation
          C                         
In the halls of education 
         Dm 
They forbid a child to pray


VERSE:
      Dm 
They say we need to spread the wealth
                                          
They pretend to guard the health 
          C 
Of the feeble and the poor
            Bb                           
While the hand they hold behind their back
     C 
Confuses and conceals the fact
           Dm 
That the wolf is at the door


CHORUS:
  Dm Bb 
There's an unseen hand
       C Dm 
That pulls the string
        C 
That makes his little puppets dance
                   Dm 
To every song he sings
                    Bb C Dm 
As the night rolls in on a rising tide
  C A 
Look beyond the shadows
                      Dm 
Behold a pale horse rides


VERSE:
      Dm 
They claim to seek a New World Order

Nations without borders
      C 
But don't believe the lies
      Bb 
Even in this wealthy nation
              C 
It can come down to starvation
         Dm 
In the twinkling of an eye


VERSE:
       Dm 
They tell us there will soon be peace

Our lives will be an endless speech
       C 
But they lead us toward the darkness
         Bb 
In the distance sabres rattle
          C 
And the armies train for battle
         Dm 
As the beast prepares his mark


CHORUS:
  Dm Bb 
There's an unseen hand
       C Dm 
That pulls the string
       C 
And makes his little puppets dance
                 Dm 
To any song he sings
                    Bb C Dm 
As the night rolls in on the rising tide
  C A 
Look beyond the shadows
                      Dm 
Behold a pale horse rides


INSTRUMENTAL: 
 Dm C Bb A Dm 


VERSE:
       Dm 
It's time for every righteous man

To step up tall and take a stand
   C 
There is so little time
            Bb 
For if we fear and hesitate
          C 
Soon it will be too late
           Dm 
With the last hope of mankind


VERSE:
       Dm 
Time hurries on the shadows fall

The hand writing is on the wall
      C 
But even now there's still a chance
             Bb 

1990 Was A Long Year And We Are All Out Of Hot Water Now Tabs by Jordaan Mason And The Horse Museum

 Capo 2nd fret


E||------------------3-|--------------------3-|
B||---------1----------|---------1------------|
G||----0--------0------|----0----------0------|
D||--3---3----3---3----|--3---3------3----3---|
A||--------------------|----------------------|
E||--------------------|----------------------|

E||------------------3-|--------------------3-|
B||---------1----------|---------1------------|
G||----0---------0-----|----0-----------0-----|
D||--2---2-----2---2---|--2---2-------2---2---|
A||--------------------|----------------------|
E||--------------------|----------------------|

There are slight variations in the fingerpicking as the song progresses but this is the main motif

Racehorse Get Married Tabs by Jordaan Mason And The Horse Museum

 Just one progression all the way through, strum the open chord shapes in the lulls 
(listen to the song for changes in the dynamics). Capo 3rd fret.


E||--------------------|---------------------|
B||--------0--------0--|--------0---------0--|
G||--------------------|---------------------|
D||----2--------2------|----2---------2------|
A||--3---3----3---3----|--3---3-----3---3----|
E||--------------------|---------------------|

E||--------------------|---------------------|
B||--------0--------0--|--------0---------0--|
G||--------------------|---------------------|
D||----4--------4------|----4---------4------|
A||--5--5-----5---5----|--5---5-----5---5----|
E||--------------------|---------------------|

Horse Called Music chords – Randy Travis

 Horse Called Music
By Randy Travis

Capo 1

 C Am F C  
High on a mountain in western Montana
 Am C G 
A silhouette moves across a cinnamon sky
 C Am F C  
Riding along on a horse he calls music
          Am C G C 
With a song on his lips, and a tear in his eye
 C Am F C  
He dreams of a time, and a lady that loved him
 Am C G 
and how he would sing her sweet lullaby’s
 C Am F C     
but we don’t ever ask him, and he never talks about her
 Am C G C 
I guess its just better that we all let it slide


Chorus:
              F C 
And he sings Oooh to the ladies
 F C 
and Oooh he makes 'em sigh
 C Am F C 
Then he rides away on a horse he calls Music
            Am C G C 
With a pain in his heart, and a tear in his eye


Now he rode the Music from Boston to Bozeman
For not too much money, and way too much ride
But those were the days when a horse he called Music
Could jump through the moon and fly across the sky
Now all thats left is an old time worn cowboy
With only his dreams of the days long gone by
And trailin behind is a horse with no rider
A horse he calls Memories that she used to ride

Chorus

High on a mountain in western Montana
Two crossed cut through a cinnamon sky
Marking the place where a horse he called Music
Lays with a cowboy there by his side

Born On A Horse Tab by Biffy Clyro

-------------------------------------------------------------------------------
			     Born on a Horse - Biffy Clyro
-------------------------------------------------------------------------------
Tabbed by: Andy
Email: andy_rhcp@hotmail.co.uk

Tuning: Drop D

Clean
e|--------------------------------------------------------------------------|
B|--------------------------------------------------------------------------|
G|--------------------------------------------------------------------------|
D|--------------------------------------------------------------------------|
A|-6-6-6-6-6-6-6-6-6-6-6-6-6-6-6-6/-----------------------------------------|
D|--------------------------------------------------------------------------|

e|--------------------------------------------------------------------------|
B|--------------------------------------------------------------------------|
G|---------------------------------6-6-6-6-6-6-6-6-6-6-6-6------------------|
D|-6-6-6-6-6-6-6-6-6-6-6-6-6-6-6-6------------------------------------------|
A|--------------------------------------------------------------------------|
D|--------------------------------------------------------------------------|

e|--------------------------------------------------------------------------|
B|--------------------------------------------------------------------------|
G|---------------------------------8-8-8-8-8---8----------------------------|
D|-4-4-4-4-4-4-4-4-4-4-4-4-4-4-4-4-6-6-6-6-6-5-6----------------------------|
A|--------------------------------------------------6-6-6-------------------|
D|--------------------------------------------------------------------------|

e|--------------------------------------------------------------------------|
B|--------------------------------------------------------------------------|
G|---8-8-8---------13-13-13---------4-4-4--------11-11-11-----11-11-11------|
D|-6-------6----11----------11----2-------2----9----------9-8----------8----|
A|--------------------------------------------------------------------------|
D|--------------------------------------------------------------------------|

e|--------------------------------------------------------------------------|
B|--------------------------------------------------------------------------|
G|---8-8-8---------13-13-13---------6-6-6--------11-11-11-----11-11-11------|
D|-6-------6----11----------11----4-------4----9----------9-8----------8----|
A|--------------------------------------------------------------------------|
D|--------------------------------------------------------------------------|

Distortion
e|--------------------------------------------------------------------------|
B|--------------------------------------------------------------------------|
G|--------------------------------------------------------------------------|
D|-9-9-9-9-9-9-9-9-9-9-9-6-6-6-6-6-6-6-6-6-6-11-11-14-14-13-13-11-11-13-13--|
A|-9-9-9-9-9-9-9-9-9-9-9-6-6-6-6-6-6-6-6-6-6-11-11-11-11-11-11-11-11-11-11--|
D|-9-9-9-9-9-9-9-9-9-9-9-6-6-6-6-6-6-6-6-6-6-11-11-11-11-11-11-11-11-11-11--|

e|--------------------------------------------------------------------------|
B|--------------------------------------------------------------------------|
G|--------------------------------------------------------------------------|
D|-14-14-14-14-14-16-16-16-16-16--------------------------------------------|
A|-14-14-14-14-14-16-16-16-16-16--------------------------------------------|
D|-14-14-14-14-14-16-16-16-16-16--------------------------------------------|

e|--------------------------------------------------------------------------|
B|--------------------------------------------------------------------------|
G|--------------------------------------------------------------------------|
D|-6-6-6-6-6-11-11-11-11-11-2-2-2-2-2-9-9-8-8-------------------------------|
A|-6-6-6-6-6-11-11-11-11-11-2-2-2-2-2-9-9-8-8-------------------------------|
D|-6-6-6-6-6-11-11-11-11-11-2-2-2-2-2-9-9-8-8-------------------------------|

e|--------------------------------------------------------------------------|
B|--------------------------------------------------------------------------|
G|--------------------------------------------------------------------------|
D|-6-6-6-6-6-11-11-11-11-11-4-4-4-4-4---------------------------------------|
A|-6-6-6-6-6-11-11-11-11-11-4-4-4-4-4---------------------------------------|
D|-6-6-6-6-6-11-11-11-11-11-4-4-4-4-4---------------------------------------|

Clean
e|--------------------------------------------------------------------------|
B|-------------9------------------------------------------------------------|
G|--------------------------------------------------------------------------|
D|-6-6-6-6-4-6--------------------------------------------------------------|
A|--------------------------------------------------------------------------|
D|--------------------------------------------------------------------------|

| /  slide up
| \  slide down
| h  hammer-on
| p  pull-off
| ~  vibrato
| +  harmonic
| x  Mute note
===============================================================================