Tag: house

This Old House chords – Madrugada Vsion 3

 Intro:  C#m A E  (x4)


 C#m A E 
How come the stars they shine so bright
 C#m A E 
Here in this night it will not end
 C#m A E   
There's a boy and a girl Who know all the wrong words
 C#m A E 
And you and I need no more

 F#m A E 
It's so good to be alone with you
 F#m A E 
It's so good to be open eyed
 F#m A E 
They won't know us anymore when we
 F#m A H 
Once we step back in to This old house

 A E H 
In this old house Where every door is open
 A E H 
Well listen real close This old house
 A E H A 
In this old house We know there's more to this than there
                    E H 
The nation of the two In this old house

 C#m A E  (x2)

 C#m A E 
This old house is where we Consider it gone and the same
 C#m A E 
Now there were days when we would thought Those guiding stars would shine no more
 C#m A E 
Oh it's all right when we We just don't talk it over
 C#m A E 
State of rest and the state in despair


 F#m A E 
It's so good to be alone with you
 F#m A E 
It's so good to be open eyed
 F#m A E 
And they won't know us anymore when we
 F#m A H 
Once we step back in to oh This old house


 A E H 
In this old house Where every door is open
 A E H 
We'll take it real slow In this old house
 A E H A 
In this old house We know there's more to this than there
         E H 
Never leave This old house
 A E H A 
Oh in this old house We know there's more to this than there
         E H 
Never leave This old house

 A E H 
Oh in this old house this old
                                     A 
We know there's more to this than there
               E H 
We'll never leave This old house


The House Weve Been Calling Home chords – David Allan Coe

 "The House We've Been Calling Home"
by D.A.C.

Capo 1st fret

 E A E 
Jessie she stares like a cat with a bird that has fallen and broke its wing
 E A B 
Terri she puts on her make-up and wonders what promise the new day will bring
 A B E A B E 
Debbie stays home with the baby while I work my hands to the bone
      A E C# A B E 
Yeah I make a living they do the giving in a house we've been calling home

        A B E A B E 
Just a house we've been trying to live in just a place we've been calling our own
 A B E C# A B E 
Me and my wives have been spending our lives in a house we've been calling home

 E A E 
Jessie's the youngest she always needs answers to questions that I just don't know
 E A B 
Terri she can't sit still for a moment she's always in some hurry to go
 A B E A B E 
Debbie's been with me the longest we spend most of our time on the phone
 A E C# A B E 
Talking in rhymes with no reasons in mind for this house we've been calling home

        A B E A B E 
Just a house we've been trying to live in just a place we've been calling our own
 A B E C# A B E 
Me and my wives have been spending our lives in a house we've been calling home

Ghost In This House chords – Shenandoah

 C G7 C 
I don't pick up the mail I don't pick up the phone

                    G7 C 
I don't answer the door I'd just as soon be alone

                         Am C Dm 
I don't keep this place up I just keep the lights down

                       F G7 
I don't live in these rooms I just rattle around


                          C 
I'm just a ghost in this house I'm just a shadow upon these walls

    G7 C 
As quietly as a mouse I haunt these halls

 Am C 
I'm just a whisper of smoke

         C7 F 
I'm all that's left of two hearts on fire

                         C 
That once burned out of control

                       G7 
That took my body and soul

                          C 
I'm just a ghost in this house


                    G7 C 
I don't mind if it rains I don't care if it's clear

                      G7 C 
I don't mind staying in there's another ghost here

                       Am Dm 
She sits down in your chair and she shines with your light

                       F G7 
And she lays down her head on your pillow at night


                         C 
I'm just a ghost in the house I'm just a shell of the man I was

          G7 C 
A living proof of the damage heartbreak does

 Am C 
I'm just a whisper of smoke
 
         C7 F 
I'm all that's left of two hearts on fire

                         C 
That once burned out of control

                       G7 
That took my body and soul

                          C 
I'm just a ghost in this house


 G7 C 
I'm just a ghost in this house I'm just a shadow upon these walls

    G7 C 
As quietly as a mouse I haunt these halls

 Am C 
I'm just a whisper of smoke

         C7 F 
I'm all that's left of two hearts on fire

                         C 
That once burned out of control

                       G7 
That took my body and soul

                          C 
I'm just a ghost in this house

 G7 C 
I'm just a ghost in this house

Dont Dream Its Over Acoustic chords – Crowded House V2

 Standard Tuning EADGBe 


 D#sus2  - x68866


Intro:  D#sus2 


Verse 1: 

 D#sus2 Cm G# G    
There is freedom within there is freedom without, Try to catch the deluge in a paper cup
 D# Cm G#                                    
There's a battle ahead many battles are lost, but you'll never see the end of the road-
               G 
-while you're travelling with me


Chorus 1: 

 G# A# D# Cm 
Hey now, hey now don't dream it's over
 G# A# D# Cm 
Hey now, hey now when the world comes in
 G# A# D# Cm 
They come, they come, to build a wall between us
 G# G# A# 
We know they won't win


Verse 2:

 D#sus2 Cm G# G       
Now Im towing my car,theres a hole inthe roof,my possessions r causin me suspicion but theresno proof
 D# Cm G# G 
In the paper today tales of war and of waste, but you turn right over to the T.V. page


Chorus 2: 

 G# A# D# Cm 
Hey now, hey now don't dream it's over
 G# A# D# Cm 
Hey now, hey now when the world comes in
 G# A# D# Cm 
They come, they come, to build a wall between us
 G# G# A# 
We know they won't win


Verse 3:

 D#sus2 Cm G# G 
Now I'm walking again to the beat of a drum, and I'm counting the steps to the door of your heart
 D# Cm G# G   
Only the shadows ahead barely clearing the roof, get to know the feeling of liberation and relief


Chorus 3: 

 G# A# D# Cm 
Hey now, hey now don't dream it's over
 G# A# D# Cm 
Hey now, hey now when the world comes in
 G# A# D# Cm 
They come, they come, to build a wall between us
 G# G# A# 
We know they won't win




(end)

Haunted House Tabs – Teenage Bottlerocket

 Intro:

Repeat twice:

e:-----2-----------------------------------2----------|
B:-0------5--4--2--4---2--4--5-4-2-4-2--0-----5-4-2-4-|
G:----------------------------------------------------|
D:----------------------------------------------------|
A:----------------------------------------------------|
E:----------------------------------------------------|

e:----2---------|
B:-0----5-4-2-4-|
G:--------------|
D:--------------|
A:--------------|
E:--------------|

Chords:

Play this twice:

e:----------------|
B:----------------|
G:----------------|
D:-----11------9--|
A:-9---9---6---7--|
E:-7-------4------|


Verse Chords:

Play twice:


 <---Palm Mute----|gt;
e:-------------------|
B:-------------------|
G:-------------------|
D:-----8-------9-----|
A:-9---6---6---7-----|
E:-7-------4---------|

Then the intro solo is played once and the chords are played once, then back to the Verse chords:

Second Verse Chords:

              (E)
 <---Palm Mute----|gt;
e:-------------------|
B:-------------------|
G:-------------------|
D:-----8-------9-----|
A:-9---6---6---7-----|
E:-7-------4---------|

They play an E chord on the last chord right here but you can still play it like the 
first verse because the chords are in octaves.

 <---Palm Mute----|gt;
e:-------------------|
B:-------------------|
G:-------------------|
D:-----8-------9-----|
A:-9---6---6---7-----|
E:-7-------4---------|

Pre-Chorus / Bridge Chords:

Play three times

e:--------|
B:--------|
G:--------|
D:-11--9--|
A:-9---7--|
E:--------|

Chorus:

Play four times:

e:----------------|
B:----------------|
G:----------------|
D:-----11------9--|
A:-9---9---6---7--|
E:-7-------4------|


Solo:

Play these notes fast and play a lot of each note, meaning that you should stum every 
note multiple times before going on to the next note.

Repeat Twice:

e:----------2--------|
B:-------------------|
G:--4-3-4-6---5-4-2--|
D:-------------------|
A:-------------------|
E:-------------------|

Repeat twice:

e:--------------14-12-11----|
B:--12-11-12-14----------14-|
G:--------------------------|
D:--------------------------|
A:--------------------------|
E:--------------------------|

Played in background while the pre-chorus chords are being played:

R = ring out

Let them ring out just a little bit, play this once:

e:----------|
B:-14r--12r-|
G:----------|
D:----------|
A:----------|
E:----------|

Pre-Chorus / Bridge:

Play three times

e:--------|
B:--------|
G:--------|
D:-11--9--|
A:-9---7--|
E:--------|


Chorus:

Play four times:

e:----------------|
B:----------------|
G:----------------|
D:-----11------9--|
A:-9---9---6---7--|
E:-7-------4------|

Outro Chords:

R = ring out

e:--------------|
B:--------------|
G:--------------|
D:----------9r--|
A:-9--6--4--7r--|
E:-7--4--2------|

Then there is a pick-slide going down the neck and then this chord is played:

e:----|
B:----|
G:----|
D:----|
A:-9--|
E:-7--|

House Of Cards chords – Tyler Shaw

 Capo 3!
Same three chords throughout the whole song:

 Em C G Em C G 
My fire was burning out
 Em C G 
My mind was filled with doubt
 Em C G 
I long to feel alive
 Em C G 
Don't know if I'll survive (eh eh)

[Bridge]
 Em C 
But my hope was running low
 G 
You appeared out of nowhere
 Em C 
Yeah it was more than an illusion
 G 
More that I can ever know

[Chorus]
 Em C G 
Baby it's magic the way you came around (eh eh)
 Em C G 
You caught me before I hit the ground
 Em C             
Yeah something was missing in my house of cards
          G 
And all that I needed was the Queen of my heart
 Em C G 
It's magic the way you came around (eh eh)

 Em C G 
You didn't make a sound
 Em C G 
My heart was screaming loud
 Em C G 
A trick under your sleeve
 Em C G 
Yeah you make me believe

[Bridge]
 Em C 
But my hope was running low
 G 
You appeared out of nowhere
 Em C 
Yeah it was more than an illusion
 G 
More that I can ever know

[Chorus]
 Em C G 
Baby it's magic the way you came around (eh eh)
 Em C G 
You caught me before I hit the ground
 Em C             
Yeah something was missing in my house of cards
          G 
And all that I needed was the Queen of my heart
 Em C G 
It's magic the way you came around (eh eh)
 Em C G 
It's magic the way you came around

[Chorus]
 Em C G 
Baby it's magic the way you came around (eh eh)
 Em C G 
You caught me before I hit the ground
 Em C             
Yeah something was missing in my house of cards
          G 
And all that I needed was the Queen of my heart
 Em C G 
It's magic the way you came around (eh eh)



Hope you enjoy! 
- Allie 

That House chords – Pillows

 The Pillows - That House
Chords


 C  -  Am  -  G  -  F C  -  Am  -  G  -  F C Am 
Sukoshitzutsu kezuritorarete
        G 
Itsuka naku naru hazu no
 F 
Oka no ue de kurashitai
 C Am 
Yuugure wa suriheru sora to
       G 
Machi no akari ga nijinde
 F G 
Kitto kirei da yo

 Am F 
Kakurega de
 G Am 
Kyou mo kimi wa naiteiru
                F 
Kagi wo kojiakete
 G Am 
Boku ga kuru no wo matteiru


 C Am 
“Ame no hi mo hare no kasa” sashite
           G 
Yasashiku sareta kioku wo
 F 
Burasagete arukitai
 C Am 
Himawari ga narabu sakamichi
          G 
Go-kigen wa ikaga desu ka?
 F 
Nurete kirei da yo



 Am F 
Kakurega de
 G Am 
Kyou mo kimi wa naiteiru
               F 
Kagi wo kojiakete
 G Am 
Boku ga kuru no wo matteiru



 Am F 
Kakurega de
 G Am 
Kyou mo kare wa naiteiru
              F 
Kagi wo kojiakete
 G Am 
Kimi ga kuru no wo matteiru


Solo
 C  -  Am  -  G  -  F C  -  Am  -  G  -  F Am F 
Kakurega de
 G Am 
Kyou mo kimi wa naiteiru
               F 
Kagi wo kojiakete
 G Am 
Boku ga kuru no wo matteiru


 C  -  Am  -  G  -  F C  -  Am  -  G  -  F 



translation from pirozu.net

Little by little I’m being whittled away
Someday there’ll be nothing left
I want to spend my days on top of a hill
Twilight blurs the lights
Of the city and the fading sky
It’s absolutely beautiful

You’re crying again today
In your hiding place
Waiting for me to come
and pick the lock

I open up my umbrella that clears away rainy days
I want to walk
With my memories of kindness
Along the road lined with sunflowers
Hello, how are you?
It’s wet and beautiful

I’m crying again today
In my hiding place
Waiting for him to come
and pick the lock

He’s crying again today
In his hiding place
Waiting for you to come
and pick the lock

24 chords – Red House Painters

 The riff has a lot of ends, improvise a little

---1---------|
-1---1-3-1-1-|
----------2--|
-------------|
-------------|
-------------|

 F C 
                So it's not
 F A# C 
Loaded stadiums or ballparks
 F C 
                And we're not
 F A# C 
kids on swing sets on the blacktop

 F Eb7 +
                And I thought
    F               ( A# )                  Eb7 +
at fifteen that I'd have it down by sixteen
 F Eb7 +                                 F 
        And 24 keeps breathing in my face
             Eb7 +    F 
Like a mad whore
     Eb7 +                      F 
And 24 keeps pounding at my door

 F Eb7 +

 A# G# Gm Eb7 +
Like a friend you don't want to see
 A# G# Gm Eb7 +
Oldness comes with a smile to every love given child
Oldness comes to life, the youth, they dream suicide
Oldness comes with a smile to every love given child
Oldness comes to life, the youth, they dream suicide

Outro:
 Dm F 

Transition:  F  -  Em  -  Dm C#7 +    Dm 

Transition:  Dm  -  Em  -  F 

and so it goes...

Michael chords – Red House Painters

 : willianrm

A#7+ (x,1,3,2,3,1)
Eb7+ (x,6,8,7,8,6)

 F A#7 +      F A#7 +  
Michael,  where are you now?   x2

 C A#7 +
Somehow in my excitement the last time you called,
                    C A#7 +
It slipped again to ask your hidden whereabouts
                         C A#7 +
I got a lead from your old triple ex-girlfriend, she said
                         C 
"I heard he lost his mind again"
              A#7+                                F  A#7+
"Again?" I said, I didn't know that you ever did

 F A#7 +      F A#7 +
Michael, where are you now?

Sleeping through the morning in flannel impaired
Getting high in southern air
Shoeless, sandy eveing down the unfamiliar
Last whiff of salt-water freedom
Skipping shells in the dead zone

 F A# G# 
With the ghost on your side
 F A# G# 
Of the state borderline
    Eb7 +
Whispering
 F A# G# Eb7 + (x2)
"Take it."


Do you remember our first subway ride?
Our first heavy metal haircuts?
Our last swim on the east coast?
And me with my ridiculous looking pierced nose?
I remember your warm smile in the sun
The daydreaming boy without a shirt on
The Birmingham barfly father
Left the mother of three sons
You're the oldest juvenile delinquent bum
My best friend

The House Of Wolves chords – Bring Me The Horizon

 Sorry it's not great but it's my first tab.
(It's for the acoustic guitar but i'm sure it'd work on electric too)

Play with the capo wherever you find easier, I play capo 2.
 C Am Em G  all through the song


           C Am 
Show me a sign, show me a reason to give,
    Em G 
A solitary fuck about your god damn beliefs
           C Am 
I'm going blind, but one thing's clear
 Em G 
Death is the only salvation you'll feel


 C Am Em G 
Brick by brick by brick   

 C Am Em G 
Brick by brick by brick


               C Am 
What you call faith, I call a sorry excuse
 Em G 
Cloak and daggers murder the truth
            C Am 
The bitter taste, there's nothing else
      Em G 
I'll bow for your king when he shows himself


 C Am 
Brick by brick by brick
       Em G 
These walls begin to cave in
     C Am 
The house of wolves you built
 Em G 
Whispers in a thousand tongues


              C Am 
Show me your face, show me a reason to think,
    Em G 
My soul can be saved if I sell you my sins
           C Am 
I'm going blind, but one thing's clear
 Em G 
Death is the only salvation for me


 C Am 
Brick by brick by brick
       Em G 
These walls begin to cave in
     C Am 
The house of wolves you built
 Em G 
Whispers in a thousand tongues


      C Am Em G 
(The house of wolves you built)
     C Am             
The house of wolves you built
      Em G 
Will burn just like a thousand suns

 C Am 
When you die, the only kingdom you'll see
    Em G 
Is 2 foot wide and 6 foot deep


C   -   Am   -   Em   -   G X2 (for he instrumental part including the YEAH)


 C Am 
When you die, the only kingdom you'll see
    Em G 
Is 2 foot wide and 6 foot deep
(HEAVIER STRUMMING IS OPTIONAL FOR THE NEXT 2 LINES)
 C Am 
When you die, the only kingdom you'll see
    Em G 
Is 2 foot wide and 6 foot deep


 C    -    Am    -    Em    -    G C Am Em G 
Brick by brick by brick
 C Am Em G 
Brick by brick by brick
 C Am          
Brick by brick by brick
       Em G 
These walls begin to cave in
     C Am 
The house of wolves you built
 Em G 
Whispers in a thousand tongues

 C Am          
Brick by brick by brick
       Em G 
These walls begin to cave in
     C Am 
The house of wolves you built
      Em G 
Will burn just like a thousand suns


 C    -    Am    -    Em    -    G C Am 
You said you want me
         Em G 
Now I'm here, now I'm here, now I'm here
 C Am 
You said you want me
         Em G 
N

Weather With You chords – Crowded House V5

 WEATHER WITH YOU        -       Crowded House


Intro:
 Em7  -  Asus4       4x 


                     Em7 Asus4                   
Walking 'round the       room singing stormy        weather
              Em7 Asus4                          
At fifty -       seven Mount Pleasant         Street
               Em7 Asus4                   
Now it's the      same room but everything's        different
                     Em7 Asus4                      
You can fight the       sleep but not the        dream


 Dm C                                             
     Things ain't     cookin'
 Dm C                                                    
     in my     kitchen
 Dm C F                              
     Strange af -     fliction wash     over me
 Dm C                                                   
     Julius     Caesar
 Dm C                                            
     and the Roman     Empire
 Dm C F G                          
     Couldn't     conquer the     blue sky 

 Em7  -  Asus4       2x 


            Em7 Asus4                             
There's a       small boat made of        china
        Em7 Asus4                            
Going       nowhere on the mantle -         piece
       Em7 Asus4                               
Do I       lie like a lounge room        lizard
          Em7 Asus4 A7sus4                   
Or do I       sing like a bird re -         leased? 


Chorus:
                 A7sus4                                            
Everywhere you          go, 
                      D                                       
you always take the     weather with you
                 A7sus4                                            
Everywhere you          go, 
                      D                                       
you always take the     weather
                 A7sus4                                            
Everywhere you          go, 
                     G                                       
you always take the     weather with you
                 D/F#                                            
Everywhere you          go, 
                     G                                       
you always take the     weather
      A Em7                                         
The     weather with       you

 Em7  -  Asus4       4x 


Chorus:
                 A7sus4                                            
Everywhere you          go, 
                      D                                       
you always take the     weather with you
                 A7sus4                                            
Everywhere you          go, 
                      D                                       
you always take the     weather
                 A7sus4                                            
Everywhere you          go, 
                      G                                       
you always take the     weather with you
                  D/F#                                            
Everywhere you         go, 
                      E                                       
you always take the      weather
           G                                          

Wild chords – Beach House V2

 Chords (EADGBe):
 Dsus2  = xx0230
 G6  = 320000
 F#m7  = 244252
 Dmaj7  = xx0222
 Gmaj7  = 320002 or x10-9777
 A6  = x02222    or x07670
 Bm7  = x24232   or 797777 
 Eadd9  = 022102 or x79977
 A5  = x022xx

-----

 Dsus2 F#m G6 F#m7   x2

 D F#m G F#m 
My mother said to me that I would get in trouble
 D F#m G F#m 
My father won't come home, cuz he is seein' double

 Dsus2 F#m G6 F#m7 D F#m G6 F#m7 
Out in the endless green your eyes are so misleading
 D F#m G6 F#m7 
That's when your car pulls up, its hood is black and gleaming

 D Dmaj7 F#m F#m7 
And in a while
 G6 F#m 
You start a smile
 D Dmaj7 F#m F#m7   
The earth is wild 
 G6 F#m A 
We've got no time

 D Bm          
Wild in our ways 
 Gmaj7 A6     
What we are making
 D Bm     
Heartless to say 
 Gmaj7 A6 
go on pretending

 Bm7 Eadd9        
Wild in our ways 
 Gmaj7 A6    
What we are making
 Bm7 Eadd9       
Heartless to say 
     Gmaj7 A6 D 
you go, go on pretending

 D F#m G6 F#m7 
One chance to fall behind the lines that will not let you
 D F#m G6 A 
Can I believe in how the past is what will catch you

 D Dmaj7 F#m F#m7 
And in a while 
 G6 F#m 
You start a smile
 D Dmaj7 F#m F#m7   
The earth is wild 
 G6 F#m A 
You've got no time

 D Dmaj7 F#m F#m7 G Gmaj7 A5 A D F#m G6 A6        
Wild in our ways, what we are making
 D F#m G6 A6 
Heartless to say, go on pretending

 D F#m G6 A6 
Wild in our ways, what we are making
 D F#m G6 A6 
Heartless to say we go, go on pretending

 D F#m G6 A6 D 
Wild in our ways, go on pretending

-----

Mistress Tabs by Red House Painters

 Title: Mistress
Artist: Red House Painters
 Red House Painters (a.k.a. Rollercoaster)
: Mathias Isaksen

Tuning: CGCFA#D

This video: http://www.youtube.com/watch?v=SIIgMCLVuZI was very useful when figuring out 
the chords. I found the tuning on the sad reminders-forums, if my memory serves me right.
Note that the higher-pitched strings aren't always played

Intro:
D |--0--|
A#|--0--|
F |--0--|
C |--9--|
G |--10-|
C |--10-|
The guitar that fades in plays this chord until the verse starts.

Verse:
D |--0--|--0--|
A#|--0--|--0--|
F |--0--|--0--|
C |--9--|--0--|
G |--10-|--3--|
C |--10-|--3--|

Verse part 2:
("Your praise little gifts, you spent your money and stuffed me with")
D |--0--|--0--|--0--|--0--|
A#|--0--|--0--|--0--|--0--|
F |--0--|--0--|--0--|--0--|
C |--0--|--0--|--0--|--9--|
G |--5--|--7--|--3--|--10-|
C |--5--|--7--|--3--|--10-|

Verse part 3:
("I need someone much more mysterious")
D |--0--|--0--|--0--|
A#|--2--|--0--|--0--|
F |--0--|--0--|--0--|
C |--0--|--0--|--9--|
G |--2--|--3--|--10-|
C |--2--|--3--|--10-|

Outro:
(This is when Mark starts singing in a high-pitched voice)
I'm unsure about these chords, but they sound okay.
D |-(5)-|-(3)-|--1--0--|--0--|
A#|--0--|--0--|--0--0--|--0--|
F |--0--|--0--|--0--0--|--0--|
C |--0--|--0--|--0--0--|--9--|
G |--7--|--5--|--3--3--|--10-|
C |--7--|--5--|--3--3--|--10-|

Have You Forgotten Tabs by Red House Painters

 Title: Have You Forgotten
Artist: Red House Painters
 Songs For A Blue Guitar

Tuning: EADGCe, capo 3 fret
This is the faster, acoustic version from Songs For A Blue Guitar.
These chords sound more or less spot on to me.

Intro:
These diagrams don't imply the rhythm, but it's easy to hear when to change chords.

          Part A:
 | Cadd9 |   C       |  F7M C/F  |   G   Am      |
e|--(0)--|--(0)-(0)--|--(0)-(0)--|---0---0---0---|
C|---0---|---0---0---|---0---0---|---0---0---0---|
G|---0---|---0---0---|---2---0---|---4---5---4---|
D|---0---|---2---0---|---3---3---|---0---0---0---|
A|---3---|---3---3---|---3---3---|---------------|
E|-------|-----------|---1---1---|---3---5---3---|
The first chord is only played twice in the start of the song.
The Am is only played 2-3 times before it goes back to the G.

Part B:
Then this:
Play the first chord for three bars, then play the last part.
e|---0---|---0---0---0---0---0---0---0---0---|
C|---0---|---0---0---0---0---0---0---0---0---|
G|---0---|---0---0---0---0---0---0---0---0---|
D|---3---|---2-h-3---3---3---0---0---0---0---|
A|---3---|---3---3---3---3---3---3---3---3---|
E|---1---|---1---1---1---1---1---1---1---1---|

Verse:

The verse essentially consists of the intro chords repeated twice, followed by a new part:

Part C:
e|--(0)--(0)--|---0---|---0---|---0---0----0---0---|
C|---0----0---|---0---|---0---|---0---0----0---0---|
G|---0-or-4---|---0---|---0---|---0---0-or-5---4---|
D|---0----0---|---2---|---0---|---0---0----0---0---|
A|------------|---0---|---2---|--------------------|
E|---3----3---|-------|-------|---5---3----5---3---|

The structure of the verse is like this:
Part A
Part B
Part A
Part B
Part C
Part B
Part C
Part B

After this you play the intro again, and repeat the whole thing.

Chorus (have you forgotten how to love yourself):

e|---8---|---0---|---0---|---3---|---0---|---3---|--0--0--0--|
C|---0---|---0---|---0---|---0---|---0---|---0---|--0--0--0--|
G|---0---|---0---|---0---|---0---|---0---|---0---|--0--0--0--|
D|---0---|---0---|---0---|---0---|---3---|---0---|--0--0--0--|
A|-------|-------|-------|-------|---3---|-------|-----------|
E|---8---|---7---|---5---|---3---|---1---|---3---|--5--7--8--|

That's pretty much all of the acoustic parts in the song, hopefully someone else can 
figure out the slide guitar parts, all I have bothered to figure out is
e|---3-3-3-1-0---3---------|
C|-------------2---2s4-0---|
G|-------------------------|
D|-------------------------|
A|-------------------------|
E|-------------------------|

House On Fire chords – Ghost Mice

 This song is on the new (2013) split with Ramshackle Glory
The whole thing uses barre chords, except the low E chord but that's the same structure 
as a barre chord.

 A G# C#m E 
I hope my house burns down
 A G# C#m E 
I hope my cat gets out
 A G# C#m E A G# C#m 
The rest of my stuff it can all burn up and I'll never think about it again

 A G# C#m E 
I'll just go travelling
 A G# C#m E 
I'll stay with my friends
 A G# C#m E A G# C#m 
I'll sleep on their couch and I'll help out around their house

 A E A E A E C#m A 
I'm caged, I'm chained, we're all slaves to the things we own

 C#m A C#m A B A G# C#m E 
I hope our gas runs out
 A G# C#m E 
I hope everything shuts down
 A G# C#m E A G# 
then I can hear the sounds that used to be around before we started making
       C#m 
this noise

 A G# C#m E 
I'd like to give something else a chance
 A G# C#m E 
to fill the world up with their trash
 A G# C#m E A G# C#m 
then we could relax, we could go back to the way we were before

 A E A E A E C#m A 
we lost our souls, we lost our home, we all know, something's wrong

 C#m A C#m A B C#m A E G# 
    We know we are owned by our own
 C#m A E G# 
liberties we know we are helplessly hungry with
 C#m A E G# 
greed we know it hasn't always been like this
 C#m A C#m A C#m 
and we know, we're a long way from home we can feel it in our bones that
 A B A             end on  C#m 
aching secret wish that this would end

Burn Down The House chords – Rust

 Intro:  Cm G  x2

Verse 1:
 Cm G 
Gather around with your hammers and hatchets.
 Cm G   
We’ll show these senators where the true power is.
 F G 
We’ll hit the streets with the fire in our hands.
                 F G   
We’ll throw ‘em down to the ground and beat them with their own crowns.
 Cm G Cm G 
Burn down the house.

Verse 2:
 Cm G 
Grab your family, grad your friends, grab the children in the street.
 Cm G                          
Tell ‘em we’re gonna go down where the devils meet.
 F G 
We’re gonna climb up that mountain of gold
             F G 
Shove their faces in the dirt and scream, “This is our world.”
     Cm G Cm G 
And burn down the house.

Solo:  Cm G Cm G F G F G Cm G Cm G  

Verse 3:
 Cm G 
Get the fat-cats in their well-primed mansions.
 Cm G 
Drag them out with all their hot shot has beens.
 F G 
Bring them here to show them how we survive
          F G 
With the mud and the blood and the lemons we drive. 

Verse 4:
 Cm G  
Have them breathe in the air that they live above.
 Cm G 
Then tell them this is where we keep the people we love.
 F G 
This is the place we have to spend our lives
          F G 
With the beasties and the demons and the monsters that reside
 Cm G 
In the place we call home.
               Cm G 
Burn down the House.

 Cm G Cm G F G F G  - repeat and fade

Glass House chords – Mads Langer

 -------------------------------------------------------------------------------
                                                  Glass House - Mads Langer
-------------------------------------------------------------------------------
: dknutzen
 djknutz

Tuning: Standard

Intro:  A 

Verse 1:

 D E 
Heat heat elevation
 F#m A D 
Cold by the atmosphere
           E F#m 
We've come too far now. 
 D E F#m A D 
Back to watch the surface at the frequencies of visible eye.
             E F#m 
No turning back, no mercy. 


Pre-Chorus:

 D E 
We're jumping out in parachutes
 F#m A 
Watch yourselves from a birds view 
 D E 
Protecting us against the fall
 F#m A 
when we are hit by the canon ball.


Chorus:

 D E 
We shooted up the glass house
 F#m A 
We blow it all up, we have no fear,
 D E  
We shooted up the glass house 
 F#m A 
We'll be gone when the smoke is disappeared. 
 D E 
We shooted up the glass house
 F#m A  
We blow it all up, we have no fear, 
 D E F#m 
We shooted up the glass house.


Verse 2: Same as verse 1

Fire storm horizon 
We're burning fossil fuels
Warm in isolation 
We stop the air flow
We wanna travel in the speed of light
slow motion melting heartbeat. 


(2 x)
We're jumping out in parachutes
Watch yourselves from a birds view 
Protecting us against the fall 
when we are hit by the canon ball.

We're jumping out in parachutes
Watch yourselves from a birds view 
We're living in the glass house.

Dont You Worry Child Tabs by Swedish House Mafia V5

 6)---3-3-3----------------------------------------------------------------------|
5)-----------------------0-0-0--------------------------------------------------|
4)--------------------------------------2----3-3-3-------2----3-3-3-------------|
3)-------------2-------------------0--------2-2-2---0--------2-2-2----0---------|
2)---0-0-0-------0----1-1-1--------------------------------------------------1--|
1)------------------------------------------------------------------------------|

6)---3-3-3--------------------------------------------------------------------------|
5)-----------------------0-0-0------------------------------------------------------|
4)--------------------------------------------3-3-3-----------------3-3-3-----------|
3)-------------2--------------------------------------------------------------------|
2)---0-0-0-------0----1-1-1--------------------------------------------------3---1--|
1)----------------------------------3----0---5-5-5-------3---0----5-5-5-------------|

One Tabs by Swedish House Mafia V6

 Swedish house mafia one (your name) tab
Guitar 1

E|---------------------------|
B|---------------------------|
G|---------------------------|   x6
D|-7-5-----------------------|
A|-----8-7-5-5-5-5-5--5-5----|
E|---------------------------|

Guitar 2 (comes in after guitar one has riff 2/6)

E|-5-3-------------------------5-3-----3-3-3-3-3--3-5-----|
B|-----6-5-6-6-6-6-6--6-6----------6-5--------------------|
G|--------------------------------------------------------|  x6
D|--------------------------------------------------------|
A|--------------------------------------------------------|
E|--------------------------------------------------------|
Guitar 3 (comes in same time as guitar 2)

E|-3-3-3-3-3-3-3-3-3--3-3---|
B|--------------------------|
G|--------------------------|   x4
D|--------------------------|
A|--------------------------|
E|--------------------------|

E|--------------------------------------------------------|
B|--------------------------------------------------------|
G|--------------------------------------------------------|
D|--------------------------------------------------------|    x4    (can be played as 
power chords)
A|----------------------------5-5-5-5-3-3-3-3-3--3-3------|
E|-3-3-3-3---6-6-6-6-6--6-6-------------------------------|

Guitar 4 (vocal) (comes in after guitar 2 and 3 have done 2 and a bit out of 4)
E|---------5-5----------3-5-------5-5---------------5-5------------3-5-5------5-5----|
B|-3-3-3-3----------6-6-----3-3-3-----------3-3-3-3----------3-6-6-------3-3---------|
G|-----------------------------------------------------------------------------------|   x2
D|-----------------------------------------------------------------------------------|
A|-----------------------------------------------------------------------------------|
E|-----------------------------------------------------------------------------------|
Guitar 5 (comes in after guitar 2 and 3 and have done 4)

E|----12-13-15-13-12-------------------|
B|-15----------------15-13-------------|
G|-------------------------14--12-14---|  x4
D|-------------------------------------|
A|-------------------------------------|
E|-------------------------------------|
At end of fourth time play
G|-14-14-14-14-14-14-14-14-14-14---|  x3     (so 30 A’s)

Then guitar 1, 2 and 3 come in at same time
Then guitar 4
Then guitar 5
So near enough the same as before
Guitar 6
E|---------5-5-5-5-5-5-5-5-5--5-5-5-5-5-5-5-5-5---|
B|-3-3-3-3----------------------------------------|
G|------------------------------------------------|
D|------------------------------------------------|
A|------------------------------------------------|
E|------------------------------------------------|

E|-----------------5-5-3-----------------5-5-5-5-5-5-5-5-5-5---|
B|---------3-3-3-3-------6-5-6-6-6-6-6-6-----------------------|
G|-------------------------------------------------------------|
D|-------------------------------------------------------------|
A|-------------------------------------------------------------|
E|-------------------------------------------------------------|

E|---------5-5-------3-5---------5-5----|
B|-3-3-3-3-------6-6-----3-3-3-3--------|
G|--------------------------------------|
D|--------------------------------------|
A|--------------------------------------|
E|--------------------------------------|

E|---------5-5-----5-5-5-5--8-8-------3--5-5------5-5-/13-13--|
B|-3-3-3-3----------------------3-6-6--------3-3--------------|
G|------------------------------------------------------------|
D|------------------------------------------------------------|
A|------------------------------------------------------------|
E|------------------------------------------------------------|

Guitar 7
E|-------------------12-13-15-13-12------------------13-13-15-17-18-15-15-15-15-15-15-15---|
B|-15-15-15-15-15-15----------------15-14---------------

Lord Kill The Pain Tabs by Red House Painters

 ---------------------------------------------------------------------------
               Red House Painters - Lord Kill the Pain
                        Down Colorful Hill
---------------------------------------------------------------------------

To match the recording you may have to either tune down a whole step or use a capo. 
But it sounds fine in standard tuning too.

Intro:

e|-----------------------------------|
B|-----------------------------------|
G|----0-------0-------4-------2------|
D|----5-------4-------5-------4------|
A|----7-------5-------5-------0------|
E|-----------------------------------|

Section 1:

e|--------2-----2-2-2------2-------2-2------2-----2-2-2--2-2-2-------2-2-----|
B|--------3-----3-3-3------3-------3-3------3-----3-3-3--3-3-3-------3-3-----|
G|--------2-----2-2-2------0-------0-0------0-----0-0-0--0-0-0-------0-0-----|
D|----0---------0-0-0------0-------0-0------0-----0-0-0--2-------0-----------|
A|----0----------------2---------------------------------2-------------------|
E|-----------------------------0--------3------------------------------------|

e|--------2----------------2-------2-2------2-----2-2-2--2-2-2-------2-2-----|
B|--------3----------------3-------3-3------3-----3-3-3--3-3-3-------3-3-----|
G|--------2-----0----------0-------0-0------0-----0-0-0--0-0-0-------0-0-----|
D|----0-----------4--------0-------0-0------0-----0-0-0--2-------0-----------|
A|----0----------------2---------------------------------2-------------------|
E|-----------------------------0--------3------------------------------------|

Section 2: 
                                     (x2)              (x3)               
e|--------3-----3-3-3------2-------2----|-----------------|
B|--------3-----3-3-3------3-------3----|--------0--------|
G|--------0-----0-0-0------2-------2----|-------------0---|
D|--------0-----0-0-0--0-------0--------|------2----------|
A|--------------------------------------|--3--------------|
E|----3---------------------------------|-----------------|

e|---------------------------------------------------------------------------|
B|----7------5------7----------5---3------0-------8------7------3------0-----|
G|----0------0------0----------0---0------2-------0------0------0------2-----|
D|----4------2------4----------2---0------2-------5------4------0------2-----|
A|----5------3------5----------3---2------0-------7------5------2------0-----|
E|---------------------------------------------------------------------------|

Bridge Chords:

e|----0---------------0---------------0---------------0-------0-------0------|
B|----0---------------0---------------0---------------0-------0-------0------|
G|----2---------------2---------------0---------------4-------2-------4------|
D|----2---------------0---------------2---------------4-------2-------4------|
A|----0---------------x---------------x---------------x-------x-------x------|
E|--------------------2---------------3---------------3-------3-------3------|(x2)

      D (2 bars)      C (2 bars)
e|----2---------------0---------------|
B|----3---------------1---------------|
G|----2---------------0---------------|
D|----0---------------2---------------|
A|----0---------------3---------------|
E|------------------------------------| (x4)

Interlude (*signified by change in tempo) Chords:

e|----0-------------0------0------0--------------0-------------0------------|
B|----0-------------0------0------1--------------0-------------0------------|
G|----2-------------2------2------0--------------0-------------2------------|
D|----2-------------0------0------2--------------2-------------2------------|
A|----0-------------x------x------3--------------2-------------0------------|
E|------------------2------3------3--------------0--------------------------|

Outro/Ending: Play the Verse section again and fade out.


Lyrics:

Lord kill the pain
Lord, kill the pain